  0
SECTION
  2
HEADER
  9
$ACADVER
  1
AC1015
  9
$ACADMAINTVER
 70
     6
  9
$DWGCODEPAGE
  3
ANSI_932
  9
$INSBASE
 10
0.0
 20
0.0
 30
0.0
  9
$EXTMIN
 10
1.19491967034381
 20
0.0
 30
0.0
  9
$EXTMAX
 10
269.8446204785666
 20
212.0511701837758
 30
0.0
  9
$LIMMIN
 10
0.0
 20
0.0
  9
$LIMMAX
 10
12.0
 20
9.0
  9
$ORTHOMODE
 70
     0
  9
$REGENMODE
 70
     1
  9
$FILLMODE
 70
     1
  9
$QTEXTMODE
 70
     0
  9
$MIRRTEXT
 70
     1
  9
$LTSCALE
 40
1.0
  9
$ATTMODE
 70
     1
  9
$TEXTSIZE
 40
0.2
  9
$TRACEWID
 40
0.05
  9
$TEXTSTYLE
  7
Standard
  9
$CLAYER
  8
0
  9
$CELTYPE
  6
ByLayer
  9
$CECOLOR
 62
   256
  9
$CELTSCALE
 40
1.0
  9
$DISPSILH
 70
     0
  9
$DIMSCALE
 40
1.0
  9
$DIMASZ
 40
0.18
  9
$DIMEXO
 40
0.0625
  9
$DIMDLI
 40
0.38
  9
$DIMRND
 40
0.0
  9
$DIMDLE
 40
0.0
  9
$DIMEXE
 40
0.18
  9
$DIMTP
 40
0.0
  9
$DIMTM
 40
0.0
  9
$DIMTXT
 40
0.18
  9
$DIMCEN
 40
0.09
  9
$DIMTSZ
 40
0.0
  9
$DIMTOL
 70
     0
  9
$DIMLIM
 70
     0
  9
$DIMTIH
 70
     1
  9
$DIMTOH
 70
     1
  9
$DIMSE1
 70
     0
  9
$DIMSE2
 70
     0
  9
$DIMTAD
 70
     0
  9
$DIMZIN
 70
     0
  9
$DIMBLK
  1

  9
$DIMASO
 70
     1
  9
$DIMSHO
 70
     1
  9
$DIMPOST
  1

  9
$DIMAPOST
  1

  9
$DIMALT
 70
     0
  9
$DIMALTD
 70
     2
  9
$DIMALTF
 40
25.4
  9
$DIMLFAC
 40
1.0
  9
$DIMTOFL
 70
     0
  9
$DIMTVP
 40
0.0
  9
$DIMTIX
 70
     0
  9
$DIMSOXD
 70
     0
  9
$DIMSAH
 70
     0
  9
$DIMBLK1
  1

  9
$DIMBLK2
  1

  9
$DIMSTYLE
  2
Standard
  9
$DIMCLRD
 70
     0
  9
$DIMCLRE
 70
     0
  9
$DIMCLRT
 70
     0
  9
$DIMTFAC
 40
1.0
  9
$DIMGAP
 40
0.09
  9
$DIMJUST
 70
     0
  9
$DIMSD1
 70
     0
  9
$DIMSD2
 70
     0
  9
$DIMTOLJ
 70
     1
  9
$DIMTZIN
 70
     0
  9
$DIMALTZ
 70
     0
  9
$DIMALTTZ
 70
     0
  9
$DIMUPT
 70
     0
  9
$DIMDEC
 70
     4
  9
$DIMTDEC
 70
     4
  9
$DIMALTU
 70
     2
  9
$DIMALTTD
 70
     2
  9
$DIMTXSTY
  7
Standard
  9
$DIMAUNIT
 70
     0
  9
$DIMADEC
 70
     0
  9
$DIMALTRND
 40
0.0
  9
$DIMAZIN
 70
     0
  9
$DIMDSEP
 70
    46
  9
$DIMATFIT
 70
     3
  9
$DIMFRAC
 70
     0
  9
$DIMLDRBLK
  1

  9
$DIMLUNIT
 70
     2
  9
$DIMLWD
 70
    -2
  9
$DIMLWE
 70
    -2
  9
$DIMTMOVE
 70
     0
  9
$LUNITS
 70
     2
  9
$LUPREC
 70
     4
  9
$SKETCHINC
 40
0.1
  9
$FILLETRAD
 40
0.5
  9
$AUNITS
 70
     0
  9
$AUPREC
 70
     0
  9
$MENU
  1
.
  9
$ELEVATION
 40
0.0
  9
$PELEVATION
 40
0.0
  9
$THICKNESS
 40
0.0
  9
$LIMCHECK
 70
     0
  9
$CHAMFERA
 40
0.5
  9
$CHAMFERB
 40
0.5
  9
$CHAMFERC
 40
1.0
  9
$CHAMFERD
 40
0.0
  9
$SKPOLY
 70
     0
  9
$TDCREATE
 40
2460411.652315764
  9
$TDUCREATE
 40
2460411.277315764
  9
$TDUPDATE
 40
2460411.652315775
  9
$TDUUPDATE
 40
2460411.277315775
  9
$TDINDWG
 40
0.0000000116
  9
$TDUSRTIMER
 40
0.0000000116
  9
$USRTIMER
 70
     1
  9
$ANGBASE
 50
0.0
  9
$ANGDIR
 70
     0
  9
$PDMODE
 70
     0
  9
$PDSIZE
 40
0.0
  9
$PLINEWID
 40
0.0
  9
$SPLFRAME
 70
     0
  9
$SPLINETYPE
 70
     6
  9
$SPLINESEGS
 70
     8
  9
$HANDSEED
  5
209
  9
$SURFTAB1
 70
     6
  9
$SURFTAB2
 70
     6
  9
$SURFTYPE
 70
     6
  9
$SURFU
 70
     6
  9
$SURFV
 70
     6
  9
$UCSBASE
  2

  9
$UCSNAME
  2

  9
$UCSORG
 10
0.0
 20
0.0
 30
0.0
  9
$UCSXDIR
 10
1.0
 20
0.0
 30
0.0
  9
$UCSYDIR
 10
0.0
 20
1.0
 30
0.0
  9
$UCSORTHOREF
  2

  9
$UCSORTHOVIEW
 70
     0
  9
$UCSORGTOP
 10
0.0
 20
0.0
 30
0.0
  9
$UCSORGBOTTOM
 10
0.0
 20
0.0
 30
0.0
  9
$UCSORGLEFT
 10
0.0
 20
0.0
 30
0.0
  9
$UCSORGRIGHT
 10
0.0
 20
0.0
 30
0.0
  9
$UCSORGFRONT
 10
0.0
 20
0.0
 30
0.0
  9
$UCSORGBACK
 10
0.0
 20
0.0
 30
0.0
  9
$PUCSBASE
  2

  9
$PUCSNAME
  2

  9
$PUCSORG
 10
0.0
 20
0.0
 30
0.0
  9
$PUCSXDIR
 10
1.0
 20
0.0
 30
0.0
  9
$PUCSYDIR
 10
0.0
 20
1.0
 30
0.0
  9
$PUCSORTHOREF
  2

  9
$PUCSORTHOVIEW
 70
     0
  9
$PUCSORGTOP
 10
0.0
 20
0.0
 30
0.0
  9
$PUCSORGBOTTOM
 10
0.0
 20
0.0
 30
0.0
  9
$PUCSORGLEFT
 10
0.0
 20
0.0
 30
0.0
  9
$PUCSORGRIGHT
 10
0.0
 20
0.0
 30
0.0
  9
$PUCSORGFRONT
 10
0.0
 20
0.0
 30
0.0
  9
$PUCSORGBACK
 10
0.0
 20
0.0
 30
0.0
  9
$USERI1
 70
     0
  9
$USERI2
 70
     0
  9
$USERI3
 70
     0
  9
$USERI4
 70
     0
  9
$USERI5
 70
     0
  9
$USERR1
 40
18.0
  9
$USERR2
 40
0.0
  9
$USERR3
 40
0.0
  9
$USERR4
 40
0.0
  9
$USERR5
 40
0.0
  9
$WORLDVIEW
 70
     1
  9
$SHADEDGE
 70
     3
  9
$SHADEDIF
 70
    70
  9
$TILEMODE
 70
     1
  9
$MAXACTVP
 70
    64
  9
$PINSBASE
 10
0.0
 20
0.0
 30
0.0
  9
$PLIMCHECK
 70
     0
  9
$PEXTMIN
 10
1.00000000000000E+20
 20
1.00000000000000E+20
 30
1.00000000000000E+20
  9
$PEXTMAX
 10
-1.00000000000000E+20
 20
-1.00000000000000E+20
 30
-1.00000000000000E+20
  9
$PLIMMIN
 10
0.0
 20
0.0
  9
$PLIMMAX
 10
12.0
 20
9.0
  9
$UNITMODE
 70
     0
  9
$VISRETAIN
 70
     1
  9
$PLINEGEN
 70
     0
  9
$PSLTSCALE
 70
     1
  9
$TREEDEPTH
 70
  3020
  9
$CMLSTYLE
  2
Standard
  9
$CMLJUST
 70
     0
  9
$CMLSCALE
 40
1.0
  9
$PROXYGRAPHICS
 70
     1
  9
$MEASUREMENT
 70
     1
  9
$CELWEIGHT
370
    -1
  9
$ENDCAPS
280
     0
  9
$JOINSTYLE
280
     0
  9
$LWDISPLAY
290
     0
  9
$INSUNITS
 70
     1
  9
$HYPERLINKBASE
  1

  9
$STYLESHEET
  1

  9
$XEDIT
290
     1
  9
$CEPSNTYPE
380
     0
  9
$PSTYLEMODE
290
     1
  9
$FINGERPRINTGUID
  2
{B7363B49-317E-46BC-85CF-20218BD11A99}
  9
$VERSIONGUID
  2
{FAEB1C32-E019-11D5-929B-00C0DF256EC4}
  9
$EXTNAMES
290
     1
  9
$PSVPSCALE
 40
0.0
  9
$OLESTARTUP
290
     0
  0
ENDSEC
  0
SECTION
  2
CLASSES
  0
CLASS
  1
ACDBDICTIONARYWDFLT
  2
AcDbDictionaryWithDefault
  3
ObjectDBX Classes
 90
        0
280
     0
281
     0
  0
CLASS
  1
VISUALSTYLE
  2
AcDbVisualStyle
  3
ObjectDBX Classes
 90
     4095
280
     0
281
     0
  0
CLASS
  1
MATERIAL
  2
AcDbMaterial
  3
ObjectDBX Classes
 90
     1153
280
     0
281
     0
  0
CLASS
  1

  2
exOdDbCircle
  3

 90
        0
280
     0
281
     1
  0
CLASS
  1

  2
exOdDbSpline
  3

 90
        0
280
     0
281
     1
  0
CLASS
  1
DICTIONARYVAR
  2
AcDbDictionaryVar
  3
ObjectDBX Classes
 90
        0
280
     0
281
     0
  0
CLASS
  1
ACDBPLACEHOLDER
  2
AcDbPlaceHolder
  3
ObjectDBX Classes
 90
        0
280
     0
281
     0
  0
CLASS
  1
LAYOUT
  2
AcDbLayout
  3
ObjectDBX Classes
 90
        0
280
     0
281
     0
  0
ENDSEC
  0
SECTION
  2
TABLES
  0
TABLE
  2
VPORT
  5
8
330
0
100
AcDbSymbolTable
 70
     1
  0
VPORT
  5
29
330
8
100
AcDbSymbolTableRecord
100
AcDbViewportTableRecord
  2
*Active
 70
     0
 10
0.0
 20
0.0
 11
1.0
 21
1.0
 12
135.5197700744552
 22
106.0255850918879
 13
0.0
 23
0.0
 14
0.5
 24
0.5
 15
0.5
 25
0.5
 16
0.0
 26
0.0
 36
1.0
 17
0.0
 27
0.0
 37
0.0
 40
233.2562872021534
 41
1.60267857142857
 42
50.0
 43
0.0
 44
0.0
 50
0.0
 51
0.0
 71
     0
 72
   100
 73
     1
 74
     3
 75
     0
 76
     0
 77
     0
 78
     0
281
     0
 65
     1
110
0.0
120
0.0
130
0.0
111
1.0
121
0.0
131
0.0
112
0.0
122
1.0
132
0.0
 79
     0
146
0.0
  0
ENDTAB
  0
TABLE
  2
LTYPE
  5
5
330
0
100
AcDbSymbolTable
 70
     8
  0
LTYPE
  5
14
330
5
100
AcDbSymbolTableRecord
100
AcDbLinetypeTableRecord
  2
ByBlock
 70
     0
  3

 72
    65
 73
     0
 40
0.0
  0
LTYPE
  5
15
330
5
100
AcDbSymbolTableRecord
100
AcDbLinetypeTableRecord
  2
ByLayer
 70
     0
  3

 72
    65
 73
     0
 40
0.0
  0
LTYPE
  5
16
330
5
100
AcDbSymbolTableRecord
100
AcDbLinetypeTableRecord
  2
Continuous
 70
     0
  3
Solid line
 72
    65
 73
     0
 40
0.0
  0
LTYPE
  5
3F
330
5
100
AcDbSymbolTableRecord
100
AcDbLinetypeTableRecord
  2
DASHED
 70
     0
  3
Dashed
 72
    65
 73
     2
 40
15.0
 49
7.0
 74
     0
 49
-8.0
 74
     0
  0
LTYPE
  5
40
330
5
100
AcDbSymbolTableRecord
100
AcDbLinetypeTableRecord
  2
DOTTED
 70
     0
  3
Dotted
 72
    65
 73
     2
 40
1.0
 49
0.0
 74
     0
 49
-1.0
 74
     0
  0
LTYPE
  5
41
330
5
100
AcDbSymbolTableRecord
100
AcDbLinetypeTableRecord
  2
DOT_CENTER
 70
     0
  3
Dot_Center
 72
    65
 73
     4
 40
14.0
 49
12.0
 74
     0
 49
-1.0
 74
     0
 49
0.0
 74
     0
 49
-1.0
 74
     0
  0
LTYPE
  5
42
330
5
100
AcDbSymbolTableRecord
100
AcDbLinetypeTableRecord
  2
LONG_DASHED
 70
     0
  3
Long_Dashed
 72
    65
 73
     2
 40
15.0
 49
10.0
 74
     0
 49
-5.0
 74
     0
  0
LTYPE
  5
43
330
5
100
AcDbSymbolTableRecord
100
AcDbLinetypeTableRecord
  2
DASH_CENTER
 70
     0
  3
Dash_Center
 72
    65
 73
     4
 40
14.0
 49
11.0
 74
     0
 49
-1.0
 74
     0
 49
1.0
 74
     0
 49
-1.0
 74
     0
  0
LTYPE
  5
44
330
5
100
AcDbSymbolTableRecord
100
AcDbLinetypeTableRecord
  2
PHANTOM
 70
     0
  3
Phantom
 72
    65
 73
     6
 40
13.0
 49
10.0
 74
     0
 49
-1.0
 74
     0
 49
0.0
 74
     0
 49
-1.0
 74
     0
 49
0.0
 74
     0
 49
-1.0
 74
     0
  0
LTYPE
  5
45
330
5
100
AcDbSymbolTableRecord
100
AcDbLinetypeTableRecord
  2
CENTER_DASH_DASH
 70
     0
  3
Center_Dash_Dash
 72
    65
 73
     6
 40
14.0
 49
9.0
 74
     0
 49
-1.0
 74
     0
 49
1.0
 74
     0
 49
-1.0
 74
     0
 49
1.0
 74
     0
 49
-1.0
 74
     0
  0
ENDTAB
  0
TABLE
  2
LAYER
  5
2
330
0
100
AcDbSymbolTable
 70
     4
  0
LAYER
  5
10
330
2
100
AcDbSymbolTableRecord
100
AcDbLayerTableRecord
  2
0
 70
     0
 62
     7
  6
Continuous
370
    -3
390
F
  0
LAYER
  5
46
330
2
100
AcDbSymbolTableRecord
100
AcDbLayerTableRecord
  2
1
 70
     0
 62
     7
  6
Continuous
370
    -3
390
F
  0
LAYER
  5
47
330
2
100
AcDbSymbolTableRecord
100
AcDbLayerTableRecord
  2
100
 70
     0
 62
     7
  6
Continuous
370
    -3
390
F
  0
LAYER
  5
48
330
2
100
AcDbSymbolTableRecord
100
AcDbLayerTableRecord
  2
LEVEL001
 70
     0
 62
     7
  6
Continuous
370
    -3
390
F
  0
ENDTAB
  0
TABLE
  2
STYLE
  5
3
330
0
100
AcDbSymbolTable
 70
     1
  0
STYLE
  5
11
330
3
100
AcDbSymbolTableRecord
100
AcDbTextStyleTableRecord
  2
Standard
 70
     0
 40
0.0
 41
1.0
 50
0.0
 71
     0
 42
0.2
  3
txt
  4

  0
ENDTAB
  0
TABLE
  2
VIEW
  5
6
330
0
100
AcDbSymbolTable
 70
     0
  0
ENDTAB
  0
TABLE
  2
UCS
  5
7
330
0
100
AcDbSymbolTable
 70
     0
  0
ENDTAB
  0
TABLE
  2
APPID
  5
9
330
0
100
AcDbSymbolTable
 70
     1
  0
APPID
  5
12
330
9
100
AcDbSymbolTableRecord
100
AcDbRegAppTableRecord
  2
ACAD
 70
     0
  0
ENDTAB
  0
TABLE
  2
DIMSTYLE
  5
A
330
0
100
AcDbSymbolTable
 70
     1
100
AcDbDimStyleTable
  0
DIMSTYLE
105
27
330
A
100
AcDbSymbolTableRecord
100
AcDbDimStyleTableRecord
  2
Standard
 70
     0
340
11
  0
ENDTAB
  0
TABLE
  2
BLOCK_RECORD
  5
1
330
0
100
AcDbSymbolTable
 70
     1
  0
BLOCK_RECORD
  5
1F
330
1
100
AcDbSymbolTableRecord
100
AcDbBlockTableRecord
  2
*Model_Space
340
22
  0
BLOCK_RECORD
  5
1B
330
1
100
AcDbSymbolTableRecord
100
AcDbBlockTableRecord
  2
*Paper_Space
340
1E
  0
BLOCK_RECORD
  5
23
330
1
100
AcDbSymbolTableRecord
100
AcDbBlockTableRecord
  2
*Paper_Space0
340
26
  0
ENDTAB
  0
ENDSEC
  0
SECTION
  2
BLOCKS
  0
BLOCK
  5
20
330
1F
100
AcDbEntity
  8
0
100
AcDbBlockBegin
  2
*Model_Space
 70
     0
 10
0.0
 20
0.0
 30
0.0
  3
*Model_Space
  1

  0
ENDBLK
  5
21
330
1F
100
AcDbEntity
  8
0
100
AcDbBlockEnd
  0
BLOCK
  5
1C
330
1B
100
AcDbEntity
 67
     1
  8
0
100
AcDbBlockBegin
  2
*Paper_Space
 70
     0
 10
0.0
 20
0.0
 30
0.0
  3
*Paper_Space
  1

  0
ENDBLK
  5
1D
330
1B
100
AcDbEntity
 67
     1
  8
0
100
AcDbBlockEnd
  0
BLOCK
  5
24
330
23
100
AcDbEntity
  8
0
100
AcDbBlockBegin
  2
*Paper_Space0
 70
     0
 10
0.0
 20
0.0
 30
0.0
  3
*Paper_Space0
  1

  0
ENDBLK
  5
25
330
23
100
AcDbEntity
  8
0
100
AcDbBlockEnd
  0
ENDSEC
  0
SECTION
  2
ENTITIES
  0
POINT
  5
49
330
1F
100
AcDbEntity
  8
1
 62
     3
 60
     1
100
AcDbPoint
 10
307.249999999725
 20
56.9999999999999
 30
0.0
  0
POINT
  5
4A
330
1F
100
AcDbEntity
  8
1
 62
     3
 60
     1
100
AcDbPoint
 10
264.99999999994
 20
90.72563427696
 30
0.0
  0
POINT
  5
4B
330
1F
100
AcDbEntity
  8
1
 62
     3
 60
     1
100
AcDbPoint
 10
264.99999999994
 20
90.72733061961
 30
0.0
  0
LINE
  5
4C
330
1F
100
AcDbEntity
  8
1
  6
Continuous
 62
     4
100
AcDbLine
 10
20.49352928380139
 20
74.83431887545395
 30
0.0
 11
24.37588222497786
 21
74.83431887545395
 31
0.0
  0
LINE
  5
4D
330
1F
100
AcDbEntity
  8
1
  6
Continuous
 62
     4
100
AcDbLine
 10
20.84647046027198
 20
75.83431887545395
 30
0.0
 11
20.49352928380139
 21
74.83431887545395
 31
0.0
  0
LINE
  5
4E
330
1F
100
AcDbEntity
  8
1
  6
Continuous
 62
     4
100
AcDbLine
 10
21.19941163674257
 20
76.43431887545394
 30
0.0
 11
20.84647046027198
 21
75.83431887545395
 31
0.0
  0
LINE
  5
4F
330
1F
100
AcDbEntity
  8
1
  6
Continuous
 62
     4
100
AcDbLine
 10
21.90529398968375
 20
77.03431887545395
 30
0.0
 11
21.19941163674257
 21
76.43431887545394
 31
0.0
  0
LINE
  5
50
330
1F
100
AcDbEntity
  8
1
  6
Continuous
 62
     4
100
AcDbLine
 10
22.61117634262492
 20
77.43431887545394
 30
0.0
 11
21.90529398968375
 21
77.03431887545395
 31
0.0
  0
LINE
  5
51
330
1F
100
AcDbEntity
  8
1
  6
Continuous
 62
     4
100
AcDbLine
 10
23.49352928380139
 20
78.03431887545395
 30
0.0
 11
22.61117634262492
 21
77.43431887545394
 31
0.0
  0
LINE
  5
52
330
1F
100
AcDbEntity
  8
1
  6
Continuous
 62
     4
100
AcDbLine
 10
24.02294104850728
 20
78.83431887545395
 30
0.0
 11
23.49352928380139
 21
78.03431887545395
 31
0.0
  0
LINE
  5
53
330
1F
100
AcDbEntity
  8
1
  6
Continuous
 62
     4
100
AcDbLine
 10
24.19941163674257
 20
79.63431887545394
 30
0.0
 11
24.02294104850728
 21
78.83431887545395
 31
0.0
  0
LINE
  5
54
330
1F
100
AcDbEntity
  8
1
  6
Continuous
 62
     4
100
AcDbLine
 10
23.49352928380139
 20
80.43431887545394
 30
0.0
 11
24.19941163674257
 21
79.63431887545394
 31
0.0
  0
LINE
  5
55
330
1F
100
AcDbEntity
  8
1
  6
Continuous
 62
     4
100
AcDbLine
 10
22.43470575438963
 20
80.83431887545395
 30
0.0
 11
23.49352928380139
 21
80.43431887545394
 31
0.0
  0
LINE
  5
56
330
1F
100
AcDbEntity
  8
1
  6
Continuous
 62
     4
100
AcDbLine
 10
21.37588222497787
 20
80.43431887545394
 30
0.0
 11
22.43470575438963
 21
80.83431887545395
 31
0.0
  0
LINE
  5
57
330
1F
100
AcDbEntity
  8
1
  6
Continuous
 62
     4
100
AcDbLine
 10
20.66999987203669
 20
79.63431887545394
 30
0.0
 11
21.37588222497787
 21
80.43431887545394
 31
0.0
  0
LINE
  5
58
330
1F
100
AcDbEntity
  8
1
  6
Continuous
 62
     4
100
AcDbLine
 10
18.72882340144845
 20
80.23431887545395
 30
0.0
 11
15.02294104850728
 21
75.83431887545395
 31
0.0
  0
LINE
  5
59
330
1F
100
AcDbEntity
  8
1
  6
Continuous
 62
     4
100
AcDbLine
 10
13.25823516615434
 20
80.83431887545395
 30
0.0
 11
13.25823516615434
 21
74.83431887545395
 31
0.0
  0
LINE
  5
5A
330
1F
100
AcDbEntity
  8
1
  6
Continuous
 62
     4
100
AcDbLine
 10
12.37588222497787
 20
80.23431887545395
 30
0.0
 11
13.25823516615434
 21
80.83431887545395
 31
0.0
  0
LINE
  5
5B
330
1F
100
AcDbEntity
  8
1
  6
Continuous
 62
     4
100
AcDbLine
 10
7.96411751909551
 20
75.63431887545394
 30
0.0
 11
7.78764693086022
 21
76.43431887545394
 31
0.0
  0
LINE
  5
5C
330
1F
100
AcDbEntity
  8
1
  6
Continuous
 62
     4
100
AcDbLine
 10
8.49352928380139
 20
75.03431887545395
 30
0.0
 11
7.96411751909551
 21
75.63431887545394
 31
0.0
  0
LINE
  5
5D
330
1F
100
AcDbEntity
  8
1
  6
Continuous
 62
     4
100
AcDbLine
 10
9.19941163674257
 20
74.83431887545395
 30
0.0
 11
8.49352928380139
 21
75.03431887545395
 31
0.0
  0
LINE
  5
5E
330
1F
100
AcDbEntity
  8
1
  6
Continuous
 62
     4
100
AcDbLine
 10
9.90529398968375
 20
75.03431887545395
 30
0.0
 11
9.19941163674257
 21
74.83431887545395
 31
0.0
  0
LINE
  5
5F
330
1F
100
AcDbEntity
  8
1
  6
Continuous
 62
     4
100
AcDbLine
 10
10.43470575438963
 20
75.63431887545394
 30
0.0
 11
9.90529398968375
 21
75.03431887545395
 31
0.0
  0
LINE
  5
60
330
1F
100
AcDbEntity
  8
1
  6
Continuous
 62
     4
100
AcDbLine
 10
10.61117634262492
 20
76.43431887545394
 30
0.0
 11
10.43470575438963
 21
75.63431887545394
 31
0.0
  0
LINE
  5
61
330
1F
100
AcDbEntity
  8
1
  6
Continuous
 62
     4
100
AcDbLine
 10
10.61117634262492
 20
80.83431887545395
 30
0.0
 11
10.61117634262492
 21
76.43431887545394
 31
0.0
  0
LINE
  5
62
330
1F
100
AcDbEntity
  8
1
  6
Continuous
 62
     4
100
AcDbLine
 10
2.49352928380139
 20
77.63431887545394
 30
0.0
 11
2.49352928380139
 21
80.63431887545394
 31
0.0
  0
LINE
  5
63
330
1F
100
AcDbEntity
  8
1
  6
Continuous
 62
     4
100
AcDbLine
 10
4.78764693086022
 20
77.63431887545394
 30
0.0
 11
2.49352928380139
 21
77.63431887545394
 31
0.0
  0
LINE
  5
64
330
1F
100
AcDbEntity
  8
1
  6
Continuous
 62
     4
100
AcDbLine
 10
5.49352928380139
 20
78.03431887545395
 30
0.0
 11
4.78764693086022
 21
77.63431887545394
 31
0.0
  0
LINE
  5
65
330
1F
100
AcDbEntity
  8
1
  6
Continuous
 62
     4
100
AcDbLine
 10
5.84647046027198
 20
78.43431887545394
 30
0.0
 11
5.49352928380139
 21
78.03431887545395
 31
0.0
  0
LINE
  5
66
330
1F
100
AcDbEntity
  8
1
  6
Continuous
 62
     4
100
AcDbLine
 10
6.02294104850728
 20
79.23431887545395
 30
0.0
 11
5.84647046027198
 21
78.43431887545394
 31
0.0
  0
LINE
  5
67
330
1F
100
AcDbEntity
  8
1
  6
Continuous
 62
     4
100
AcDbLine
 10
5.84647046027198
 20
79.63431887545394
 30
0.0
 11
6.02294104850728
 21
79.23431887545395
 31
0.0
  0
LINE
  5
68
330
1F
100
AcDbEntity
  8
1
  6
Continuous
 62
     4
100
AcDbLine
 10
5.49352928380139
 20
80.23431887545395
 30
0.0
 11
5.84647046027198
 21
79.63431887545394
 31
0.0
  0
LINE
  5
69
330
1F
100
AcDbEntity
  8
1
  6
Continuous
 62
     4
100
AcDbLine
 10
4.78764693086022
 20
80.63431887545394
 30
0.0
 11
5.49352928380139
 21
80.23431887545395
 31
0.0
  0
LINE
  5
6A
330
1F
100
AcDbEntity
  8
1
  6
Continuous
 62
     4
100
AcDbLine
 10
2.49352928380139
 20
80.63431887545394
 30
0.0
 11
4.78764693086022
 21
80.63431887545394
 31
0.0
  0
LINE
  5
6B
330
1F
100
AcDbEntity
  8
1
  6
Continuous
 62
     4
100
AcDbLine
 10
2.49352928380139
 20
74.83431887545395
 30
0.0
 11
2.49352928380139
 21
77.63431887545394
 31
0.0
  0
LINE
  5
6C
330
1F
100
AcDbEntity
  8
1
  6
Continuous
 62
     4
100
AcDbLine
 10
141.6433517661332
 20
6.0
 30
0.0
 11
141.6433517661332
 21
0.0
 31
0.0
  0
LINE
  5
6D
330
1F
100
AcDbEntity
  8
1
  6
Continuous
 62
     4
100
AcDbLine
 10
140.7609988249567
 20
5.4
 30
0.0
 11
141.6433517661332
 21
6.0
 31
0.0
  0
LINE
  5
6E
330
1F
100
AcDbEntity
  8
1
  6
Continuous
 62
     4
100
AcDbLine
 10
135.8198223543685
 20
3.0
 30
0.0
 11
138.9962929426038
 21
3.0
 31
0.0
  0
LINE
  5
6F
330
1F
100
AcDbEntity
  8
1
  6
Continuous
 62
     4
100
AcDbLine
 10
134.0551164720155
 20
6.0
 30
0.0
 11
134.0551164720155
 21
0.0
 31
0.0
  0
LINE
  5
70
330
1F
100
AcDbEntity
  8
1
  6
Continuous
 62
     4
100
AcDbLine
 10
133.1727635308391
 20
5.4
 30
0.0
 11
134.0551164720155
 21
6.0
 31
0.0
  0
LINE
  5
71
330
1F
100
AcDbEntity
  8
1
  6
Continuous
 62
     4
100
AcDbLine
 10
130.5257047073096
 20
5.6
 30
0.0
 11
129.4668811778979
 21
6.0
 31
0.0
  0
LINE
  5
72
330
1F
100
AcDbEntity
  8
1
  6
Continuous
 62
     4
100
AcDbLine
 10
131.2315870602508
 20
4.6
 30
0.0
 11
130.5257047073096
 21
5.6
 31
0.0
  0
LINE
  5
73
330
1F
100
AcDbEntity
  8
1
  6
Continuous
 62
     4
100
AcDbLine
 10
131.4080576484861
 20
3.0
 30
0.0
 11
131.2315870602508
 21
4.6
 31
0.0
  0
LINE
  5
74
330
1F
100
AcDbEntity
  8
1
  6
Continuous
 62
     4
100
AcDbLine
 10
131.2315870602508
 20
1.4
 30
0.0
 11
131.4080576484861
 21
3.0
 31
0.0
  0
LINE
  5
75
330
1F
100
AcDbEntity
  8
1
  6
Continuous
 62
     4
100
AcDbLine
 10
130.5257047073096
 20
0.4
 30
0.0
 11
131.2315870602508
 21
1.4
 31
0.0
  0
LINE
  5
76
330
1F
100
AcDbEntity
  8
1
  6
Continuous
 62
     4
100
AcDbLine
 10
129.4668811778979
 20
0.0
 30
0.0
 11
130.5257047073096
 21
0.4
 31
0.0
  0
LINE
  5
77
330
1F
100
AcDbEntity
  8
1
  6
Continuous
 62
     4
100
AcDbLine
 10
128.4080576484861
 20
0.4
 30
0.0
 11
129.4668811778979
 21
0.0
 31
0.0
  0
LINE
  5
78
330
1F
100
AcDbEntity
  8
1
  6
Continuous
 62
     4
100
AcDbLine
 10
127.8786458837802
 20
1.4
 30
0.0
 11
128.4080576484861
 21
0.4
 31
0.0
  0
LINE
  5
79
330
1F
100
AcDbEntity
  8
1
  6
Continuous
 62
     4
100
AcDbLine
 10
127.5257047073096
 20
3.0
 30
0.0
 11
127.8786458837802
 21
1.4
 31
0.0
  0
LINE
  5
7A
330
1F
100
AcDbEntity
  8
1
  6
Continuous
 62
     4
100
AcDbLine
 10
127.8786458837802
 20
4.6
 30
0.0
 11
127.5257047073096
 21
3.0
 31
0.0
  0
LINE
  5
7B
330
1F
100
AcDbEntity
  8
1
  6
Continuous
 62
     4
100
AcDbLine
 10
128.4080576484861
 20
5.6
 30
0.0
 11
127.8786458837802
 21
4.6
 31
0.0
  0
LINE
  5
7C
330
1F
100
AcDbEntity
  8
1
  6
Continuous
 62
     4
100
AcDbLine
 10
129.4668811778979
 20
6.0
 30
0.0
 11
128.4080576484861
 21
5.6
 31
0.0
  0
LINE
  5
7D
330
1F
100
AcDbEntity
  8
1
  6
Continuous
 62
     4
100
AcDbLine
 10
122.4080576484861
 20
3.0
 30
0.0
 11
122.4080576484861
 21
0.0
 31
0.0
  0
LINE
  5
7E
330
1F
100
AcDbEntity
  8
1
  6
Continuous
 62
     4
100
AcDbLine
 10
122.4080576484861
 20
3.0
 30
0.0
 11
125.4080576484861
 21
3.0
 31
0.0
  0
LINE
  5
7F
330
1F
100
AcDbEntity
  8
1
  6
Continuous
 62
     4
100
AcDbLine
 10
122.4080576484861
 20
6.0
 30
0.0
 11
122.4080576484861
 21
3.0
 31
0.0
  0
LINE
  5
80
330
1F
100
AcDbEntity
  8
1
  6
Continuous
 62
     4
100
AcDbLine
 10
125.7609988249567
 20
6.0
 30
0.0
 11
122.4080576484861
 21
6.0
 31
0.0
  0
LINE
  5
81
330
1F
100
AcDbEntity
  8
1
  6
Continuous
 62
     4
100
AcDbLine
 10
119.2315870602508
 20
0.0
 30
0.0
 11
117.1139400014273
 21
0.0
 31
0.0
  0
LINE
  5
82
330
1F
100
AcDbEntity
  8
1
  6
Continuous
 62
     4
100
AcDbLine
 10
120.2904105896626
 20
0.4
 30
0.0
 11
119.2315870602508
 21
0.0
 31
0.0
  0
LINE
  5
83
330
1F
100
AcDbEntity
  8
1
  6
Continuous
 62
     4
100
AcDbLine
 10
120.6433517661332
 20
1.4
 30
0.0
 11
120.2904105896626
 21
0.4
 31
0.0
  0
LINE
  5
84
330
1F
100
AcDbEntity
  8
1
  6
Continuous
 62
     4
100
AcDbLine
 10
120.2904105896626
 20
2.4
 30
0.0
 11
120.6433517661332
 21
1.4
 31
0.0
  0
LINE
  5
85
330
1F
100
AcDbEntity
  8
1
  6
Continuous
 62
     4
100
AcDbLine
 10
119.2315870602508
 20
2.8
 30
0.0
 11
120.2904105896626
 21
2.4
 31
0.0
  0
LINE
  5
86
330
1F
100
AcDbEntity
  8
1
  6
Continuous
 62
     4
100
AcDbLine
 10
117.1139400014273
 20
2.8
 30
0.0
 11
119.2315870602508
 21
2.8
 31
0.0
  0
LINE
  5
87
330
1F
100
AcDbEntity
  8
1
  6
Continuous
 62
     4
100
AcDbLine
 10
119.2315870602508
 20
2.8
 30
0.0
 11
117.1139400014273
 21
2.8
 31
0.0
  0
LINE
  5
88
330
1F
100
AcDbEntity
  8
1
  6
Continuous
 62
     4
100
AcDbLine
 10
120.1139400014273
 20
3.4
 30
0.0
 11
119.2315870602508
 21
2.8
 31
0.0
  0
LINE
  5
89
330
1F
100
AcDbEntity
  8
1
  6
Continuous
 62
     4
100
AcDbLine
 10
120.2904105896626
 20
4.2
 30
0.0
 11
120.1139400014273
 21
3.4
 31
0.0
  0
LINE
  5
8A
330
1F
100
AcDbEntity
  8
1
  6
Continuous
 62
     4
100
AcDbLine
 10
120.1139400014273
 20
5.2
 30
0.0
 11
120.2904105896626
 21
4.2
 31
0.0
  0
LINE
  5
8B
330
1F
100
AcDbEntity
  8
1
  6
Continuous
 62
     4
100
AcDbLine
 10
119.2315870602508
 20
5.6
 30
0.0
 11
120.1139400014273
 21
5.2
 31
0.0
  0
LINE
  5
8C
330
1F
100
AcDbEntity
  8
1
  6
Continuous
 62
     4
100
AcDbLine
 10
117.1139400014273
 20
5.6
 30
0.0
 11
119.2315870602508
 21
5.6
 31
0.0
  0
LINE
  5
8D
330
1F
100
AcDbEntity
  8
1
  6
Continuous
 62
     4
100
AcDbLine
 10
117.1139400014273
 20
0.0
 30
0.0
 11
117.1139400014273
 21
5.6
 31
0.0
  0
LINE
  5
8E
330
1F
100
AcDbEntity
  8
1
  6
Continuous
 62
     4
100
AcDbLine
 10
115.3492341190744
 20
6.0
 30
0.0
 11
115.3492341190744
 21
0.0
 31
0.0
  0
LINE
  5
8F
330
1F
100
AcDbEntity
  8
1
  6
Continuous
 62
     4
100
AcDbLine
 10
114.4668811778979
 20
5.4
 30
0.0
 11
115.3492341190744
 21
6.0
 31
0.0
  0
LINE
  5
90
330
1F
100
AcDbEntity
  8
1
  6
Continuous
 62
     4
100
AcDbLine
 10
110.937469413192
 20
1.4
 30
0.0
 11
110.937469413192
 21
0.0
 31
0.0
  0
LINE
  5
91
330
1F
100
AcDbEntity
  8
1
  6
Continuous
 62
     4
100
AcDbLine
 10
111.2904105896626
 20
3.2
 30
0.0
 11
110.937469413192
 21
1.4
 31
0.0
  0
LINE
  5
92
330
1F
100
AcDbEntity
  8
1
  6
Continuous
 62
     4
100
AcDbLine
 10
111.9962929426038
 20
4.6
 30
0.0
 11
111.2904105896626
 21
3.2
 31
0.0
  0
LINE
  5
93
330
1F
100
AcDbEntity
  8
1
  6
Continuous
 62
     4
100
AcDbLine
 10
112.702175295545
 20
6.0
 30
0.0
 11
111.9962929426038
 21
4.6
 31
0.0
  0
LINE
  5
94
330
1F
100
AcDbEntity
  8
1
  6
Continuous
 62
     4
100
AcDbLine
 10
109.1727635308391
 20
6.0
 30
0.0
 11
112.702175295545
 21
6.0
 31
0.0
  0
LINE
  5
95
330
1F
100
AcDbEntity
  8
1
  6
Continuous
 62
     4
100
AcDbLine
 10
107.4080576484861
 20
6.0
 30
0.0
 11
107.4080576484861
 21
0.0
 31
0.0
  0
LINE
  5
96
330
1F
100
AcDbEntity
  8
1
  6
Continuous
 62
     4
100
AcDbLine
 10
106.5257047073097
 20
5.4
 30
0.0
 11
107.4080576484861
 21
6.0
 31
0.0
  0
LINE
  5
97
330
1F
100
AcDbEntity
  8
1
  6
Continuous
 62
     4
100
AcDbLine
 10
103.8786458837803
 20
5.6
 30
0.0
 11
102.8198223543685
 21
6.0
 31
0.0
  0
LINE
  5
98
330
1F
100
AcDbEntity
  8
1
  6
Continuous
 62
     4
100
AcDbLine
 10
104.5845282367214
 20
4.6
 30
0.0
 11
103.8786458837803
 21
5.6
 31
0.0
  0
LINE
  5
99
330
1F
100
AcDbEntity
  8
1
  6
Continuous
 62
     4
100
AcDbLine
 10
104.7609988249567
 20
3.0
 30
0.0
 11
104.5845282367214
 21
4.6
 31
0.0
  0
LINE
  5
9A
330
1F
100
AcDbEntity
  8
1
  6
Continuous
 62
     4
100
AcDbLine
 10
104.5845282367214
 20
1.4
 30
0.0
 11
104.7609988249567
 21
3.0
 31
0.0
  0
LINE
  5
9B
330
1F
100
AcDbEntity
  8
1
  6
Continuous
 62
     4
100
AcDbLine
 10
103.8786458837803
 20
0.4
 30
0.0
 11
104.5845282367214
 21
1.4
 31
0.0
  0
LINE
  5
9C
330
1F
100
AcDbEntity
  8
1
  6
Continuous
 62
     4
100
AcDbLine
 10
102.8198223543685
 20
0.0
 30
0.0
 11
103.8786458837803
 21
0.4
 31
0.0
  0
LINE
  5
9D
330
1F
100
AcDbEntity
  8
1
  6
Continuous
 62
     4
100
AcDbLine
 10
101.7609988249567
 20
0.4
 30
0.0
 11
102.8198223543685
 21
0.0
 31
0.0
  0
LINE
  5
9E
330
1F
100
AcDbEntity
  8
1
  6
Continuous
 62
     4
100
AcDbLine
 10
101.2315870602509
 20
1.4
 30
0.0
 11
101.7609988249567
 21
0.4
 31
0.0
  0
LINE
  5
9F
330
1F
100
AcDbEntity
  8
1
  6
Continuous
 62
     4
100
AcDbLine
 10
100.8786458837803
 20
3.0
 30
0.0
 11
101.2315870602509
 21
1.4
 31
0.0
  0
LINE
  5
A0
330
1F
100
AcDbEntity
  8
1
  6
Continuous
 62
     4
100
AcDbLine
 10
101.2315870602509
 20
4.6
 30
0.0
 11
100.8786458837803
 21
3.0
 31
0.0
  0
LINE
  5
A1
330
1F
100
AcDbEntity
  8
1
  6
Continuous
 62
     4
100
AcDbLine
 10
101.7609988249567
 20
5.6
 30
0.0
 11
101.2315870602509
 21
4.6
 31
0.0
  0
LINE
  5
A2
330
1F
100
AcDbEntity
  8
1
  6
Continuous
 62
     4
100
AcDbLine
 10
102.8198223543685
 20
6.0
 30
0.0
 11
101.7609988249567
 21
5.6
 31
0.0
  0
LINE
  5
A3
330
1F
100
AcDbEntity
  8
1
  6
Continuous
 62
     4
100
AcDbLine
 10
93.4668811778979
 20
0.0
 30
0.0
 11
99.11394000142731
 21
0.0
 31
0.0
  0
LINE
  5
A4
330
1F
100
AcDbEntity
  8
1
  6
Continuous
 62
     4
100
AcDbLine
 10
88.17276353083908
 20
0.6
 30
0.0
 11
87.81982235436848
 21
1.0
 31
0.0
  0
LINE
  5
A5
330
1F
100
AcDbEntity
  8
1
  6
Continuous
 62
     4
100
AcDbLine
 10
88.87864588378025
 20
0.2
 30
0.0
 11
88.17276353083908
 21
0.6
 31
0.0
  0
LINE
  5
A6
330
1F
100
AcDbEntity
  8
1
  6
Continuous
 62
     4
100
AcDbLine
 10
89.76099882495672
 20
0.0
 30
0.0
 11
88.87864588378025
 21
0.2
 31
0.0
  0
LINE
  5
A7
330
1F
100
AcDbEntity
  8
1
  6
Continuous
 62
     4
100
AcDbLine
 10
90.81982235436848
 20
0.2
 30
0.0
 11
89.76099882495672
 21
0.0
 31
0.0
  0
LINE
  5
A8
330
1F
100
AcDbEntity
  8
1
  6
Continuous
 62
     4
100
AcDbLine
 10
91.34923411907437
 20
0.6
 30
0.0
 11
90.81982235436848
 21
0.2
 31
0.0
  0
LINE
  5
A9
330
1F
100
AcDbEntity
  8
1
  6
Continuous
 62
     4
100
AcDbLine
 10
91.70217529554495
 20
1.6
 30
0.0
 11
91.34923411907437
 21
0.6
 31
0.0
  0
LINE
  5
AA
330
1F
100
AcDbEntity
  8
1
  6
Continuous
 62
     4
100
AcDbLine
 10
91.34923411907437
 20
2.6
 30
0.0
 11
91.70217529554495
 21
1.6
 31
0.0
  0
LINE
  5
AB
330
1F
100
AcDbEntity
  8
1
  6
Continuous
 62
     4
100
AcDbLine
 10
90.46688117789789
 20
3.2
 30
0.0
 11
91.34923411907437
 21
2.6
 31
0.0
  0
LINE
  5
AC
330
1F
100
AcDbEntity
  8
1
  6
Continuous
 62
     4
100
AcDbLine
 10
89.58452823672143
 20
3.2
 30
0.0
 11
90.46688117789789
 21
3.2
 31
0.0
  0
LINE
  5
AD
330
1F
100
AcDbEntity
  8
1
  6
Continuous
 62
     4
100
AcDbLine
 10
90.46688117789789
 20
3.2
 30
0.0
 11
89.58452823672143
 21
3.2
 31
0.0
  0
LINE
  5
AE
330
1F
100
AcDbEntity
  8
1
  6
Continuous
 62
     4
100
AcDbLine
 10
91.17276353083908
 20
3.6
 30
0.0
 11
90.46688117789789
 21
3.2
 31
0.0
  0
LINE
  5
AF
330
1F
100
AcDbEntity
  8
1
  6
Continuous
 62
     4
100
AcDbLine
 10
91.52570470730966
 20
4.4
 30
0.0
 11
91.17276353083908
 21
3.6
 31
0.0
  0
LINE
  5
B0
330
1F
100
AcDbEntity
  8
1
  6
Continuous
 62
     4
100
AcDbLine
 10
91.34923411907437
 20
5.0
 30
0.0
 11
91.52570470730966
 21
4.4
 31
0.0
  0
LINE
  5
B1
330
1F
100
AcDbEntity
  8
1
  6
Continuous
 62
     4
100
AcDbLine
 10
90.81982235436848
 20
5.8
 30
0.0
 11
91.34923411907437
 21
5.0
 31
0.0
  0
LINE
  5
B2
330
1F
100
AcDbEntity
  8
1
  6
Continuous
 62
     4
100
AcDbLine
 10
89.76099882495672
 20
6.0
 30
0.0
 11
90.81982235436848
 21
5.8
 31
0.0
  0
LINE
  5
B3
330
1F
100
AcDbEntity
  8
1
  6
Continuous
 62
     4
100
AcDbLine
 10
88.70217529554495
 20
5.8
 30
0.0
 11
89.76099882495672
 21
6.0
 31
0.0
  0
LINE
  5
B4
330
1F
100
AcDbEntity
  8
1
  6
Continuous
 62
     4
100
AcDbLine
 10
87.99629294260377
 20
5.0
 30
0.0
 11
88.70217529554495
 21
5.8
 31
0.0
  0
LINE
  5
B5
330
1F
100
AcDbEntity
  8
1
  6
Continuous
 62
     4
100
AcDbLine
 10
86.05511647201553
 20
6.0
 30
0.0
 11
86.05511647201553
 21
0.0
 31
0.0
  0
LINE
  5
B6
330
1F
100
AcDbEntity
  8
1
  6
Continuous
 62
     4
100
AcDbLine
 10
85.17276353083906
 20
5.4
 30
0.0
 11
86.05511647201553
 21
6.0
 31
0.0
  0
LINE
  5
B7
330
1F
100
AcDbEntity
  8
1
  6
Continuous
 62
     4
100
AcDbLine
 10
77.76099882495672
 20
0.0
 30
0.0
 11
83.40805764848612
 21
0.0
 31
0.0
  0
LINE
  5
B8
330
1F
100
AcDbEntity
  8
1
  6
Continuous
 62
     4
100
AcDbLine
 10
75.1139400014273
 20
5.6
 30
0.0
 11
74.05511647201553
 21
6.0
 31
0.0
  0
LINE
  5
B9
330
1F
100
AcDbEntity
  8
1
  6
Continuous
 62
     4
100
AcDbLine
 10
75.81982235436847
 20
4.6
 30
0.0
 11
75.1139400014273
 21
5.6
 31
0.0
  0
LINE
  5
BA
330
1F
100
AcDbEntity
  8
1
  6
Continuous
 62
     4
100
AcDbLine
 10
75.99629294260376
 20
3.0
 30
0.0
 11
75.81982235436847
 21
4.6
 31
0.0
  0
LINE
  5
BB
330
1F
100
AcDbEntity
  8
1
  6
Continuous
 62
     4
100
AcDbLine
 10
75.81982235436847
 20
1.4
 30
0.0
 11
75.99629294260376
 21
3.0
 31
0.0
  0
LINE
  5
BC
330
1F
100
AcDbEntity
  8
1
  6
Continuous
 62
     4
100
AcDbLine
 10
75.1139400014273
 20
0.4
 30
0.0
 11
75.81982235436847
 21
1.4
 31
0.0
  0
LINE
  5
BD
330
1F
100
AcDbEntity
  8
1
  6
Continuous
 62
     4
100
AcDbLine
 10
74.05511647201553
 20
0.0
 30
0.0
 11
75.1139400014273
 21
0.4
 31
0.0
  0
LINE
  5
BE
330
1F
100
AcDbEntity
  8
1
  6
Continuous
 62
     4
100
AcDbLine
 10
72.99629294260376
 20
0.4
 30
0.0
 11
74.05511647201553
 21
0.0
 31
0.0
  0
LINE
  5
BF
330
1F
100
AcDbEntity
  8
1
  6
Continuous
 62
     4
100
AcDbLine
 10
72.46688117789789
 20
1.4
 30
0.0
 11
72.99629294260376
 21
0.4
 31
0.0
  0
LINE
  5
C0
330
1F
100
AcDbEntity
  8
1
  6
Continuous
 62
     4
100
AcDbLine
 10
72.1139400014273
 20
3.0
 30
0.0
 11
72.46688117789789
 21
1.4
 31
0.0
  0
LINE
  5
C1
330
1F
100
AcDbEntity
  8
1
  6
Continuous
 62
     4
100
AcDbLine
 10
72.46688117789789
 20
4.6
 30
0.0
 11
72.1139400014273
 21
3.0
 31
0.0
  0
LINE
  5
C2
330
1F
100
AcDbEntity
  8
1
  6
Continuous
 62
     4
100
AcDbLine
 10
72.99629294260376
 20
5.6
 30
0.0
 11
72.46688117789789
 21
4.6
 31
0.0
  0
LINE
  5
C3
330
1F
100
AcDbEntity
  8
1
  6
Continuous
 62
     4
100
AcDbLine
 10
74.05511647201553
 20
6.0
 30
0.0
 11
72.99629294260376
 21
5.6
 31
0.0
  0
LINE
  5
C4
330
1F
100
AcDbEntity
  8
1
  6
Continuous
 62
     4
100
AcDbLine
 10
70.34923411907435
 20
6.0
 30
0.0
 11
70.34923411907435
 21
0.0
 31
0.0
  0
LINE
  5
C5
330
1F
100
AcDbEntity
  8
1
  6
Continuous
 62
     4
100
AcDbLine
 10
69.46688117789789
 20
5.4
 30
0.0
 11
70.34923411907435
 21
6.0
 31
0.0
  0
LINE
  5
C6
330
1F
100
AcDbEntity
  8
1
  6
Continuous
 62
     4
100
AcDbLine
 10
64.52570470730966
 20
3.0
 30
0.0
 11
67.70217529554495
 21
3.0
 31
0.0
  0
LINE
  5
C7
330
1F
100
AcDbEntity
  8
1
  6
Continuous
 62
     4
100
AcDbLine
 10
59.23158706025083
 20
0.0
 30
0.0
 11
62.76099882495672
 21
0.0
 31
0.0
  0
LINE
  5
C8
330
1F
100
AcDbEntity
  8
1
  6
Continuous
 62
     4
100
AcDbLine
 10
59.23158706025083
 20
6.0
 30
0.0
 11
59.23158706025083
 21
0.0
 31
0.0
  0
LINE
  5
C9
330
1F
100
AcDbEntity
  8
1
  6
Continuous
 62
     4
100
AcDbLine
 10
55.52570470730966
 20
5.8
 30
0.0
 11
57.46688117789789
 21
5.8
 31
0.0
  0
LINE
  5
CA
330
1F
100
AcDbEntity
  8
1
  6
Continuous
 62
     4
100
AcDbLine
 10
55.52570470730966
 20
5.8
 30
0.0
 11
55.52570470730966
 21
0.0
 31
0.0
  0
LINE
  5
CB
330
1F
100
AcDbEntity
  8
1
  6
Continuous
 62
     4
100
AcDbLine
 10
53.58452823672142
 20
5.8
 30
0.0
 11
55.52570470730966
 21
5.8
 31
0.0
  0
LINE
  5
CC
330
1F
100
AcDbEntity
  8
1
  6
Continuous
 62
     4
100
AcDbLine
 10
48.1139400014273
 20
2.4
 30
0.0
 11
48.1139400014273
 21
0.0
 31
0.0
  0
LINE
  5
CD
330
1F
100
AcDbEntity
  8
1
  6
Continuous
 62
     4
100
AcDbLine
 10
48.99629294260377
 20
3.4
 30
0.0
 11
51.81982235436848
 21
0.0
 31
0.0
  0
LINE
  5
CE
330
1F
100
AcDbEntity
  8
1
  6
Continuous
 62
     4
100
AcDbLine
 10
51.46688117789789
 20
6.0
 30
0.0
 11
48.1139400014273
 21
2.4
 31
0.0
  0
LINE
  5
CF
330
1F
100
AcDbEntity
  8
1
  6
Continuous
 62
     4
100
AcDbLine
 10
48.1139400014273
 20
6.0
 30
0.0
 11
48.1139400014273
 21
2.4
 31
0.0
  0
LINE
  5
D0
330
1F
100
AcDbEntity
  8
0
  6
Continuous
 62
     3
100
AcDbLine
 10
250.1189853839559
 20
57.90053508915679
 30
0.0
 11
250.1189853839559
 21
42.31122827027386
 31
0.0
  0
LINE
  5
D1
330
1F
100
AcDbEntity
  8
0
  6
Continuous
 62
     3
100
AcDbLine
 10
234.2689853839557
 20
57.90053508915679
 30
0.0
 11
234.2689853839557
 21
42.31122827027386
 31
0.0
  0
LINE
  5
D2
330
1F
100
AcDbEntity
  8
0
  6
Continuous
 62
     3
100
AcDbLine
 10
234.2689853839557
 20
42.31122827027386
 30
0.0
 11
234.2689853839556
 21
22.67037502672557
 31
0.0
  0
LINE
  5
D3
330
1F
100
AcDbEntity
  8
0
  6
Continuous
 62
     3
100
AcDbLine
 10
250.1189853839559
 20
42.31122827027386
 30
0.0
 11
250.118985383956
 21
22.67037502672557
 31
0.0
  0
LINE
  5
D4
330
1F
100
AcDbEntity
  8
0
  6
Continuous
 62
     3
100
AcDbLine
 10
128.8606868719047
 20
176.4755350891647
 30
0.0
 11
153.33099706868
 21
176.4755350891647
 31
0.0
  0
LINE
  5
D5
330
1F
100
AcDbEntity
  8
0
  6
Continuous
 62
     3
100
AcDbLine
 10
128.8606868719047
 20
192.3255350891648
 30
0.0
 11
153.33099706868
 21
192.3255350891648
 31
0.0
  0
LINE
  5
D6
330
1F
100
AcDbEntity
  8
0
  6
Continuous
 62
     3
100
AcDbLine
 10
123.0138904120186
 20
184.4005350891648
 30
0.0
 11
123.0138904120185
 21
174.4005350891648
 31
0.0
  0
LINE
  5
D7
330
1F
100
AcDbEntity
  8
0
  6
Continuous
 62
     3
100
AcDbLine
 10
123.0138904120185
 20
174.4005350891648
 30
0.0
 11
119.817160914603
 21
170.6547480529939
 31
0.0
  0
LINE
  5
D8
330
1F
100
AcDbEntity
  8
0
  6
Continuous
 62
     3
100
AcDbLine
 10
123.0138904120185
 20
194.4005350891647
 30
0.0
 11
123.0138904120186
 21
184.4005350891648
 31
0.0
  0
LINE
  5
D9
330
1F
100
AcDbEntity
  8
0
  6
Continuous
 62
     3
100
AcDbLine
 10
119.5846046262905
 20
198.4005350891648
 30
0.0
 11
112.4431761977477
 21
198.4005350891648
 31
0.0
  0
LINE
  5
DA
330
1F
100
AcDbEntity
  8
0
  6
Continuous
 62
     3
100
AcDbLine
 10
112.0138904120191
 20
197.9005350891648
 30
0.0
 11
112.0138904120191
 21
184.4005350891648
 31
0.0
  0
LINE
  5
DB
330
1F
100
AcDbEntity
  8
0
  6
Continuous
 62
     3
100
AcDbLine
 10
123.0138904120185
 20
194.4005350891647
 30
0.0
 11
119.817160914603
 21
198.1463221253357
 31
0.0
  0
LINE
  5
DC
330
1F
100
AcDbEntity
  8
0
  6
Continuous
 62
     3
100
AcDbLine
 10
112.0138904120191
 20
184.4005350891648
 30
0.0
 11
112.0138904120191
 21
170.9005350891648
 31
0.0
  0
LINE
  5
DD
330
1F
100
AcDbEntity
  8
0
  6
Continuous
 62
     3
100
AcDbLine
 10
112.4431761977477
 20
170.4005350891648
 30
0.0
 11
119.5846046262905
 21
170.4005350891648
 31
0.0
  0
LINE
  5
DE
330
1F
100
AcDbEntity
  8
0
  6
Continuous
 62
     3
100
AcDbLine
 10
123.0138904120186
 20
192.3255350891648
 30
0.0
 11
128.8606868719047
 21
192.3255350891648
 31
0.0
  0
LINE
  5
DF
330
1F
100
AcDbEntity
  8
0
  6
Continuous
 62
     3
100
AcDbLine
 10
123.0138904120186
 20
176.4755350891647
 30
0.0
 11
128.8606868719047
 21
176.4755350891647
 31
0.0
  0
LINE
  5
E0
330
1F
100
AcDbEntity
  8
0
  6
Continuous
 62
     3
100
AcDbLine
 10
153.33099706868
 20
192.3255350891648
 30
0.0
 11
162.6007990499056
 21
192.325535089165
 31
0.0
  0
LINE
  5
E1
330
1F
100
AcDbEntity
  8
0
  6
Continuous
 62
     3
100
AcDbLine
 10
153.33099706868
 20
176.4755350891647
 30
0.0
 11
162.6007990499056
 21
176.4755350891648
 31
0.0
  0
LINE
  5
E2
330
1F
100
AcDbEntity
  8
LEVEL001
  6
DOTTED
 62
     6
100
AcDbLine
 10
75.19398538391478
 20
109.0294157653646
 30
0.0
 11
75.19398538391478
 21
111.0994499018945
 31
0.0
  0
LINE
  5
E3
330
1F
100
AcDbEntity
  8
LEVEL001
  6
DOTTED
 62
     6
100
AcDbLine
 10
87.19398538391478
 20
111.0994499018945
 30
0.0
 11
87.19398538391478
 21
109.0077842227746
 31
0.0
  0
LINE
  5
E4
330
1F
100
AcDbEntity
  8
1
  6
DOTTED
 62
     6
100
AcDbLine
 10
50.19398538396381
 20
99.70678421999675
 30
0.0
 11
99.69398538396382
 21
99.70678421999675
 31
0.0
  0
LINE
  5
E5
330
1F
100
AcDbEntity
  8
1
  6
DOTTED
 62
     6
100
AcDbLine
 10
50.19398538396381
 20
102.2067842199968
 30
0.0
 11
50.19398538396381
 21
99.70678421999675
 31
0.0
  0
LINE
  5
E6
330
1F
100
AcDbEntity
  8
1
  6
DOTTED
 62
     6
100
AcDbLine
 10
99.69398538396382
 20
99.70678421999675
 30
0.0
 11
99.69398538396382
 21
103.0095682059394
 31
0.0
  0
LINE
  5
E7
330
1F
100
AcDbEntity
  8
1
  6
DOTTED
 62
     6
100
AcDbLine
 10
93.69398538396382
 20
109.0077842227746
 30
0.0
 11
73.19398538396382
 21
109.0077842227746
 31
0.0
  0
LINE
  5
E8
330
1F
100
AcDbEntity
  8
1
  6
Continuous
 62
     3
100
AcDbLine
 10
68.52898314583445
 20
172.416980149438
 30
0.0
 11
73.94687587689009
 21
172.416980149438
 31
0.0
  0
LINE
  5
E9
330
1F
100
AcDbEntity
  8
1
  6
Continuous
 62
     3
100
AcDbLine
 10
68.52898314583456
 20
196.3840900288915
 30
0.0
 11
73.94687587688999
 21
196.3840900288915
 31
0.0
  0
LINE
  5
EA
330
1F
100
AcDbEntity
  8
1
  6
Continuous
 62
     3
100
AcDbLine
 10
79.12142762196214
 20
168.5499482937602
 30
0.0
 11
89.51139924684429
 21
158.4480430460285
 31
0.0
  0
LINE
  5
EB
330
1F
100
AcDbEntity
  8
1
  6
Continuous
 62
     3
100
AcDbLine
 10
68.50325343525405
 20
174.6803540187585
 30
0.0
 11
54.55976105165421
 21
178.6273807666399
 31
0.0
  0
LINE
  5
EC
330
1F
100
AcDbEntity
  8
1
  6
Continuous
 62
     3
100
AcDbLine
 10
95.95727509467525
 20
178.2701293641662
 30
0.0
 11
99.51079585339318
 21
164.2211973685534
 31
0.0
  0
LINE
  5
ED
330
1F
100
AcDbEntity
  8
1
  6
Continuous
 62
     3
100
AcDbLine
 10
95.95727509467525
 20
190.5309408141633
 30
0.0
 11
99.51079585339318
 21
204.5798728097761
 31
0.0
  0
LINE
  5
EE
330
1F
100
AcDbEntity
  8
1
  6
Continuous
 62
     3
100
AcDbLine
 10
79.12142762196214
 20
200.2511218845693
 30
0.0
 11
89.51139924684418
 21
210.3530271323011
 31
0.0
  0
LINE
  5
EF
330
1F
100
AcDbEntity
  8
1
  6
Continuous
 62
     3
100
AcDbLine
 10
68.50325343525405
 20
194.1207161595712
 30
0.0
 11
54.55976105165421
 21
190.1736894116896
 31
0.0
  0
LINE
  5
F0
330
1F
100
AcDbEntity
  8
1
  6
Continuous
 62
     3
100
AcDbLine
 10
93.69398538396382
 20
114.5077842227746
 30
0.0
 11
73.19398538396382
 21
114.5077842227746
 31
0.0
  0
LINE
  5
F1
330
1F
100
AcDbEntity
  8
1
  6
Continuous
 62
     3
100
AcDbLine
 10
99.69398538396382
 20
105.2067842199968
 30
0.0
 11
99.69398538396382
 21
108.5095682059394
 31
0.0
  0
LINE
  5
F2
330
1F
100
AcDbEntity
  8
1
  6
Continuous
 62
     3
100
AcDbLine
 10
50.19398538396381
 20
107.7067842199968
 30
0.0
 11
50.19398538396381
 21
105.2067842199968
 31
0.0
  0
LINE
  5
F3
330
1F
100
AcDbEntity
  8
1
  6
Continuous
 62
     3
100
AcDbLine
 10
50.19398538396381
 20
105.2067842199968
 30
0.0
 11
99.69398538396382
 21
105.2067842199968
 31
0.0
  0
LINE
  5
F4
330
1F
100
AcDbEntity
  8
1
  6
Continuous
 62
     3
100
AcDbLine
 10
214.543350289345
 20
105.2067842199968
 30
0.0
 11
269.8446204785666
 21
105.2067842199968
 31
0.0
  0
LINE
  5
F5
330
1F
100
AcDbEntity
  8
1
  6
Continuous
 62
     3
100
AcDbLine
 10
269.8446204785666
 20
105.2067842199968
 30
0.0
 11
269.8446204785666
 21
107.7067842199968
 31
0.0
  0
LINE
  5
F6
330
1F
100
AcDbEntity
  8
1
  6
Continuous
 62
     3
100
AcDbLine
 10
246.8446204785666
 20
114.5077842227746
 30
0.0
 11
237.543350289345
 21
114.5077842227746
 31
0.0
  0
LINE
  5
F7
330
1F
100
AcDbEntity
  8
1
  6
Continuous
 62
     3
100
AcDbLine
 10
214.543350289345
 20
107.7067842199968
 30
0.0
 11
214.543350289345
 21
105.2067842199968
 31
0.0
  0
LINE
  5
F8
330
1F
100
AcDbEntity
  8
1
  6
Continuous
 62
     3
100
AcDbLine
 10
25.94398538397076
 20
173.9230350891647
 30
0.0
 11
25.94398538397076
 21
194.8780350891647
 31
0.0
  0
LINE
  5
F9
330
1F
100
AcDbEntity
  8
1
  6
Continuous
 62
     3
100
AcDbLine
 10
24.69398538397076
 20
193.6280350891647
 30
0.0
 11
25.94398538397076
 21
194.8780350891647
 31
0.0
  0
LINE
  5
FA
330
1F
100
AcDbEntity
  8
1
  6
Continuous
 62
     3
100
AcDbLine
 10
24.69398538397076
 20
175.1730350891647
 30
0.0
 11
25.94398538397076
 21
173.9230350891647
 31
0.0
  0
LINE
  5
FB
330
1F
100
AcDbEntity
  8
1
  6
Continuous
 62
     3
100
AcDbLine
 10
105.5440177599758
 20
195.9005350891637
 30
0.0
 11
97.31545411697142
 21
195.9005350891637
 31
0.0
  0
LINE
  5
FC
330
1F
100
AcDbEntity
  8
1
  6
Continuous
 62
     3
100
AcDbLine
 10
105.5440177599758
 20
172.9005350891658
 30
0.0
 11
97.31545411697144
 21
172.9005350891658
 31
0.0
  0
LINE
  5
FD
330
1F
100
AcDbEntity
  8
1
  6
DOT_CENTER
 62
     1
100
AcDbLine
 10
174.303078115552
 20
184.4005350891648
 30
0.0
 11
21.69398538397076
 21
184.4005350891648
 31
0.0
  0
LINE
  5
FE
330
1F
100
AcDbEntity
  8
100
  6
Continuous
 62
     3
100
AcDbLine
 10
49.9869525011178
 20
175.4005350891658
 30
0.0
 11
45.69398538397076
 21
175.4005350891648
 31
0.0
  0
LINE
  5
FF
330
1F
100
AcDbEntity
  8
100
  6
Continuous
 62
     3
100
AcDbLine
 10
49.9869525011178
 20
193.4005350891648
 30
0.0
 11
45.69398538397076
 21
193.4005350891648
 31
0.0
  0
LINE
  5
100
330
1F
100
AcDbEntity
  8
100
  6
Continuous
 62
     3
100
AcDbLine
 10
39.69398538397076
 20
161.4005350891648
 30
0.0
 11
38.69398538397076
 21
161.4005350891648
 31
0.0
  0
LINE
  5
101
330
1F
100
AcDbEntity
  8
100
  6
Continuous
 62
     3
100
AcDbLine
 10
38.69398538397076
 20
173.9230350891647
 30
0.0
 11
25.94398538397076
 21
173.9230350891647
 31
0.0
  0
LINE
  5
102
330
1F
100
AcDbEntity
  8
100
  6
Continuous
 62
     3
100
AcDbLine
 10
36.52892187431279
 20
194.8780350891647
 30
0.0
 11
36.52892187431279
 21
173.9230350891647
 31
0.0
  0
LINE
  5
103
330
1F
100
AcDbEntity
  8
1
  6
Continuous
 62
     3
100
AcDbLine
 10
36.52892187431279
 20
175.0850350891648
 30
0.0
 11
24.69398538397076
 21
175.0850350891648
 31
0.0
  0
LINE
  5
104
330
1F
100
AcDbEntity
  8
100
  6
Continuous
 62
     3
100
AcDbLine
 10
39.69398538397076
 20
207.4005350891648
 30
0.0
 11
38.69398538397076
 21
207.4005350891648
 31
0.0
  0
LINE
  5
105
330
1F
100
AcDbEntity
  8
100
  6
Continuous
 62
     3
100
AcDbLine
 10
38.69398538397076
 20
207.4005350891648
 30
0.0
 11
38.69398538397076
 21
161.4005350891648
 31
0.0
  0
LINE
  5
106
330
1F
100
AcDbEntity
  8
100
  6
Continuous
 62
     3
100
AcDbLine
 10
41.19398538397076
 20
205.9005350891648
 30
0.0
 11
41.19398538397076
 21
162.9005350891648
 31
0.0
  0
LINE
  5
107
330
1F
100
AcDbEntity
  8
100
  6
Continuous
 62
     3
100
AcDbLine
 10
38.69398538397076
 20
194.8780350891647
 30
0.0
 11
25.94398538397076
 21
194.8780350891647
 31
0.0
  0
LINE
  5
108
330
1F
100
AcDbEntity
  8
100
  6
Continuous
 62
     3
100
AcDbLine
 10
24.69398538397076
 20
193.6280350891647
 30
0.0
 11
24.69398538397076
 21
175.1730350891647
 31
0.0
  0
LINE
  5
109
330
1F
100
AcDbEntity
  8
1
  6
Continuous
 62
     3
100
AcDbLine
 10
36.52892187431279
 20
193.7160350891646
 30
0.0
 11
24.69398538397076
 21
193.7160350891646
 31
0.0
  0
LINE
  5
10A
330
1F
100
AcDbEntity
  8
1
  6
DOT_CENTER
 62
     1
100
AcDbLine
 10
81.19398538396382
 20
205.266217102159
 30
0.0
 11
81.19398538396382
 21
163.5348530761706
 31
0.0
  0
LINE
  5
10B
330
1F
100
AcDbEntity
  8
1
  6
Continuous
 62
     3
100
AcDbLine
 10
109.2138907409988
 20
197.4005350891628
 30
0.0
 11
109.2138907409988
 21
184.4005350891648
 31
0.0
  0
LINE
  5
10C
330
1F
100
AcDbEntity
  8
LEVEL001
  6
Continuous
 62
     3
100
AcDbLine
 10
109.2138907409988
 20
197.4005350891628
 30
0.0
 11
112.0138904120191
 21
197.4005350891628
 31
0.0
  0
LINE
  5
10D
330
1F
100
AcDbEntity
  8
LEVEL001
  6
Continuous
 62
     3
100
AcDbLine
 10
112.0138904120191
 20
171.4005350891658
 30
0.0
 11
109.2138907409988
 21
171.4005350891658
 31
0.0
  0
LINE
  5
10E
330
1F
100
AcDbEntity
  8
LEVEL001
  6
Continuous
 62
     3
100
AcDbLine
 10
109.2138907409988
 20
172.1005350890857
 30
0.0
 11
112.0138904120191
 21
172.1005350890857
 31
0.0
  0
LINE
  5
10F
330
1F
100
AcDbEntity
  8
LEVEL001
  6
Continuous
 62
     3
100
AcDbLine
 10
107.5440177600228
 20
172.3646367042766
 30
0.0
 11
109.2138907409988
 21
171.4005350891658
 31
0.0
  0
LINE
  5
110
330
1F
100
AcDbEntity
  8
LEVEL001
  6
Continuous
 62
     3
100
AcDbLine
 10
109.2138907409988
 20
196.7005350892437
 30
0.0
 11
112.0138904120191
 21
196.7005350892437
 31
0.0
  0
LINE
  5
111
330
1F
100
AcDbEntity
  8
LEVEL001
  6
Continuous
 62
     3
100
AcDbLine
 10
109.2138907409988
 20
197.4005350891628
 30
0.0
 11
107.5440177600228
 21
196.4364334740528
 31
0.0
  0
LINE
  5
112
330
1F
100
AcDbEntity
  8
1
  6
Continuous
 62
     3
100
AcDbLine
 10
109.2138907409988
 20
184.4005350891648
 30
0.0
 11
109.2138907409988
 21
171.4005350891658
 31
0.0
  0
LINE
  5
113
330
1F
100
AcDbEntity
  8
1
  6
Continuous
 62
     3
100
AcDbLine
 10
25.94398538423084
 20
63.90053508915665
 30
0.0
 11
25.94398538423084
 21
42.90053508915665
 31
0.0
  0
LINE
  5
114
330
1F
100
AcDbEntity
  8
1
  6
Continuous
 62
     3
100
AcDbLine
 10
24.69398538423084
 20
44.15053508915665
 30
0.0
 11
25.94398538423084
 21
42.90053508915665
 31
0.0
  0
LINE
  5
115
330
1F
100
AcDbEntity
  8
1
  6
Continuous
 62
     3
100
AcDbLine
 10
24.69398538423084
 20
62.65053508915665
 30
0.0
 11
25.94398538423084
 21
63.90053508915665
 31
0.0
  0
LINE
  5
116
330
1F
100
AcDbEntity
  8
LEVEL001
  6
Continuous
 62
     3
100
AcDbLine
 10
87.19398538391478
 20
116.5994499018945
 30
0.0
 11
87.19398538391478
 21
114.5077842227746
 31
0.0
  0
LINE
  5
117
330
1F
100
AcDbEntity
  8
LEVEL001
  6
Continuous
 62
     3
100
AcDbLine
 10
75.19398538391478
 20
114.5294157653646
 30
0.0
 11
75.19398538391478
 21
116.5994499018945
 31
0.0
  0
LINE
  5
118
330
1F
100
AcDbEntity
  8
LEVEL001
  6
Continuous
 62
     3
100
AcDbLine
 10
69.99400369445581
 20
78.78620745006604
 30
0.0
 11
69.99400369445581
 21
80.90053508888705
 31
0.0
  0
LINE
  5
119
330
1F
100
AcDbEntity
  8
LEVEL001
  6
DOT_CENTER
 62
     1
100
AcDbLine
 10
81.19398538422584
 20
55.62786570869665
 30
0.0
 11
38.69398538403382
 21
53.40053508915665
 31
0.0
  0
LINE
  5
11A
330
1F
100
AcDbEntity
  8
LEVEL001
  6
Continuous
 62
     1
100
AcDbLine
 10
57.87207718332282
 20
54.40561629123664
 30
0.0
 11
57.87207718332282
 21
54.40561629123664
 31
0.0
  0
LINE
  5
11B
330
1F
100
AcDbEntity
  8
LEVEL001
  6
DOT_CENTER
 62
     1
100
AcDbLine
 10
81.19398538406293
 20
57.90053508915609
 30
0.0
 11
128.8606868719035
 21
57.90053508915827
 31
0.0
  0
LINE
  5
11C
330
1F
100
AcDbEntity
  8
LEVEL001
  6
Continuous
 62
     3
100
AcDbLine
 10
68.19398538411983
 20
80.90053508886704
 30
0.0
 11
94.19398538390183
 21
80.90053508915605
 31
0.0
  0
LINE
  5
11D
330
1F
100
AcDbEntity
  8
LEVEL001
  6
Continuous
 62
     3
100
AcDbLine
 10
75.74398538390281
 20
94.90053508915575
 30
0.0
 11
86.64398538390984
 21
94.90053508915575
 31
0.0
  0
LINE
  5
11E
330
1F
100
AcDbEntity
  8
LEVEL001
  6
Continuous
 62
     3
100
AcDbLine
 10
85.94398538390584
 20
105.2067842199968
 30
0.0
 11
85.94398538390584
 21
94.90053508915575
 31
0.0
  0
LINE
  5
11F
330
1F
100
AcDbEntity
  8
LEVEL001
  6
Continuous
 62
     3
100
AcDbLine
 10
76.44398538390581
 20
94.90053508915575
 30
0.0
 11
76.44398538390581
 21
105.2067842199968
 31
0.0
  0
LINE
  5
120
330
1F
100
AcDbEntity
  8
LEVEL001
  6
Continuous
 62
     3
100
AcDbLine
 10
69.19398538392082
 20
80.90053508887814
 30
0.0
 11
69.19398538393582
 21
77.40053508914605
 31
0.0
  0
LINE
  5
121
330
1F
100
AcDbEntity
  8
LEVEL001
  6
Continuous
 62
     3
100
AcDbLine
 10
69.19398538393582
 20
77.40053508914605
 30
0.0
 11
68.19398267580485
 21
76.40053238101484
 31
0.0
  0
LINE
  5
122
330
1F
100
AcDbEntity
  8
LEVEL001
  6
Continuous
 62
     3
100
AcDbLine
 10
55.87435281517681
 20
63.42673970742764
 30
0.0
 11
44.19398538407083
 21
62.81459758914664
 31
0.0
  0
LINE
  5
123
330
1F
100
AcDbEntity
  8
LEVEL001
  6
Continuous
 62
     3
100
AcDbLine
 10
94.20832252531383
 20
76.38619794763694
 30
0.0
 11
93.19398538386582
 21
77.40053508913604
 31
0.0
  0
LINE
  5
124
330
1F
100
AcDbEntity
  8
LEVEL001
  6
Continuous
 62
     3
100
AcDbLine
 10
105.5440177602359
 20
69.40053508915514
 30
0.0
 11
99.41133290453985
 21
69.40053508915514
 31
0.0
  0
LINE
  5
125
330
1F
100
AcDbEntity
  8
LEVEL001
  6
Continuous
 62
     3
100
AcDbLine
 10
87.49972068815885
 20
46.70833529271815
 30
0.0
 11
44.03697751534182
 21
44.43054944148435
 31
0.0
  0
LINE
  5
126
330
1F
100
AcDbEntity
  8
LEVEL001
  6
Continuous
 62
     3
100
AcDbLine
 10
109.2138907412588
 20
44.90053508915755
 30
0.0
 11
107.0108921691528
 21
46.17243690782885
 31
0.0
  0
LINE
  5
127
330
1F
100
AcDbEntity
  8
LEVEL001
  6
Continuous
 62
     3
100
AcDbLine
 10
87.49972068815885
 20
46.70833529271815
 30
0.0
 11
105.0108921691058
 21
46.70833529271815
 31
0.0
  0
LINE
  5
128
330
1F
100
AcDbEntity
  8
LEVEL001
  6
DOT_CENTER
 62
     1
100
AcDbLine
 10
38.69398538403382
 20
53.40053508915665
 30
0.0
 11
21.69398538397076
 21
53.40053508915665
 31
0.0
  0
LINE
  5
129
330
1F
100
AcDbEntity
  8
LEVEL001
  6
Continuous
 62
     3
100
AcDbLine
 10
24.69398538423084
 20
62.65053508915665
 30
0.0
 11
24.69398538423084
 21
44.15053508915665
 31
0.0
  0
LINE
  5
12A
330
1F
100
AcDbEntity
  8
LEVEL001
  6
Continuous
 62
     3
100
AcDbLine
 10
39.69398538407083
 20
30.40053508915665
 30
0.0
 11
38.69398538405486
 21
30.40053508915665
 31
0.0
  0
LINE
  5
12B
330
1F
100
AcDbEntity
  8
LEVEL001
  6
Continuous
 62
     3
100
AcDbLine
 10
38.69398538405486
 20
30.40053508915665
 30
0.0
 11
38.69398538405486
 21
76.40053508915665
 31
0.0
  0
LINE
  5
12C
330
1F
100
AcDbEntity
  8
LEVEL001
  6
Continuous
 62
     3
100
AcDbLine
 10
36.52892187457282
 20
42.90053508915665
 30
0.0
 11
36.52892187457282
 21
63.90053508915665
 31
0.0
  0
LINE
  5
12D
330
1F
100
AcDbEntity
  8
LEVEL001
  6
Continuous
 62
     3
100
AcDbLine
 10
38.69398538405486
 20
42.90053508915665
 30
0.0
 11
25.94398538423084
 21
42.90053508915665
 31
0.0
  0
LINE
  5
12E
330
1F
100
AcDbEntity
  8
LEVEL001
  6
Continuous
 62
     3
100
AcDbLine
 10
24.69398538423084
 20
44.15053508915665
 30
0.0
 11
36.52892187457282
 21
44.15053508915665
 31
0.0
  0
LINE
  5
12F
330
1F
100
AcDbEntity
  8
LEVEL001
  6
Continuous
 62
     3
100
AcDbLine
 10
24.69398538423084
 20
62.65053508915665
 30
0.0
 11
36.52892187457282
 21
62.65053508915665
 31
0.0
  0
LINE
  5
130
330
1F
100
AcDbEntity
  8
LEVEL001
  6
Continuous
 62
     3
100
AcDbLine
 10
38.69398538405486
 20
76.40053508915665
 30
0.0
 11
39.69398538407083
 21
76.40053508915665
 31
0.0
  0
LINE
  5
131
330
1F
100
AcDbEntity
  8
LEVEL001
  6
Continuous
 62
     3
100
AcDbLine
 10
38.69398538405486
 20
63.90053508915665
 30
0.0
 11
25.94398538423084
 21
63.90053508915665
 31
0.0
  0
LINE
  5
132
330
1F
100
AcDbEntity
  8
LEVEL001
  6
Continuous
 62
     3
100
AcDbLine
 10
112.0138904120191
 20
45.60053508907715
 30
0.0
 11
108.0014551761394
 21
45.60053508907715
 31
0.0
  0
LINE
  5
133
330
1F
100
AcDbEntity
  8
LEVEL001
  6
Continuous
 62
     3
100
AcDbLine
 10
109.2138907412588
 20
70.90053508915514
 30
0.0
 11
107.5440177602828
 21
69.93643347404415
 31
0.0
  0
LINE
  5
134
330
1F
100
AcDbEntity
  8
LEVEL001
  6
Continuous
 62
     3
100
AcDbLine
 10
112.0138904120191
 20
70.20053508923515
 30
0.0
 11
108.0014551761394
 21
70.20053508923515
 31
0.0
  0
LINE
  5
135
330
1F
100
AcDbEntity
  8
LEVEL001
  6
Continuous
 62
     3
100
AcDbLine
 10
93.19398538388583
 20
80.90053508914495
 30
0.0
 11
93.19398538386582
 21
77.40053508913604
 31
0.0
  0
LINE
  5
136
330
1F
100
AcDbEntity
  8
LEVEL001
  6
Continuous
 62
     3
100
AcDbLine
 10
69.19398538392986
 20
78.78620745006604
 30
0.0
 11
93.19395486632584
 21
78.78620745006604
 31
0.0
  0
LINE
  5
137
330
1F
100
AcDbEntity
  8
LEVEL001
  6
Continuous
 62
     3
100
AcDbLine
 10
41.19398538407083
 20
74.90053508915665
 30
0.0
 11
41.19398538407083
 21
31.90053508915665
 31
0.0
  0
LINE
  5
138
330
1F
100
AcDbEntity
  8
LEVEL001
  6
Continuous
 62
     3
100
AcDbLine
 10
92.39396707356585
 20
80.90053508888705
 30
0.0
 11
92.39396707356585
 21
78.78620745006604
 31
0.0
  0
LINE
  5
139
330
1F
100
AcDbEntity
  8
1
  6
Continuous
 62
     3
100
AcDbLine
 10
94.19568172637582
 20
76.40053238101474
 30
0.0
 11
68.19398538401586
 21
76.40053238101484
 31
0.0
  0
LINE
  5
13A
330
1F
100
AcDbEntity
  8
LEVEL001
  6
Continuous
 62
     3
100
AcDbLine
 10
109.2138907412588
 20
70.90053508915514
 30
0.0
 11
112.0138904120191
 21
70.90053508915514
 31
0.0
  0
LINE
  5
13B
330
1F
100
AcDbEntity
  8
LEVEL001
  6
Continuous
 62
     3
100
AcDbLine
 10
112.0138904120191
 20
44.90053508915829
 30
0.0
 11
109.2138907412588
 21
44.90053508915755
 31
0.0
  0
LINE
  5
13C
330
1F
100
AcDbEntity
  8
1
  6
Continuous
 62
     3
100
AcDbLine
 10
109.2138907412588
 20
70.90053508915514
 30
0.0
 11
109.2138907412588
 21
44.90053508915755
 31
0.0
  0
LINE
  5
13D
330
1F
100
AcDbEntity
  8
LEVEL001
  6
DOT_CENTER
 62
     1
100
AcDbLine
 10
81.19398538396888
 20
120.5250603105657
 30
0.0
 11
81.19398538408468
 21
43.37374867069159
 31
0.0
  0
LINE
  5
13E
330
1F
100
AcDbEntity
  8
100
  6
Continuous
 62
     3
100
AcDbLine
 10
255.1939853839558
 20
80.90053508915605
 30
0.0
 11
255.1939853839558
 21
88.87736291847975
 31
0.0
  0
LINE
  5
13F
330
1F
100
AcDbEntity
  8
1
  6
DOT_CENTER
 62
     1
100
AcDbLine
 10
216.1939853839558
 20
53.40053508915665
 30
0.0
 11
228.1939853839558
 21
53.40053508915665
 31
0.0
  0
LINE
  5
140
330
1F
100
AcDbEntity
  8
LEVEL001
  6
Continuous
 62
     3
100
AcDbLine
 10
236.1939853840128
 20
114.5027487941151
 30
0.0
 11
236.1939853840128
 21
116.5994499018947
 31
0.0
  0
LINE
  5
141
330
1F
100
AcDbEntity
  8
LEVEL001
  6
Continuous
 62
     3
100
AcDbLine
 10
248.1939853840128
 20
116.5994499018947
 30
0.0
 11
248.1939853840128
 21
114.5027487941141
 31
0.0
  0
LINE
  5
142
330
1F
100
AcDbEntity
  8
LEVEL001
  6
Continuous
 62
     3
100
AcDbLine
 10
229.1939853840188
 20
76.39883874657605
 30
0.0
 11
229.1939853841518
 21
66.34150659752615
 31
0.0
  0
LINE
  5
143
330
1F
100
AcDbEntity
  8
LEVEL001
  6
Continuous
 62
     3
100
AcDbLine
 10
254.1939853839758
 20
77.40053508914605
 30
0.0
 11
254.1939853839908
 21
80.90053508887814
 31
0.0
  0
LINE
  5
144
330
1F
100
AcDbEntity
  8
LEVEL001
  6
Continuous
 62
     3
100
AcDbLine
 10
253.3939670734558
 20
80.90053508888705
 30
0.0
 11
253.3939670734558
 21
78.78620745006604
 31
0.0
  0
LINE
  5
145
330
1F
100
AcDbEntity
  8
LEVEL001
  6
Continuous
 62
     3
100
AcDbLine
 10
230.9940036943458
 20
78.78620745006604
 30
0.0
 11
230.9940036943458
 21
80.90053508888705
 31
0.0
  0
LINE
  5
146
330
1F
100
AcDbEntity
  8
LEVEL001
  6
Continuous
 62
     3
100
AcDbLine
 10
230.1939853840458
 20
77.40053508913604
 30
0.0
 11
230.1939853840268
 21
80.90053508914495
 31
0.0
  0
LINE
  5
147
330
1F
100
AcDbEntity
  8
LEVEL001
  6
Continuous
 62
     3
100
AcDbLine
 10
255.1939853837598
 20
66.34150659752615
 30
0.0
 11
255.1939853838928
 21
76.39883874657615
 31
0.0
  0
LINE
  5
148
330
1F
100
AcDbEntity
  8
LEVEL001
  6
Continuous
 62
     3
100
AcDbLine
 10
255.1939853838958
 20
76.40053508922615
 30
0.0
 11
254.1939853839758
 21
77.40053508914605
 31
0.0
  0
LINE
  5
149
330
1F
100
AcDbEntity
  8
LEVEL001
  6
Continuous
 62
     3
100
AcDbLine
 10
230.1939853840458
 20
77.40053508913604
 30
0.0
 11
229.1922890415358
 21
76.39883874657605
 31
0.0
  0
LINE
  5
14A
330
1F
100
AcDbEntity
  8
LEVEL001
  6
Continuous
 62
     3
100
AcDbLine
 10
230.1940159015858
 20
78.78620745006604
 30
0.0
 11
254.1939853839818
 21
78.78620745006604
 31
0.0
  0
LINE
  5
14B
330
1F
100
AcDbEntity
  8
1
  6
Continuous
 62
     3
100
AcDbLine
 10
255.1939853838928
 20
76.39883874657615
 30
0.0
 11
229.1922890415358
 21
76.39883874657605
 31
0.0
  0
LINE
  5
14C
330
1F
100
AcDbEntity
  8
100
  6
Continuous
 62
     3
100
AcDbLine
 10
229.1939853839558
 20
80.90053508915605
 30
0.0
 11
255.1939853839558
 21
80.90053508915605
 31
0.0
  0
LINE
  5
14D
330
1F
100
AcDbEntity
  8
100
  6
Continuous
 62
     3
100
AcDbLine
 10
236.7439853840708
 20
94.90053508915575
 30
0.0
 11
247.6439853840818
 21
94.90053508915575
 31
0.0
  0
LINE
  5
14E
330
1F
100
AcDbEntity
  8
100
  6
Continuous
 62
     3
100
AcDbLine
 10
229.1939853839558
 20
80.90053508915605
 30
0.0
 11
229.1939853839558
 21
88.87736291836075
 31
0.0
  0
LINE
  5
14F
330
1F
100
AcDbEntity
  8
1
  6
DOT_CENTER
 62
     1
100
AcDbLine
 10
225.1939853839558
 20
57.90053508915675
 30
0.0
 11
259.1939853839558
 21
57.90053508915675
 31
0.0
  0
LINE
  5
150
330
1F
100
AcDbEntity
  8
1
  6
DOT_CENTER
 62
     1
100
AcDbLine
 10
242.1939853839558
 20
120.5250603105657
 30
0.0
 11
242.1939853839558
 21
11.70817693012101
 31
0.0
  0
LINE
  5
151
330
1F
100
AcDbEntity
  8
100
  6
Continuous
 62
     3
100
AcDbLine
 10
246.9439853839558
 20
94.90053508915575
 30
0.0
 11
246.9439853839558
 21
105.2067842199968
 31
0.0
  0
LINE
  5
152
330
1F
100
AcDbEntity
  8
100
  6
Continuous
 62
     3
100
AcDbLine
 10
237.4439853839558
 20
94.90053508915575
 30
0.0
 11
237.4439853839558
 21
105.2067842199968
 31
0.0
  0
LINE
  5
153
330
1F
100
AcDbEntity
  8
100
  6
Continuous
 62
     3
100
AcDbLine
 10
250.1939853839558
 20
46.35352970536395
 30
0.0
 11
254.9548446948568
 21
49.10221311008674
 31
0.0
  0
LINE
  5
154
330
1F
100
AcDbEntity
  8
100
  6
Continuous
 62
     3
100
AcDbLine
 10
256.1939853839558
 20
51.24846774133155
 30
0.0
 11
256.1939853839558
 21
64.55260243698135
 31
0.0
  0
LINE
  5
155
330
1F
100
AcDbEntity
  8
100
  6
Continuous
 62
     3
100
AcDbLine
 10
254.9548446948578
 20
66.69885706822625
 30
0.0
 11
243.4331260730548
 21
73.35092441605134
 31
0.0
  0
LINE
  5
156
330
1F
100
AcDbEntity
  8
100
  6
Continuous
 62
     3
100
AcDbLine
 10
228.1939853839558
 20
64.55260243698194
 30
0.0
 11
228.1939853839558
 21
51.24846774133215
 31
0.0
  0
LINE
  5
157
330
1F
100
AcDbEntity
  8
100
  6
Continuous
 62
     3
100
AcDbLine
 10
240.9548446948578
 20
73.35092441605144
 30
0.0
 11
229.4331260730548
 21
66.69885706822674
 31
0.0
  0
LINE
  5
158
330
1F
100
AcDbEntity
  8
100
  6
Continuous
 62
     3
100
AcDbLine
 10
229.4331260730548
 20
49.10221311008725
 30
0.0
 11
234.1939853839558
 21
46.35352970536365
 31
0.0
  0
LINE
  5
159
330
1F
100
AcDbEntity
  8
1
  6
DOT_CENTER
 62
     1
100
AcDbLine
 10
256.1939853839558
 20
53.40053508915665
 30
0.0
 11
268.1939853839557
 21
53.40053508915665
 31
0.0
  0
LINE
  5
15A
330
1F
100
AcDbEntity
  8
1
  6
DOT_CENTER
 62
     1
100
AcDbLine
 10
165.9817450822483
 20
15.1816119358739
 30
0.0
 11
153.3309970686802
 21
42.3112282702731
 31
0.0
  0
LINE
  5
15B
330
1F
100
AcDbEntity
  8
1
  6
Continuous
 62
     3
100
AcDbLine
 10
171.2109038374291
 20
20.9301424291229
 30
0.0
 11
164.7138901806292
 21
17.90053524270699
 31
0.0
  0
LINE
  5
15C
330
1F
100
AcDbEntity
  8
1
  6
Continuous
 62
     3
100
AcDbLine
 10
164.7138902843464
 20
17.9005352910711
 30
0.0
 11
158.216876655804
 21
14.870928044057
 31
0.0
  0
LINE
  5
15D
330
1F
100
AcDbEntity
  8
1
  6
Continuous
 62
     3
100
AcDbLine
 10
169.3301343540176
 20
25.57001463663318
 30
0.0
 11
155.8714636273932
 21
19.2941336409239
 31
0.0
  0
LINE
  5
15E
330
1F
100
AcDbEntity
  8
1
  6
Continuous
 62
     3
100
AcDbLine
 10
128.8606868719047
 20
65.82553508915618
 30
0.0
 11
123.0138904120187
 21
65.82553508915618
 31
0.0
  0
LINE
  5
15F
330
1F
100
AcDbEntity
  8
1
  6
Continuous
 62
     3
100
AcDbLine
 10
128.8606868719047
 20
49.9755350891561
 30
0.0
 11
123.0138904120187
 21
49.9755350891561
 31
0.0
  0
LINE
  5
160
330
1F
100
AcDbEntity
  8
1
  6
Continuous
 62
     3
100
AcDbLine
 10
169.7832882465503
 20
25.78132376961688
 30
0.0
 11
160.5134862653268
 21
45.6604780280635
 31
0.0
  0
LINE
  5
161
330
1F
100
AcDbEntity
  8
1
  6
Continuous
 62
     3
100
AcDbLine
 10
155.4183097348604
 20
19.08282450794028
 30
0.0
 11
146.1485078720335
 21
38.9619785124825
 31
0.0
  0
LINE
  5
162
330
1F
100
AcDbEntity
  8
1
  6
Continuous
 62
     3
100
AcDbLine
 10
123.0138904120187
 20
57.90053508915609
 30
0.0
 11
123.0138904120187
 21
67.90053508915608
 31
0.0
  0
LINE
  5
163
330
1F
100
AcDbEntity
  8
1
  6
Continuous
 62
     3
100
AcDbLine
 10
119.8171609146021
 20
44.1547480529844
 30
0.0
 11
123.0138904120187
 21
47.9005350891558
 31
0.0
  0
LINE
  5
164
330
1F
100
AcDbEntity
  8
1
  6
Continuous
 62
     3
100
AcDbLine
 10
119.8171609146031
 20
71.64632212532709
 30
0.0
 11
123.0138904120187
 21
67.90053508915608
 31
0.0
  0
LINE
  5
165
330
1F
100
AcDbEntity
  8
1
  6
Continuous
 62
     3
100
AcDbLine
 10
112.0138904120191
 20
57.90053508915609
 30
0.0
 11
112.0138904120191
 21
71.40053508915608
 31
0.0
  0
LINE
  5
166
330
1F
100
AcDbEntity
  8
1
  6
Continuous
 62
     3
100
AcDbLine
 10
123.0138904120187
 20
47.9005350891558
 30
0.0
 11
123.0138904120187
 21
57.90053508915609
 31
0.0
  0
LINE
  5
167
330
1F
100
AcDbEntity
  8
1
  6
Continuous
 62
     3
100
AcDbLine
 10
112.0138904120191
 20
44.4005350891558
 30
0.0
 11
112.0138904120191
 21
57.90053508915609
 31
0.0
  0
ARC
  5
168
330
1F
100
AcDbEntity
  8
0
  6
Continuous
 62
     3
100
AcDbCircle
 10
242.1939853839558
 20
57.90053508915675
 30
0.0
 40
7.925000000000139
100
AcDbArc
 50
90.0
 51
179.9999999999997
  0
ARC
  5
169
330
1F
100
AcDbEntity
  8
0
  6
Continuous
 62
     3
100
AcDbCircle
 10
242.1939853839558
 20
57.90053508915675
 30
0.0
 40
7.925000000000097
100
AcDbArc
 50
0.00000000000031
 51
90.0
  0
ARC
  5
16A
330
1F
100
AcDbEntity
  8
0
  6
Continuous
 62
     3
100
AcDbCircle
 10
116.0138904120191
 20
173.9005350891648
 30
0.0
 40
4.999999999999986
100
AcDbArc
 50
315.5729959991941
 51
319.5218959241943
  0
ARC
  5
16B
330
1F
100
AcDbEntity
  8
0
  6
Continuous
 62
     3
100
AcDbCircle
 10
116.0138904120191
 20
194.9005350891648
 30
0.0
 40
4.999999999999983
100
AcDbArc
 50
40.47810407580572
 51
44.42700400080587
  0
ARC
  5
16C
330
1F
100
AcDbEntity
  8
0
  6
Continuous
 62
     3
100
AcDbCircle
 10
116.0138904120191
 20
194.9005350891648
 30
0.0
 40
4.999999999999975
100
AcDbArc
 50
135.572995999194
 51
143.130102354156
  0
ARC
  5
16D
330
1F
100
AcDbEntity
  8
0
  6
Continuous
 62
     3
100
AcDbCircle
 10
116.0138904120191
 20
173.9005350891648
 30
0.0
 40
5.0
100
AcDbArc
 50
216.869897645844
 51
224.427004000806
  0
ARC
  5
16E
330
1F
100
AcDbEntity
  8
LEVEL001
  6
DOTTED
 62
     6
100
AcDbCircle
 10
75.69398538391478
 20
111.0994499018945
 30
0.0
 40
0.5000000000002456
100
AcDbArc
 50
98.84988309841351
 51
180.0
  0
ARC
  5
16F
330
1F
100
AcDbEntity
  8
LEVEL001
  6
DOTTED
 62
     6
100
AcDbCircle
 10
86.69398538391478
 20
111.0994499018945
 30
0.0
 40
0.5
100
AcDbArc
 50
0.0
 51
81.15011690158008
  0
ARC
  5
170
330
1F
100
AcDbEntity
  8
LEVEL001
  6
DOTTED
 62
     6
100
AcDbCircle
 10
81.19398538391478
 20
75.77506031056481
 30
0.0
 40
36.25000000000083
100
AcDbArc
 50
81.15011690157122
 51
98.84988309842868
  0
ARC
  5
171
330
1F
100
AcDbEntity
  8
1
  6
DOTTED
 62
     6
100
AcDbCircle
 10
73.19398538396382
 20
-71.79221577722545
 30
0.0
 40
180.8000000000001
100
AcDbArc
 50
90.0
 51
95.76507605252809
  0
ARC
  5
172
330
1F
100
AcDbEntity
  8
1
  6
DOTTED
 62
     6
100
AcDbCircle
 10
56.19398538396381
 20
102.2067842199968
 30
0.0
 40
6.000000000000033
100
AcDbArc
 50
101.1603704178093
 51
180.0
  0
ARC
  5
173
330
1F
100
AcDbEntity
  8
1
  6
Continuous
 62
     3
100
AcDbCircle
 10
93.69398538396382
 20
162.7498999945537
 30
0.0
 40
5.999999999999951
100
AcDbArc
 50
300.0000000000002
 51
14.19461254591925
  0
ARC
  5
174
330
1F
100
AcDbEntity
  8
1
  6
Continuous
 62
     3
100
AcDbCircle
 10
93.69398538396382
 20
162.7498999945537
 30
0.0
 40
5.999999999999916
100
AcDbArc
 50
225.8053874540819
 51
300.0000000000002
  0
ARC
  5
175
330
1F
100
AcDbEntity
  8
1
  6
Continuous
 62
     3
100
AcDbCircle
 10
93.69398538396382
 20
206.0511701837756
 30
0.0
 40
6.000000000000067
100
AcDbArc
 50
345.8053874540826
 51
60.00000000000082
  0
ARC
  5
176
330
1F
100
AcDbEntity
  8
1
  6
Continuous
 62
     3
100
AcDbCircle
 10
93.69398538396382
 20
206.0511701837756
 30
0.0
 40
6.000000000000148
100
AcDbArc
 50
60.00000000000082
 51
134.194612545917
  0
ARC
  5
177
330
1F
100
AcDbEntity
  8
1
  6
Continuous
 62
     3
100
AcDbCircle
 10
56.19398538396381
 20
184.4005350891648
 30
0.0
 40
6.0
100
AcDbArc
 50
180.0
 51
254.1946125459191
  0
ARC
  5
178
330
1F
100
AcDbEntity
  8
1
  6
Continuous
 62
     3
100
AcDbCircle
 10
56.19398538396381
 20
184.4005350891648
 30
0.0
 40
5.999999999999951
100
AcDbArc
 50
105.8053874540812
 51
180.0
  0
ARC
  5
179
330
1F
100
AcDbEntity
  8
1
  6
Continuous
 62
     3
100
AcDbCircle
 10
61.69398538396382
 20
150.6255443415716
 30
0.0
 40
25.00000000000001
100
AcDbArc
 50
60.00000000000001
 51
74.19461254591846
  0
ARC
  5
17A
330
1F
100
AcDbEntity
  8
1
  6
Continuous
 62
     3
100
AcDbCircle
 10
61.69398538396382
 20
150.6255443415716
 30
0.0
 40
25.00000000000003
100
AcDbArc
 50
45.80538745408187
 51
60.00000000000001
  0
ARC
  5
17B
330
1F
100
AcDbEntity
  8
1
  6
Continuous
 62
     3
100
AcDbCircle
 10
120.1939853839638
 20
184.4005350891648
 30
0.0
 40
24.99999999999999
100
AcDbArc
 50
180.0
 51
194.1946125459191
  0
ARC
  5
17C
330
1F
100
AcDbEntity
  8
1
  6
Continuous
 62
     3
100
AcDbCircle
 10
120.1939853839638
 20
184.4005350891648
 30
0.0
 40
25.0
100
AcDbArc
 50
165.8053874540811
 51
180.0
  0
ARC
  5
17D
330
1F
100
AcDbEntity
  8
1
  6
Continuous
 62
     3
100
AcDbCircle
 10
61.69398538396382
 20
218.1755258367577
 30
0.0
 40
24.99999999999986
100
AcDbArc
 50
300.0000000000002
 51
314.1946125459184
  0
ARC
  5
17E
330
1F
100
AcDbEntity
  8
1
  6
Continuous
 62
     3
100
AcDbCircle
 10
61.69398538396382
 20
218.1755258367577
 30
0.0
 40
24.99999999999975
100
AcDbArc
 50
285.8053874540818
 51
300.0000000000002
  0
ARC
  5
17F
330
1F
100
AcDbEntity
  8
1
  6
Continuous
 62
     3
100
AcDbCircle
 10
56.19398538396381
 20
107.7067842199968
 30
0.0
 40
6.000000000000033
100
AcDbArc
 50
101.1603704178093
 51
180.0
  0
ARC
  5
180
330
1F
100
AcDbEntity
  8
1
  6
Continuous
 62
     3
100
AcDbCircle
 10
73.19398538396382
 20
-66.29221577722545
 30
0.0
 40
180.8000000000001
100
AcDbArc
 50
90.0
 51
95.76507605252809
  0
ARC
  5
181
330
1F
100
AcDbEntity
  8
1
  6
Continuous
 62
     3
100
AcDbCircle
 10
246.8446204785666
 20
-66.29221577722545
 30
0.0
 40
180.8000000000002
100
AcDbArc
 50
84.2349239474719
 51
90.0
  0
ARC
  5
182
330
1F
100
AcDbEntity
  8
1
  6
Continuous
 62
     3
100
AcDbCircle
 10
263.8446204785666
 20
107.7067842199968
 30
0.0
 40
6.0
100
AcDbArc
 50
0.0
 51
78.83962958219027
  0
ARC
  5
183
330
1F
100
AcDbEntity
  8
1
  6
Continuous
 62
     3
100
AcDbCircle
 10
220.543350289345
 20
107.7067842199968
 30
0.0
 40
6.000000000000137
100
AcDbArc
 50
101.1603704178095
 51
180.0
  0
ARC
  5
184
330
1F
100
AcDbEntity
  8
1
  6
Continuous
 62
     3
100
AcDbCircle
 10
237.543350289345
 20
-66.29221577722545
 30
0.0
 40
180.8000000000001
100
AcDbArc
 50
90.0
 51
95.76507605252812
  0
ARC
  5
185
330
1F
100
AcDbEntity
  8
100
  6
Continuous
 62
     3
100
AcDbCircle
 10
45.69398538397076
 20
170.9005350891648
 30
0.0
 40
4.5
100
AcDbArc
 50
90.0
 51
180.0
  0
ARC
  5
186
330
1F
100
AcDbEntity
  8
100
  6
Continuous
 62
     3
100
AcDbCircle
 10
45.69398538397076
 20
197.9005350891648
 30
0.0
 40
4.5
100
AcDbArc
 50
180.0
 51
270.0
  0
ARC
  5
187
330
1F
100
AcDbEntity
  8
100
  6
Continuous
 62
     3
100
AcDbCircle
 10
39.69398538397076
 20
162.9005350891648
 30
0.0
 40
1.5
100
AcDbArc
 50
270.0
 51
0.0
  0
ARC
  5
188
330
1F
100
AcDbEntity
  8
100
  6
Continuous
 62
     3
100
AcDbCircle
 10
39.69398538397076
 20
205.9005350891648
 30
0.0
 40
1.5
100
AcDbArc
 50
0.0
 51
90.0
  0
ARC
  5
189
330
1F
100
AcDbEntity
  8
100
  6
Continuous
 62
     3
100
AcDbCircle
 10
49.23695250111376
 20
130.1696767218908
 30
0.0
 40
45.23707603990849
100
AcDbArc
 50
73.05418207265808
 51
89.05003136188908
  0
ARC
  5
18A
330
1F
100
AcDbEntity
  8
100
  6
Continuous
 62
     3
100
AcDbCircle
 10
49.23695250111376
 20
238.6313934564387
 30
0.0
 40
45.23707603990776
100
AcDbArc
 50
270.9499686381109
 51
286.9458179273383
  0
ARC
  5
18B
330
1F
100
AcDbEntity
  8
LEVEL001
  6
Continuous
 62
     3
100
AcDbCircle
 10
105.5440177599758
 20
168.9005350891658
 30
0.0
 40
4.000000000000147
100
AcDbArc
 50
59.99999999922393
 51
90.0
  0
ARC
  5
18C
330
1F
100
AcDbEntity
  8
LEVEL001
  6
Continuous
 62
     3
100
AcDbCircle
 10
105.5440177599758
 20
199.9005350891637
 30
0.0
 40
4.0
100
AcDbArc
 50
270.0
 51
300.0000000007753
  0
ARC
  5
18D
330
1F
100
AcDbEntity
  8
1
  6
Continuous
 62
     3
100
AcDbCircle
 10
69.41729190584675
 20
196.4005350891648
 30
0.0
 40
24.00000000000043
100
AcDbArc
 50
253.0541820726601
 51
267.87883454379
  0
ARC
  5
18E
330
1F
100
AcDbEntity
  8
1
  6
Continuous
 62
     3
100
AcDbCircle
 10
69.41729190584277
 20
172.4005350891648
 30
0.0
 40
23.99999999999993
100
AcDbArc
 50
92.1211654562002
 51
106.9458179273377
  0
ARC
  5
18F
330
1F
100
AcDbEntity
  8
1
  6
Continuous
 62
     3
100
AcDbCircle
 10
93.49917412332482
 20
88.15817079375874
 30
0.0
 40
1.000000000000395
100
AcDbArc
 50
35.56488215376319
 51
57.21184564581245
  0
ARC
  5
190
330
1F
100
AcDbEntity
  8
1
  6
Continuous
 62
     3
100
AcDbCircle
 10
68.88879664447185
 20
88.15817079375175
 30
0.0
 40
0.9999999999974314
100
AcDbArc
 50
122.7881543541525
 51
144.4351178462848
  0
ARC
  5
191
330
1F
100
AcDbEntity
  8
1
  6
Continuous
 62
     3
100
AcDbCircle
 10
99.41133290453985
 20
73.40053508915514
 30
0.0
 40
3.999999999999929
100
AcDbArc
 50
217.2485609657893
 51
270.0
  0
ARC
  5
192
330
1F
100
AcDbEntity
  8
1
  6
Continuous
 62
     3
100
AcDbCircle
 10
39.69398538407083
 20
74.90053508915665
 30
0.0
 40
1.5
100
AcDbArc
 50
0.0
 51
90.0
  0
ARC
  5
193
330
1F
100
AcDbEntity
  8
1
  6
Continuous
 62
     3
100
AcDbCircle
 10
39.69398538407083
 20
31.90053508915665
 30
0.0
 40
1.5
100
AcDbArc
 50
270.0
 51
0.0
  0
ARC
  5
194
330
1F
100
AcDbEntity
  8
LEVEL001
  6
Continuous
 62
     3
100
AcDbCircle
 10
81.19398538391478
 20
81.27506031056481
 30
0.0
 40
36.25000000000083
100
AcDbArc
 50
81.15011690157122
 51
98.84988309842868
  0
ARC
  5
195
330
1F
100
AcDbEntity
  8
LEVEL001
  6
Continuous
 62
     3
100
AcDbCircle
 10
86.69398538391478
 20
116.5994499018945
 30
0.0
 40
0.5
100
AcDbArc
 50
0.0
 51
81.15011690158008
  0
ARC
  5
196
330
1F
100
AcDbEntity
  8
LEVEL001
  6
Continuous
 62
     3
100
AcDbCircle
 10
75.69398538391478
 20
116.5994499018945
 30
0.0
 40
0.5000000000002456
100
AcDbArc
 50
98.84988309841351
 51
180.0
  0
ARC
  5
197
330
1F
100
AcDbEntity
  8
LEVEL001
  6
Continuous
 62
     3
100
AcDbCircle
 10
88.94305945797583
 20
84.90053508915605
 30
0.0
 40
6.600925925925983
100
AcDbArc
 50
322.7009224918976
 51
35.56488215378733
  0
ARC
  5
198
330
1F
100
AcDbEntity
  8
LEVEL001
  6
Continuous
 62
     3
100
AcDbCircle
 10
119.4056870865458
 20
128.3754680649757
 30
0.0
 40
46.83908876342641
100
AcDbArc
 50
225.61693295054
 51
237.2118456458204
  0
ARC
  5
199
330
1F
100
AcDbEntity
  8
LEVEL001
  6
Continuous
 62
     3
100
AcDbCircle
 10
73.44491130982581
 20
84.90053508915605
 30
0.0
 40
6.600925925925842
100
AcDbArc
 50
144.4351178462944
 51
217.2990775081026
  0
ARC
  5
19A
330
1F
100
AcDbEntity
  8
LEVEL001
  6
Continuous
 62
     3
100
AcDbCircle
 10
42.98228368126681
 20
128.3754680649757
 30
0.0
 40
46.83908876342603
100
AcDbArc
 50
302.7881543541592
 51
314.3830670494601
  0
ARC
  5
19B
330
1F
100
AcDbEntity
  8
LEVEL001
  6
Continuous
 62
     3
100
AcDbCircle
 10
55.19398538401882
 20
76.40892365923665
 30
0.0
 40
12.99999999999953
100
AcDbArc
 50
272.9999999999989
 51
359.9630165492141
  0
ARC
  5
19C
330
1F
100
AcDbEntity
  8
LEVEL001
  6
Continuous
 62
     3
100
AcDbCircle
 10
104.1874361332058
 20
77.03217906249665
 30
0.0
 40
9.999999999998495
100
AcDbArc
 50
183.7037781306383
 51
217.2485609657836
  0
ARC
  5
19D
330
1F
100
AcDbEntity
  8
LEVEL001
  6
Continuous
 62
     3
100
AcDbCircle
 10
44.19398538407083
 20
41.43466083722065
 30
0.0
 40
2.999999999999992
100
AcDbArc
 50
93.00000000000345
 51
180.0
  0
ARC
  5
19E
330
1F
100
AcDbEntity
  8
LEVEL001
  6
Continuous
 62
     3
100
AcDbCircle
 10
105.0108921691058
 20
42.70833529271815
 30
0.0
 40
4.000000000000074
100
AcDbArc
 50
59.99999999922332
 51
90.0
  0
ARC
  5
19F
330
1F
100
AcDbEntity
  8
LEVEL001
  6
Continuous
 62
     3
100
AcDbCircle
 10
44.19398538407083
 20
65.81459758914664
 30
0.0
 40
3.0
100
AcDbArc
 50
180.0
 51
270.0
  0
ARC
  5
1A0
330
1F
100
AcDbEntity
  8
LEVEL001
  6
Continuous
 62
     3
100
AcDbCircle
 10
105.5440177602359
 20
73.40053508915514
 30
0.0
 40
4.0
100
AcDbArc
 50
270.0
 51
300.0000000007734
  0
ARC
  5
1A1
330
1F
100
AcDbEntity
  8
LEVEL001
  6
Continuous
 62
     3
100
AcDbCircle
 10
280.4056870867138
 20
128.3754680649757
 30
0.0
 40
46.83908876342364
100
AcDbArc
 50
225.6169329505435
 51
237.2118456457794
  0
ARC
  5
1A2
330
1F
100
AcDbEntity
  8
LEVEL001
  6
Continuous
 62
     3
100
AcDbCircle
 10
203.9822836814348
 20
128.3754680649757
 30
0.0
 40
46.83908876342544
100
AcDbArc
 50
302.7881543541175
 51
314.3830670494601
  0
ARC
  5
1A3
330
1F
100
AcDbEntity
  8
LEVEL001
  6
Continuous
 62
     3
100
AcDbCircle
 10
236.6939853840128
 20
116.5944144732352
 30
0.0
 40
0.5000000000002456
100
AcDbArc
 50
98.84988309841351
 51
180.0
  0
ARC
  5
1A4
330
1F
100
AcDbEntity
  8
LEVEL001
  6
Continuous
 62
     3
100
AcDbCircle
 10
247.6939853840128
 20
116.5944144732352
 30
0.0
 40
0.5
100
AcDbArc
 50
0.0
 51
81.15011690158329
  0
ARC
  5
1A5
330
1F
100
AcDbEntity
  8
LEVEL001
  6
Continuous
 62
     3
100
AcDbCircle
 10
242.1939853840128
 20
81.27506031056495
 30
0.0
 40
36.25000000000089
100
AcDbArc
 50
81.1501169015713
 51
98.84988309842866
  0
ARC
  5
1A6
330
1F
100
AcDbEntity
  8
1
  6
Continuous
 62
     3
100
AcDbCircle
 10
242.1939853839558
 20
57.90053508915675
 30
0.0
 40
15.49999999999981
100
AcDbArc
 50
25.41462091515952
 51
34.58537908483752
  0
ARC
  5
1A7
330
1F
100
AcDbEntity
  8
1
  6
Continuous
 62
     3
100
AcDbCircle
 10
242.1939853839558
 20
57.90053508915675
 30
0.0
 40
15.49999999999984
100
AcDbArc
 50
325.4146209151588
 51
334.5853790848385
  0
ARC
  5
1A8
330
1F
100
AcDbEntity
  8
1
  6
Continuous
 62
     3
100
AcDbCircle
 10
242.1939853839558
 20
57.90053508915675
 30
0.0
 40
15.49999999999981
100
AcDbArc
 50
205.4146209151595
 51
214.5853790848396
  0
ARC
  5
1A9
330
1F
100
AcDbEntity
  8
1
  6
Continuous
 62
     3
100
AcDbCircle
 10
242.1939853839558
 20
57.90053508915675
 30
0.0
 40
15.49999999999983
100
AcDbArc
 50
145.4146209151589
 51
154.5853790848385
  0
ARC
  5
1AA
330
1F
100
AcDbEntity
  8
1
  6
Continuous
 62
     3
100
AcDbCircle
 10
242.1939853839558
 20
57.90053508915675
 30
0.0
 40
15.49999999999997
100
AcDbArc
 50
85.41462091515928
 51
94.58537908483704
  0
ARC
  5
1AB
330
1F
100
AcDbEntity
  8
100
  6
Continuous
 62
     3
100
AcDbCircle
 10
242.1939853839558
 20
53.40053508915665
 30
0.0
 40
23.00000000000021
100
AcDbArc
 50
124.4173887100909
 51
249.6455936017629
  0
ARC
  5
1AC
330
1F
100
AcDbEntity
  8
100
  6
Continuous
 62
     3
100
AcDbCircle
 10
242.1939853839558
 20
53.40053508915665
 30
0.0
 40
22.99999999999998
100
AcDbArc
 50
290.3544063982372
 51
55.58261128990867
  0
ARC
  5
1AD
330
1F
100
AcDbEntity
  8
1
  6
Continuous
 62
     3
100
AcDbCircle
 10
242.1939853839558
 20
57.90053508915675
 30
0.0
 40
10.49999999999998
100
AcDbArc
 50
319.6324064558146
 51
220.3675935441854
  0
ARC
  5
1AE
330
1F
100
AcDbEntity
  8
1
  6
Continuous
 62
     3
100
AcDbCircle
 10
229.8887966445948
 20
88.15817079375874
 30
0.0
 40
0.9999999999677517
100
AcDbArc
 50
122.7881543541574
 51
134.0121790303744
  0
ARC
  5
1AF
330
1F
100
AcDbEntity
  8
1
  6
Continuous
 62
     3
100
AcDbCircle
 10
254.4991741234478
 20
88.15817079375175
 30
0.0
 40
0.9999999999997458
100
AcDbArc
 50
45.98782098003926
 51
57.21184564578457
  0
ARC
  5
1B0
330
1F
100
AcDbEntity
  8
1
  6
Continuous
 62
     3
100
AcDbCircle
 10
160.9864822959229
 20
19.7468672370855
 30
0.0
 40
5.607628591115862
100
AcDbArc
 50
186.8007949039267
 51
240.4027837042927
  0
ARC
  5
1B1
330
1F
100
AcDbEntity
  8
1
  6
Continuous
 62
     3
100
AcDbCircle
 10
128.8606868719047
 20
30.90053508915609
 30
0.0
 40
34.92500000000036
100
AcDbArc
 50
25.00000026719978
 51
90.0
  0
ARC
  5
1B2
330
1F
100
AcDbEntity
  8
1
  6
DOT_CENTER
 62
     1
100
AcDbCircle
 10
128.8606868719047
 20
30.90053508915609
 30
0.0
 40
27.0000000000001
100
AcDbArc
 50
25.00000026720072
 51
90.0
  0
ARC
  5
1B3
330
1F
100
AcDbEntity
  8
1
  6
Continuous
 62
     3
100
AcDbCircle
 10
128.8606868719047
 20
30.90053508915609
 30
0.0
 40
19.07499999999965
100
AcDbArc
 50
25.00000026720207
 51
90.0
  0
ARC
  5
1B4
330
1F
100
AcDbEntity
  8
1
  6
Continuous
 62
     3
100
AcDbCircle
 10
116.0138904120191
 20
47.4005350891558
 30
0.0
 40
5.0
100
AcDbArc
 50
216.869897645844
 51
319.5218959241832
  0
ARC
  5
1B5
330
1F
100
AcDbEntity
  8
1
  6
Continuous
 62
     3
100
AcDbCircle
 10
116.0138904120191
 20
68.40053508915608
 30
0.0
 40
5.000000000000133
100
AcDbArc
 50
40.47810407580596
 51
143.130102354156
  0
ARC
  5
1B6
330
1F
100
AcDbEntity
  8
1
  6
Continuous
 62
     3
100
AcDbCircle
 10
165.6954495244371
 20
21.94269471774249
 30
0.0
 40
5.607628591115043
100
AcDbArc
 50
349.5972162957077
 51
43.19920509607532
  0
ARC
  5
1B7
330
1F
100
AcDbEntity
  8
1
  6
Continuous
 62
     3
100
AcDbCircle
 10
242.1939853839558
 20
57.90053508915675
 30
0.0
 40
13.74578703617034
100
AcDbArc
 50
305.2075709329688
 51
0.0
  0
ARC
  5
1B8
330
1F
100
AcDbEntity
  8
1
  6
Continuous
 62
     3
100
AcDbCircle
 10
242.1939853839558
 20
57.90053508915675
 30
0.0
 40
13.7457870361703
100
AcDbArc
 50
0.0
 51
234.7924290670312
  0
CIRCLE
  5
1B9
330
1F
100
AcDbEntity
  8
1
  6
Continuous
 62
     3
100
AcDbCircle
 10
81.19398538396382
 20
184.4005350891648
 30
0.0
 40
6.000000000056986
  0
SPLINE
  5
1BA
330
1F
100
AcDbEntity
  8
0
  6
Continuous
 62
     3
100
AcDbSpline
210
0.0
220
0.0
230
1.0
 70
     8
 71
     3
 72
    15
 73
    11
 74
     9
 42
0.0000000001
 43
0.0000000001
 44
0.00000001
 40
0.0
 40
0.0
 40
0.0
 40
0.0
 40
0.9319929669534897
 40
1.684563770662198
 40
2.484939827305697
 40
3.279362066180294
 40
4.063553554013586
 40
4.847126662260974
 40
5.551427695335894
 40
6.429474025176221
 40
6.429474025176221
 40
6.429474025176221
 40
6.429474025176221
 10
248.9574934538416
 20
16.89645763341761
 30
0.0
 10
249.1464294906432
 20
17.14380039110665
 30
0.0
 10
249.4879286369394
 20
17.59086883830818
 30
0.0
 10
249.8718554876909
 20
18.32841410274553
 30
0.0
 10
250.1505911472934
 20
19.06142562746938
 30
0.0
 10
250.3322957486738
 20
19.83575882152027
 30
0.0
 10
250.4126488363212
 20
20.62135635055404
 30
0.0
 10
250.3899849026152
 20
21.38007080914043
 30
0.0
 10
250.2767973926505
 20
22.16336969176222
 30
0.0
 10
250.1150530301265
 20
22.66640337876563
 30
0.0
 10
250.0253009016021
 20
22.9455373369666
 30
0.0
 11
248.9574934538416
 21
16.89645763341761
 31
0.0
 11
249.4994373230124
 21
17.65468433640226
 31
0.0
 11
249.8514286338611
 21
18.3198647117004
 31
0.0
 11
250.1342808808103
 21
19.06859459519911
 31
0.0
 11
250.3161412566118
 21
19.84192085062554
 31
0.0
 11
250.3954142142466
 21
20.62209524637179
 31
0.0
 11
250.3735684602737
 21
21.4053637692947
 31
0.0
 11
250.2680631465945
 21
22.10171754000026
 31
0.0
 11
250.0253009016021
 21
22.9455373369666
 31
0.0
  0
SPLINE
  5
1BB
330
1F
100
AcDbEntity
  8
0
  6
Continuous
 62
     3
100
AcDbSpline
210
0.0
220
0.0
230
1.0
 70
     8
 71
     3
 72
    19
 73
    15
 74
    13
 42
0.0000000001
 43
0.0000000001
 44
0.00000001
 40
0.0
 40
0.0
 40
0.0
 40
0.0
 40
0.7990990238827769
 40
1.794577367291768
 40
3.06003862380935
 40
4.578665701470308
 40
6.286484001337179
 40
8.094538584160967
 40
9.902593166984726
 40
11.61041146685168
 40
13.12903854451267
 40
14.39449980103015
 40
15.38997814443912
 40
16.18907716832191
 40
16.18907716832191
 40
16.18907716832191
 40
16.18907716832191
 10
235.2189855553791
 20
17.90053558677525
 30
0.0
 10
235.2750526545264
 20
17.63389728191337
 30
0.0
 10
235.4009653939646
 20
17.03509406371753
 30
0.0
 10
236.2130740261131
 20
16.33204295550027
 30
0.0
 10
237.3199213939214
 20
15.744639837417
 30
0.0
 10
238.7613821536358
 20
15.29773565972706
 30
0.0
 10
240.417918153432
 20
15.01617603425442
 30
0.0
 10
242.1939853839557
 20
14.92016753163627
 30
0.0
 10
243.9700526144797
 20
15.01617603425442
 30
0.0
 10
245.6265886142758
 20
15.29773565972706
 30
0.0
 10
247.0680493739903
 20
15.74463983741696
 30
0.0
 10
248.1748967417985
 20
16.33204295550028
 30
0.0
 10
248.9870053739469
 20
17.03509406371755
 30
0.0
 10
249.1129181133851
 20
17.63389728191338
 30
0.0
 10
249.1689852125325
 20
17.90053558677525
 30
0.0
 11
235.2189855553791
 21
17.90053558677525
 31
0.0
 11
235.4566545263818
 21
17.13759868886498
 31
0.0
 11
236.1534580612802
 21
16.42665427053871
 31
0.0
 11
237.2619167246083
 21
15.81615317845122
 31
0.0
 11
238.706485227409
 21
15.34769822680572
 31
0.0
 11
240.3887229349249
 21
15.05321623962868
 31
0.0
 11
242.1939853839558
 21
14.95277289943536
 31
0.0
 11
243.9992478329866
 21
15.05321623962868
 31
0.0
 11
245.6814855405026
 21
15.34769822680572
 31
0.0
 11
247.1260540433034
 21
15.81615317845122
 31
0.0
 11
248.2345127066313
 21
16.42665427053871
 31
0.0
 11
248.9313162415298
 21
17.13759868886498
 31
0.0
 11
249.1689852125325
 21
17.90053558677525
 31
0.0
  0
SPLINE
  5
1BC
330
1F
100
AcDbEntity
  8
0
  6
Continuous
 62
     3
100
AcDbSpline
210
0.0
220
0.0
230
1.0
 70
     8
 71
     3
 72
    15
 73
    11
 74
     9
 42
0.0000000001
 43
0.0000000001
 44
0.00000001
 40
0.0
 40
0.0
 40
0.0
 40
0.0
 40
0.7951931114629519
 40
1.516937414529677
 40
2.33935231073469
 40
3.370835553977577
 40
4.634605132630057
 40
6.103184043788489
 40
7.721142627269694
 40
9.417405239574272
 40
9.417405239574272
 40
9.417405239574272
 40
9.417405239574272
 10
248.9574934538416
 20
16.89645763341761
 30
0.0
 10
249.1107615641133
 20
17.12077184578112
 30
0.0
 10
249.4031410221012
 20
17.54868126355632
 30
0.0
 10
249.3494054171229
 20
18.38248514870595
 30
0.0
 10
248.8431937443664
 20
19.1074721849015
 30
0.0
 10
247.9955082001717
 20
19.72689061456606
 30
0.0
 10
246.8447285027709
 20
20.2428393156563
 30
0.0
 10
245.4437210447019
 20
20.63050524572431
 30
0.0
 10
243.8648956342764
 20
20.88259283315889
 30
0.0
 10
242.7596598167439
 20
20.91404486151248
 30
0.0
 10
242.1939853839558
 20
20.93014242912358
 30
0.0
 11
248.9574934538416
 21
16.89645763341761
 31
0.0
 11
249.3273780578278
 21
17.60038764716338
 31
0.0
 11
249.2931655927879
 21
18.32132061647826
 31
0.0
 11
248.8567899362361
 21
19.01841641180976
 31
0.0
 11
248.0429753927251
 21
19.65218574671076
 31
0.0
 11
246.8978199873321
 21
20.18672540419811
 31
0.0
 11
245.4861986991105
 21
20.59175547337669
 31
0.0
 11
243.8880760156554
 21
20.84432995048547
 31
0.0
 11
242.1939853839558
 21
20.93014242912358
 31
0.0
  0
SPLINE
  5
1BD
330
1F
100
AcDbEntity
  8
0
  6
Continuous
 62
     3
100
AcDbSpline
210
0.0
220
0.0
230
1.0
 70
     8
 71
     3
 72
    13
 73
     9
 74
     7
 42
0.0000000001
 43
0.0000000001
 44
0.00000001
 40
0.0
 40
0.0
 40
0.0
 40
0.0
 40
0.9106630562032112
 40
2.051064892233111
 40
3.442750447337659
 40
5.054830930039154
 40
6.827294487641867
 40
8.683742873277728
 40
8.683742873277728
 40
8.683742873277728
 40
8.683742873277728
 10
250.0253009016021
 20
22.9455373369666
 30
0.0
 10
249.8741043440049
 20
23.21277197579519
 30
0.0
 10
249.5335679084906
 20
23.81465824092508
 30
0.0
 10
248.553210813624
 20
24.47044716413325
 30
0.0
 10
247.296429047094
 20
25.03722395400573
 30
0.0
 10
245.7525969594992
 20
25.45589007944138
 30
0.0
 10
244.0235324247259
 20
25.72991057767121
 30
0.0
 10
242.8131716263625
 20
25.76392364793413
 30
0.0
 10
242.1939853839558
 20
25.78132376961463
 30
0.0
 11
250.0253009016021
 21
22.9455373369666
 31
0.0
 11
249.5237048131678
 21
23.70560875861114
 31
0.0
 11
248.6152617300621
 21
24.39499073718163
 31
0.0
 11
247.35039255338
 21
24.97541700309866
 31
0.0
 11
245.799309316195
 21
25.41467122792842
 31
0.0
 11
244.0481051908903
 21
25.68837028628536
 31
0.0
 11
242.1939853839558
 21
25.78132376961463
 31
0.0
  0
SPLINE
  5
1BE
330
1F
100
AcDbEntity
  8
0
  6
Continuous
 62
     3
100
AcDbSpline
210
0.0
220
0.0
230
1.0
 70
     8
 71
     3
 72
    13
 73
     9
 74
     7
 42
0.0000000001
 43
0.0000000001
 44
0.00000001
 40
0.0
 40
0.0
 40
0.0
 40
0.0
 40
0.7990989994487824
 40
1.794577365787218
 40
3.060038575446596
 40
4.578665508633883
 40
6.286483582288733
 40
8.094537893626221
 40
8.094537893626221
 40
8.094537893626221
 40
8.094537893626221
 10
249.1689852125325
 20
17.90053558677525
 30
0.0
 10
249.1129179752873
 20
18.16717787833177
 30
0.0
 10
248.9870049219713
 20
18.7659900674586
 30
0.0
 10
248.1748961809187
 20
19.46895239897879
 30
0.0
 10
247.068048797171
 20
20.05682941315092
 30
0.0
 10
245.6265881527793
 20
20.50143226633347
 30
0.0
 10
243.9700523573398
 20
20.7931308836892
 30
0.0
 10
242.7971540095991
 20
20.82956245416397
 30
0.0
 10
242.1939853839558
 20
20.84829756478598
 30
0.0
 11
249.1689852125325
 21
17.90053558677525
 31
0.0
 11
248.9313158795265
 21
18.66347234632255
 31
0.0
 11
248.2345121471593
 21
19.37441660321402
 31
0.0
 11
247.126053449895
 21
19.98491753655628
 31
0.0
 11
245.6814850559857
 21
20.45337235563713
 31
0.0
 11
243.999247562783
 21
20.74785425519132
 31
0.0
 11
242.1939853839558
 21
20.84829756478598
 31
0.0
  0
SPLINE
  5
1BF
330
1F
100
AcDbEntity
  8
0
  6
Continuous
 62
     3
100
AcDbSpline
210
0.0
220
0.0
230
1.0
 70
     8
 71
     3
 72
    13
 73
     9
 74
     7
 42
0.0000000001
 43
0.0000000001
 44
0.00000001
 40
0.0
 40
0.0
 40
0.0
 40
0.0
 40
1.808054311337487
 40
3.515872384992337
 40
5.034499318179706
 40
6.299960527839109
 40
7.295438894177507
 40
8.094537893626269
 40
8.094537893626269
 40
8.094537893626269
 40
8.094537893626269
 10
242.1939853839558
 20
20.84829756478598
 30
0.0
 10
241.5908167583125
 20
20.82956245416397
 30
0.0
 10
240.4179184105718
 20
20.79313088368919
 30
0.0
 10
238.7613826151323
 20
20.50143226633346
 30
0.0
 10
237.3199219707405
 20
20.05682941315093
 30
0.0
 10
236.2130745869927
 20
19.46895239897882
 30
0.0
 10
235.4009658459403
 20
18.76599006745858
 30
0.0
 10
235.2750527926243
 20
18.16717787833177
 30
0.0
 10
235.2189855553791
 20
17.90053558677525
 30
0.0
 11
242.1939853839558
 21
20.84829756478598
 31
0.0
 11
240.3887232051287
 21
20.74785425519132
 31
0.0
 11
238.7064857119259
 21
20.45337235563713
 31
0.0
 11
237.2619173180165
 21
19.98491753655628
 31
0.0
 11
236.1534586207522
 21
19.37441660321402
 31
0.0
 11
235.456654888385
 21
18.66347234632255
 31
0.0
 11
235.2189855553791
 21
17.90053558677525
 31
0.0
  0
SPLINE
  5
1C0
330
1F
100
AcDbEntity
  8
0
  6
Continuous
 62
     3
100
AcDbSpline
210
0.0
220
0.0
230
1.0
 70
     8
 71
     3
 72
    15
 73
    11
 74
     9
 42
0.0000000001
 43
0.0000000001
 44
0.00000001
 40
0.0
 40
0.0
 40
0.0
 40
0.0
 40
0.6445121541942342
 40
1.332593084065851
 40
3.077138586535639
 40
4.924075970343171
 40
6.771013354150675
 40
8.515558856620519
 40
9.203639786492108
 40
9.848151940686343
 40
9.848151940686343
 40
9.848151940686343
 40
9.848151940686343
 10
237.3597610438239
 20
20.02546362894233
 30
0.0
 10
237.5616832548599
 20
19.95184297495757
 30
0.0
 10
237.9791775413444
 20
19.79962493887237
 30
0.0
 10
238.9703625896874
 20
19.53186903169169
 30
0.0
 10
240.3801606922091
 20
19.29052089858975
 30
0.0
 10
242.1939853839557
 20
19.19333142235254
 30
0.0
 10
244.0078100757025
 20
19.29052089858976
 30
0.0
 10
245.417608178224
 20
19.53186903169166
 30
0.0
 10
246.4087932265672
 20
19.79962493887238
 30
0.0
 10
246.8262875130516
 20
19.95184297495757
 30
0.0
 10
247.0282097240876
 20
20.02546362894233
 30
0.0
 11
237.3597610438239
 21
20.02546362894233
 31
0.0
 11
237.9682764013843
 21
19.81308430669722
 31
0.0
 11
238.6314853839558
 21
19.62975615422346
 31
0.0
 11
240.3499001792442
 21
19.32894125844617
 31
0.0
 11
242.1939853839557
 21
19.22633785952743
 31
0.0
 11
244.0380705886673
 21
19.32894125844618
 31
0.0
 11
245.7564853839557
 21
19.62975615422346
 31
0.0
 11
246.4196943665272
 21
19.81308430669722
 31
0.0
 11
247.0282097240876
 21
20.02546362894233
 31
0.0
  0
SPLINE
  5
1C1
330
1F
100
AcDbEntity
  8
0
  6
Continuous
 62
     3
100
AcDbSpline
210
0.0
220
0.0
230
1.0
 70
     8
 71
     3
 72
    17
 73
    13
 74
    11
 42
0.0000000001
 43
0.0000000001
 44
0.00000001
 40
0.0
 40
0.0
 40
0.0
 40
0.0
 40
1.030013011149124
 40
2.308546411443763
 40
3.810371419243901
 40
5.476333835298476
 40
7.228642347279671
 40
8.980950859260867
 40
10.6469132753155
 40
12.14873828311564
 40
13.42727168341025
 40
14.45728469455931
 40
14.45728469455931
 40
14.45728469455931
 40
14.45728469455931
 10
235.4304773140699
 20
16.89645763341761
 30
0.0
 10
235.6820223589197
 20
16.65978087107705
 30
0.0
 10
236.2458049561477
 20
16.12932224146822
 30
0.0
 10
237.4245084000484
 20
15.60746477221081
 30
0.0
 10
238.8446402510723
 20
15.18601996516104
 30
0.0
 10
240.4701611376227
 20
14.92976905359043
 30
0.0
 10
242.1939853839557
 20
14.84076520712778
 30
0.0
 10
243.9178096302889
 20
14.92976905359043
 30
0.0
 10
245.5433305168393
 20
15.18601996516104
 30
0.0
 10
246.9634623678633
 20
15.6074647722108
 30
0.0
 10
248.1421658117639
 20
16.12932224146821
 30
0.0
 10
248.7059484089919
 20
16.65978087107705
 30
0.0
 10
248.9574934538416
 20
16.89645763341761
 30
0.0
 11
235.4304773140699
 21
16.89645763341761
 31
0.0
 11
236.2150418035824
 21
16.22908564948921
 31
0.0
 11
237.3613462050209
 21
15.66284023015983
 31
0.0
 11
238.8000399416142
 21
15.23198214872081
 31
0.0
 11
240.444075225404
 21
14.96257769931345
 31
0.0
 11
242.1939853839558
 21
14.87092859588621
 31
0.0
 11
243.9438955425076
 21
14.96257769931345
 31
0.0
 11
245.5879308262975
 21
15.23198214872081
 31
0.0
 11
247.0266245628907
 21
15.66284023015983
 31
0.0
 11
248.1729289643292
 21
16.22908564948921
 31
0.0
 11
248.9574934538416
 21
16.89645763341761
 31
0.0
  0
SPLINE
  5
1C2
330
1F
100
AcDbEntity
  8
0
  6
Continuous
 62
     3
100
AcDbSpline
210
0.0
220
0.0
230
1.0
 70
     8
 71
     3
 72
    15
 73
    11
 74
     9
 42
0.0000000001
 43
0.0000000001
 44
0.00000001
 40
0.0
 40
0.0
 40
0.0
 40
0.0
 40
1.696262612304691
 40
3.314221195785897
 40
4.782800106944248
 40
6.046569685596598
 40
7.078052928839598
 40
7.900467825044657
 40
8.622212128111379
 40
9.417405239574304
 40
9.417405239574304
 40
9.417405239574304
 40
9.417405239574304
 10
242.1939853839558
 20
20.93014242912358
 30
0.0
 10
241.6283109511676
 20
20.91404486151247
 30
0.0
 10
240.523075133635
 20
20.8825928331589
 30
0.0
 10
238.9442497232097
 20
20.63050524572432
 30
0.0
 10
237.5432422651407
 20
20.24283931565632
 30
0.0
 10
236.39246256774
 20
19.72689061456599
 30
0.0
 10
235.5447770235452
 20
19.10747218490151
 30
0.0
 10
235.0385653507886
 20
18.38248514870598
 30
0.0
 10
234.9848297458103
 20
17.54868126355632
 30
0.0
 10
235.2772092037983
 20
17.12077184578112
 30
0.0
 10
235.4304773140699
 20
16.89645763341761
 30
0.0
 11
242.1939853839558
 21
20.93014242912358
 31
0.0
 11
240.4998947522561
 21
20.84432995048547
 31
0.0
 11
238.901772068801
 21
20.59175547337669
 31
0.0
 11
237.4901507805795
 21
20.18672540419811
 31
0.0
 11
236.3449953751866
 21
19.65218574671076
 31
0.0
 11
235.5311808316755
 21
19.01841641180976
 31
0.0
 11
235.0948051751236
 21
18.32132061647826
 31
0.0
 11
235.0605927100838
 21
17.60038764716338
 31
0.0
 11
235.4304773140699
 21
16.89645763341761
 31
0.0
  0
SPLINE
  5
1C3
330
1F
100
AcDbEntity
  8
0
  6
Continuous
 62
     3
100
AcDbSpline
210
0.0
220
0.0
230
1.0
 70
     8
 71
     3
 72
    13
 73
     9
 74
     7
 42
0.0000000001
 43
0.0000000001
 44
0.00000001
 40
0.0
 40
0.0
 40
0.0
 40
0.0
 40
1.856448385635834
 40
3.628911943238601
 40
5.240992425940123
 40
6.632677981044671
 40
7.773079817074617
 40
8.683742873277781
 40
8.683742873277781
 40
8.683742873277781
 40
8.683742873277781
 10
242.1939853839558
 20
25.78132376961463
 30
0.0
 10
241.5747991415491
 20
25.76392364793413
 30
0.0
 10
240.3644383431858
 20
25.7299105776712
 30
0.0
 10
238.6353738084124
 20
25.45589007944137
 30
0.0
 10
237.0915417208175
 20
25.03722395400575
 30
0.0
 10
235.8347599542875
 20
24.47044716413323
 30
0.0
 10
234.8544028594209
 20
23.81465824092513
 30
0.0
 10
234.5138664239066
 20
23.2127719757952
 30
0.0
 10
234.3626698663095
 20
22.9455373369666
 30
0.0
 11
242.1939853839558
 21
25.78132376961463
 31
0.0
 11
240.3398655770213
 21
25.68837028628536
 31
0.0
 11
238.5886614517165
 21
25.41467122792842
 31
0.0
 11
237.0375782145315
 21
24.97541700309866
 31
0.0
 11
235.7727090378495
 21
24.39499073718163
 31
0.0
 11
234.8642659547437
 21
23.70560875861114
 31
0.0
 11
234.3626698663095
 21
22.9455373369666
 31
0.0
  0
SPLINE
  5
1C4
330
1F
100
AcDbEntity
  8
0
  6
Continuous
 62
     3
100
AcDbSpline
210
0.0
220
0.0
230
1.0
 70
     8
 71
     3
 72
    15
 73
    11
 74
     9
 42
0.0000000001
 43
0.0000000001
 44
0.00000001
 40
0.0
 40
0.0
 40
0.0
 40
0.0
 40
0.8513361177365157
 40
1.684601151301305
 40
2.394566392024378
 40
3.279356667824191
 40
4.063548155657477
 40
4.847121263904867
 40
5.551422296979783
 40
6.42946862682011
 40
6.42946862682011
 40
6.42946862682011
 40
6.42946862682011
 10
235.4304773140699
 20
16.89645763341761
 30
0.0
 10
235.2572528335756
 20
17.12176402075609
 30
0.0
 10
234.914480862324
 20
17.5675942769833
 30
0.0
 10
234.539818815172
 20
18.2765596414017
 30
0.0
 10
234.2463494985157
 20
19.03212314324406
 30
0.0
 10
234.0587157200131
 20
19.80576308579786
 30
0.0
 10
233.9753304090057
 20
20.62134154294707
 30
0.0
 10
233.9979838749197
 20
21.38007428575632
 30
0.0
 10
234.1111739901111
 20
22.16336861779608
 30
0.0
 10
234.2729179572081
 20
22.66640299549687
 30
0.0
 10
234.3626698663095
 20
22.9455373369666
 30
0.0
 11
235.4304773140699
 21
16.89645763341761
 31
0.0
 11
234.931029292341
 21
17.58589570819573
 31
0.0
 11
234.5365421340505
 21
18.3198647117004
 31
0.0
 11
234.2807534972144
 21
18.98215076492855
 31
0.0
 11
234.0718295112997
 21
19.84192085062554
 31
0.0
 11
233.992556553665
 21
20.62209524637179
 31
0.0
 11
234.0144023076379
 21
21.4053637692947
 31
0.0
 11
234.1199076213171
 21
22.10171754000026
 31
0.0
 11
234.3626698663095
 21
22.9455373369666
 31
0.0
  0
SPLINE
  5
1C5
330
1F
100
AcDbEntity
  8
0
  6
Continuous
 62
     3
100
AcDbSpline
210
0.0
220
0.0
230
1.0
 70
    11
 71
     3
 72
    47
 73
    43
 74
    41
 42
0.0000000001
 43
0.0000000001
 44
0.00000001
 40
0.0
 40
0.0
 40
0.0
 40
0.0
 40
0.9176191059763344
 40
1.841172276998463
 40
2.936114834031969
 40
3.704072067191073
 40
4.459866663704028
 40
5.382277848377278
 40
5.896309896175048
 40
6.544058962923176
 40
7.071785426735135
 40
7.588969993859111
 40
8.201332802978365
 40
8.668146368831477
 40
9.226629482604462
 40
9.997054995744973
 40
10.89694001547277
 40
11.90396460367749
 40
12.55382912908691
 40
13.43157098082512
 40
14.07019643703535
 40
14.94843350054773
 40
15.82665380262927
 40
16.46526728329785
 40
17.22950221074035
 40
17.99296271041601
 40
19.1111901752037
 40
19.89919703082568
 40
20.59244918205164
 40
21.22704585072791
 40
21.69380495817958
 40
22.30606505591316
 40
22.90322216729265
 40
23.35610984166411
 40
24.00255577142757
 40
24.51596257204288
 40
25.30384815565916
 40
26.19021255109451
 40
27.11076524676865
 40
28.05493644740801
 40
28.97869818477495
 40
29.89652395044263
 40
29.89652395044263
 40
29.89652395044263
 40
29.89652395044263
 10
112.4431761977477
 20
191.4005350891648
 30
0.0
 10
112.4506973157981
 20
191.7065158751017
 30
0.0
 10
112.4657881895127
 20
192.3204561654597
 30
0.0
 10
112.5993373456713
 20
193.2919375994123
 30
0.0
 10
112.8228131658334
 20
194.1963508196013
 30
0.0
 10
113.1440222924271
 20
195.0104189969107
 30
0.0
 10
113.5418857952608
 20
195.7248697385612
 30
0.0
 10
114.0122322662036
 20
196.2938558865371
 30
0.0
 10
114.5558973594701
 20
196.7302552389135
 30
0.0
 10
115.0582039126178
 20
196.9962848518534
 30
0.0
 10
115.6061858159178
 20
197.146201430014
 30
0.0
 10
116.1615970411566
 20
197.1788306110953
 30
0.0
 10
116.6915604192508
 20
197.0873343029958
 30
0.0
 10
117.200960985704
 20
196.88427093379
 30
0.0
 10
117.7107900397758
 20
196.563894788636
 30
0.0
 10
118.2494342062458
 20
196.0433944523339
 30
0.0
 10
118.7513160281415
 20
195.2984287615132
 30
0.0
 10
119.0924852527568
 20
194.5128423674582
 30
0.0
 10
119.3335980015196
 20
193.7022858871239
 30
0.0
 10
119.4730385318802
 20
192.9923687212074
 30
0.0
 10
119.5640386718925
 20
192.1989426163604
 30
0.0
 10
119.5965233940238
 20
191.4002780276339
 30
0.0
 10
119.5639991448794
 20
190.6016375016927
 30
0.0
 10
119.477282707743
 20
189.8457911420476
 30
0.0
 10
119.3420455743192
 20
189.135445566808
 30
0.0
 10
119.0971767878721
 20
188.2870316687164
 30
0.0
 10
118.7337519843209
 20
187.4681946359283
 30
0.0
 10
118.2370645399843
 20
186.7527708756602
 30
0.0
 10
117.7316405319166
 20
186.2546727771905
 30
0.0
 10
117.2257014480991
 20
185.9267635293424
 30
0.0
 10
116.692768322213
 20
185.7141140641191
 30
0.0
 10
116.1365422065731
 20
185.617653668345
 30
0.0
 10
115.5783725531396
 20
185.6594321738838
 30
0.0
 10
115.0328769768658
 20
185.8179739179522
 30
0.0
 10
114.5535132085243
 20
186.0724290378685
 30
0.0
 10
114.0457541803113
 20
186.4806558887497
 30
0.0
 10
113.5673452340908
 20
187.0381220330607
 30
0.0
 10
113.1355395787339
 20
187.7925407434783
 30
0.0
 10
112.8087884502891
 20
188.652748707096
 30
0.0
 10
112.5925919827701
 20
189.5585595852072
 30
0.0
 10
112.4657851139851
 20
190.4804353646459
 30
0.0
 10
112.4506962912733
 20
191.094494945151
 30
0.0
 10
112.4431761977477
 20
191.4005350891648
 30
0.0
 11
112.4431761977477
 21
191.4005350891648
 31
0.0
 11
112.4827928011316
 21
192.3172986074121
 31
0.0
 11
112.6062114793499
 21
193.2325681248614
 31
0.0
 11
112.8763629640556
 21
194.2936606648947
 31
0.0
 11
113.1609912452774
 21
195.006924328269
 31
0.0
 11
113.5324525651758
 21
195.6651355101381
 31
0.0
 11
114.1272755437865
 21
196.3701376503668
 31
0.0
 11
114.5293087926624
 21
196.6904472083907
 31
0.0
 11
115.1033220192319
 21
196.9905932881524
 31
0.0
 11
115.6126358083612
 21
197.1287768067435
 31
0.0
 11
116.1289527319869
 21
197.1587219373815
 31
0.0
 11
116.7326081355582
 21
197.0558221622041
 31
0.0
 11
117.1666783170001
 21
196.8840723940892
 31
0.0
 11
117.6407033115928
 21
196.5887696801312
 31
0.0
 11
118.1988798187106
 21
196.0577381761697
 31
0.0
 11
118.7082925279535
 21
195.3159216622039
 31
0.0
 11
119.1166961195265
 21
194.3954299307695
 31
0.0
 11
119.3034174408243
 21
193.7729678439253
 31
0.0
 11
119.4750335486335
 21
192.9121666648873
 31
0.0
 11
119.5483619212092
 21
192.2777650388686
 31
0.0
 11
119.5846046231602
 21
191.4002761179801
 31
0.0
 11
119.5483202661125
 21
190.5228056943066
 31
0.0
 11
119.4749614695518
 21
189.8884196409772
 31
0.0
 11
119.3304826840308
 21
189.1379658416948
 31
0.0
 11
119.116508353314
 21
188.405103698888
 31
0.0
 11
118.6527590658733
 21
187.3875727355244
 31
0.0
 11
118.1989201929226
 21
186.7433793779786
 31
0.0
 11
117.7020488008257
 21
186.2599361394334
 31
0.0
 11
117.167752178601
 21
185.9175327934008
 31
0.0
 11
116.7338105996022
 21
185.7456061508899
 31
0.0
 11
116.1303097080891
 21
185.6424116683839
 31
0.0
 11
115.5347646013348
 21
185.6862596043916
 31
0.0
 11
115.0996496157532
 21
185.811886810521
 31
0.0
 11
114.5271359493052
 21
186.1120874798042
 31
0.0
 11
114.1258171350083
 21
186.4322901534491
 31
0.0
 11
113.6082627514944
 21
187.0263449934899
 31
0.0
 11
113.1619427052263
 21
187.7921388677111
 31
0.0
 11
112.8303349103085
 21
188.6508900166842
 31
0.0
 11
112.6062872050576
 21
189.5680933103376
 31
0.0
 11
112.4828107896596
 21
190.4835654957499
 31
0.0
 11
112.4431761977477
 21
191.4005350891648
 31
0.0
  0
SPLINE
  5
1C6
330
1F
100
AcDbEntity
  8
0
  6
Continuous
 62
     3
100
AcDbSpline
210
0.0
220
0.0
230
1.0
 70
    11
 71
     3
 72
    47
 73
    43
 74
    41
 42
0.0000000001
 43
0.0000000001
 44
0.00000001
 40
0.0
 40
0.0
 40
0.0
 40
0.0
 40
1.100613127751381
 40
1.841123502997724
 40
2.706055943646178
 40
3.703979110952214
 40
4.592683551012994
 40
5.382423908846184
 40
5.896455958116976
 40
6.544205023389883
 40
7.071931487208216
 40
7.589116054326097
 40
8.119973227003056
 40
8.668437533664871
 40
9.226920656527819
 40
9.997346160623195
 40
11.03892078524749
 40
11.90399698275798
 40
12.55386150495916
 40
13.43160335988152
 40
14.1918057106634
 40
14.94848434361492
 40
15.82670464682403
 40
16.46531812633988
 40
17.17941081977449
 40
17.9929943975359
 40
18.99966235370049
 40
19.89927562964112
 40
20.5925277729013
 40
21.22712444952612
 40
21.69388355340481
 40
22.30614365470777
 40
22.90330076660895
 40
23.35618844045798
 40
23.85030944246161
 40
24.51611981158786
 40
25.30400539524488
 40
26.19036979063931
 40
27.18931364822051
 40
28.05502564901555
 40
28.79564748686283
 40
29.8965643160313
 40
29.8965643160313
 40
29.8965643160313
 40
29.8965643160313
 10
112.4431761977477
 20
177.4005350891648
 30
0.0
 10
112.4536495460974
 20
177.7676218028591
 30
0.0
 10
112.4711695331986
 20
178.3816904153257
 30
0.0
 10
112.6029078811411
 20
179.2754630003006
 30
0.0
 10
112.8009949061153
 20
180.1215989562135
 30
0.0
 10
113.1220349109672
 20
180.9847616981064
 30
0.0
 10
113.56721173739
 20
181.762989472088
 30
0.0
 10
114.0468177574624
 20
182.3215964901535
 30
0.0
 10
114.5559016625329
 20
182.7302674952389
 30
0.0
 10
115.0582123013796
 20
182.9962761495918
 30
0.0
 10
115.6061571431178
 20
183.1462200580393
 30
0.0
 10
116.1343893238046
 20
183.1771588209617
 30
0.0
 10
116.6642359325352
 20
183.0948531558375
 30
0.0
 10
117.1779297955396
 20
182.8988322053228
 30
0.0
 10
117.7107424198323
 20
182.5638870588691
 30
0.0
 10
118.2836343135872
 20
182.0103714342313
 30
0.0
 10
118.773514311642
 20
181.2549338114132
 30
0.0
 10
119.1059397735733
 20
180.4675859139309
 30
0.0
 10
119.3336167679502
 20
179.7022347634774
 30
0.0
 10
119.4808455158192
 20
178.9525683085964
 30
0.0
 10
119.5668507002623
 20
178.1582972865666
 30
0.0
 10
119.5948840091752
 20
177.3597791637106
 30
0.0
 10
119.5639975316492
 20
176.6016386343381
 30
0.0
 10
119.4791876451712
 20
175.8623846703856
 30
0.0
 10
119.3458513616719
 20
175.1519047087496
 30
0.0
 10
119.1141155045126
 20
174.3380247564118
 30
0.0
 10
118.7512601005037
 20
173.5025011826859
 30
0.0
 10
118.2636857106071
 20
172.7790016161347
 30
0.0
 10
117.7316491346572
 20
172.2546818946896
 30
0.0
 10
117.2256993815042
 20
171.9267624744733
 30
0.0
 10
116.6927704424065
 20
171.7141127046012
 30
0.0
 10
116.136533785822
 20
171.6176630868308
 30
0.0
 10
115.5783993537217
 20
171.6594012481018
 30
0.0
 10
115.0817798256664
 20
171.8038268703278
 30
0.0
 10
114.5974001180324
 20
172.043411058851
 30
0.0
 10
114.0787394130682
 20
172.4419933764351
 30
0.0
 10
113.5674510801791
 20
173.0380707280436
 30
0.0
 10
113.1224863428994
 20
173.8153259650916
 30
0.0
 10
112.8013332867698
 20
174.6782317729866
 30
0.0
 10
112.6030123302488
 20
175.5249777004718
 30
0.0
 10
112.4711843771262
 20
176.4191393053338
 30
0.0
 10
112.4536554305083
 20
177.033346822122
 30
0.0
 10
112.4431761977477
 20
177.4005350891648
 30
0.0
 11
112.4431761977477
 21
177.4005350891648
 31
0.0
 11
112.5003657006107
 21
178.4996613866124
 31
0.0
 11
112.6062114793499
 21
179.2325681248613
 31
0.0
 11
112.8071751462526
 21
180.0738301122773
 31
0.0
 11
113.1609912452774
 21
181.0069243282689
 31
0.0
 11
113.6083368399605
 21
181.7748289451982
 31
0.0
 11
114.1272755437864
 21
182.3701376503773
 31
0.0
 11
114.5293087938935
 21
182.6904472092198
 31
0.0
 11
115.1033220192318
 21
182.9905932881524
 31
0.0
 11
115.6126358083672
 21
183.1287768067453
 31
0.0
 11
116.1289527319869
 21
183.1587219373815
 31
0.0
 11
116.653632400602
 21
183.0779718096753
 31
0.0
 11
117.1666783170001
 21
182.884072394129
 31
0.0
 11
117.6407033188633
 21
182.5887696746505
 31
0.0
 11
118.1988798187106
 21
182.0577381761697
 31
0.0
 11
118.7756778329297
 21
181.1904540534889
 31
0.0
 11
119.1166961195265
 21
180.3954299307695
 31
0.0
 11
119.3034174400345
 21
179.7729678470379
 31
0.0
 11
119.4750335486335
 21
178.9121666649105
 31
0.0
 11
119.5577530499182
 21
178.1564781720502
 31
0.0
 11
119.5846046231602
 21
177.4002761179801
 31
0.0
 11
119.5483202660185
 21
176.5228056931819
 31
0.0
 11
119.4749614695518
 21
175.8884196410021
 31
0.0
 11
119.3419987715369
 21
175.1868148407382
 31
0.0
 11
119.1165083533141
 21
174.405103698888
 31
0.0
 11
118.7081902761597
 21
173.4849641867283
 31
0.0
 11
118.1989201929226
 21
172.7433793779786
 31
0.0
 11
117.702048807084
 21
172.2599361444241
 31
0.0
 11
117.167752178601
 21
171.9175327934256
 31
0.0
 11
116.7338106030473
 21
171.7456061519194
 31
0.0
 11
116.1303097080891
 21
171.6424116683838
 31
0.0
 11
115.5347646008192
 21
171.6862596044928
 31
0.0
 11
115.0996496157531
 21
171.8118868105244
 31
0.0
 11
114.6561316669888
 21
172.0297110372416
 31
0.0
 11
114.1258171350083
 21
172.4322901534491
 31
0.0
 11
113.6082627514716
 21
173.0263449935241
 31
0.0
 11
113.1619427052263
 21
173.7921388677112
 31
0.0
 11
112.8075163544339
 21
174.7260932522842
 31
0.0
 11
112.6062872050576
 21
175.5680933103376
 31
0.0
 11
112.500397618434
 21
176.3011063403316
 31
0.0
 11
112.4431761977477
 21
177.4005350891648
 31
0.0
  0
SPLINE
  5
1C7
330
1F
100
AcDbEntity
  8
0
  6
Continuous
 62
     3
100
AcDbSpline
210
0.0
220
0.0
230
1.0
 70
     8
 71
     3
 72
    35
 73
    31
 74
    29
 42
0.0000000001
 43
0.0000000001
 44
0.00000001
 40
0.0
 40
0.0
 40
0.0
 40
0.0
 40
1.554399147557234
 40
3.108235869922853
 40
4.156581684671655
 40
5.007398130448693
 40
5.917527671975611
 40
6.830387091422637
 40
7.898685400723053
 40
8.76663333715224
 40
9.717663214490544
 40
10.67174292596227
 40
11.81278409905438
 40
12.72883104213588
 40
13.64006314327804
 40
14.77926209036801
 40
15.91846103745807
 40
16.82969313860025
 40
17.74574008168164
 40
18.88678125477386
 40
19.93908843309714
 40
20.79185775496084
 40
21.65980569138963
 40
22.72810400069051
 40
23.64096342013738
 40
24.55109296166445
 40
25.50156926068267
 40
26.45029472966729
 40
28.00413145203223
 40
29.55853059959014
 40
29.55853059959014
 40
29.55853059959014
 40
29.55853059959014
 10
161.2749526124995
 20
192.325535089165
 30
0.0
 10
161.7831666637243
 20
192.4348709063445
 30
0.0
 10
162.7994108800816
 20
192.6535029799395
 30
0.0
 10
164.1985331048051
 20
192.5933740681668
 30
0.0
 10
165.3291191435318
 20
192.3670890988271
 30
0.0
 10
166.2193531450087
 20
192.0698412918747
 30
0.0
 10
167.0296486581474
 20
191.693972193025
 30
0.0
 10
167.8529208904698
 20
191.188923707136
 30
0.0
 10
168.5966765403482
 20
190.5935225968317
 30
0.0
 10
169.2713740671933
 20
189.9047747807736
 30
0.0
 10
169.8415767498497
 20
189.1744753374614
 30
0.0
 10
170.3705167898821
 20
188.305217790095
 30
0.0
 10
170.7811985287427
 20
187.3856773033403
 30
0.0
 10
171.0713170117077
 20
186.4377656858489
 30
0.0
 10
171.2569941254362
 20
185.4646254085307
 30
0.0
 10
171.3286821226369
 20
184.4005353906907
 30
0.0
 10
171.2569933914673
 20
183.3364436843727
 30
0.0
 10
171.071319281035
 20
182.3633074896122
 30
0.0
 10
170.7811890114372
 20
181.4153804227194
 30
0.0
 10
170.357163789815
 20
180.4659133632311
 30
0.0
 10
169.8227281892718
 20
179.5992873919131
 30
0.0
 10
169.2484333543593
 20
178.8728910471758
 30
0.0
 10
168.5966685278261
 20
178.2075353662961
 30
0.0
 10
167.8529270024154
 20
177.6121501724081
 30
0.0
 10
167.0296345595943
 20
177.1070949034973
 30
0.0
 10
166.1892034429435
 20
176.7172283922844
 30
0.0
 10
165.2965005248753
 20
176.4254596905107
 30
0.0
 10
164.1651448450274
 20
176.2064082700558
 30
0.0
 10
162.7993677842622
 20
176.1475214421936
 30
0.0
 10
161.7831522967185
 20
176.3661840180798
 30
0.0
 10
161.2749526124995
 20
176.4755350891646
 30
0.0
 11
161.2749526124995
 21
192.325535089165
 31
0.0
 11
162.8070976212853
 21
192.5876197739131
 31
0.0
 11
164.3601634383199
 21
192.5386797317134
 31
0.0
 11
165.3876995139897
 21
192.3308370977365
 31
0.0
 11
166.1948683071752
 21
192.0618256412665
 31
0.0
 11
167.0205029327952
 21
191.6788592624063
 31
0.0
 11
167.7986948468205
 21
191.2016489684909
 31
0.0
 11
168.6328458195028
 21
190.534225989843
 31
0.0
 11
169.24033955338
 21
189.914318751902
 31
0.0
 11
169.8257668842423
 21
189.1648304812335
 31
0.0
 11
170.3218658168657
 21
188.3498740744903
 31
0.0
 11
170.7874235371588
 21
187.308129879514
 31
0.0
 11
171.0556472672468
 21
186.4322314650008
 31
0.0
 11
171.2264796965484
 21
185.5371559244732
 31
0.0
 11
171.303078115552
 21
184.4005350891648
 31
0.0
 11
171.2264796965484
 21
183.2639142538564
 31
0.0
 11
171.0556472672468
 21
182.3688387133287
 31
0.0
 11
170.7874235371588
 21
181.4929402988157
 31
0.0
 11
170.3218658168657
 21
180.4511961038392
 31
0.0
 11
169.7693212708501
 21
179.5556264961486
 31
0.0
 11
169.24033955338
 21
178.8867514264276
 31
0.0
 11
168.6328458195032
 21
178.2668441884868
 31
0.0
 11
167.7986948468205
 21
177.5994212098386
 31
0.0
 11
167.0205029327954
 21
177.1222109159232
 31
0.0
 11
166.1948683071752
 21
176.739244537063
 31
0.0
 11
165.291245857075
 21
176.444504545426
 31
0.0
 11
164.3601634383199
 21
176.2623904466162
 31
0.0
 11
162.8070976212859
 21
176.2134504044164
 31
0.0
 11
161.2749526124995
 21
176.4755350891646
 31
0.0
  0
SPLINE
  5
1C8
330
1F
100
AcDbEntity
  8
0
  6
Continuous
 62
     3
100
AcDbSpline
210
0.0
220
0.0
230
1.0
 70
     8
 71
     3
 72
    13
 73
     9
 74
     7
 42
0.0000000001
 43
0.0000000001
 44
0.00000001
 40
0.0
 40
0.0
 40
0.0
 40
0.0
 40
1.878475589749201
 40
3.783100795888624
 40
5.732189229784305
 40
7.731388817695109
 40
9.772992976092812
 40
11.8386827335745
 40
11.8386827335745
 40
11.8386827335745
 40
11.8386827335745
 10
162.6007990499056
 20
192.325535089165
 30
0.0
 10
163.2290871091944
 20
192.2723749933543
 30
0.0
 10
164.4944094110192
 20
192.165314778216
 30
0.0
 10
166.2524709294862
 20
191.323652101859
 30
0.0
 10
167.756627893359
 20
190.0514412153957
 30
0.0
 10
168.8965359292465
 20
188.3885174136668
 30
0.0
 10
169.6422224168446
 20
186.4632219302171
 30
0.0
 10
169.7360828342298
 20
185.0907800834681
 30
0.0
 10
169.7832882465516
 20
184.4005350891648
 30
0.0
 11
162.6007990499056
 21
192.325535089165
 31
0.0
 11
164.4597635496299
 21
192.0554952216485
 31
0.0
 11
166.1920436482286
 21
191.2637864141564
 31
0.0
 11
167.6795845126193
 21
190.0043548360571
 31
0.0
 11
168.8210171566084
 21
188.3630350891648
 31
0.0
 11
169.5385490123436
 21
186.4516754747562
 31
0.0
 11
169.7832882465516
 21
184.4005350891648
 31
0.0
  0
SPLINE
  5
1C9
330
1F
100
AcDbEntity
  8
0
  6
Continuous
 62
     3
100
AcDbSpline
210
0.0
220
0.0
230
1.0
 70
     8
 71
     3
 72
    13
 73
     9
 74
     7
 42
0.0000000001
 43
0.0000000001
 44
0.00000001
 40
0.0
 40
0.0
 40
0.0
 40
0.0
 40
2.065689757481771
 40
4.107293915879449
 40
6.106493503790206
 40
8.055581937685906
 40
9.960207143825379
 40
11.83868273357452
 40
11.83868273357452
 40
11.83868273357452
 40
11.83868273357452
 10
169.7832882465516
 20
184.4005350891648
 30
0.0
 10
169.7360828342298
 20
183.7102900948614
 30
0.0
 10
169.6422224168446
 20
182.3378482481125
 30
0.0
 10
168.8965359292465
 20
180.4125527646627
 30
0.0
 10
167.7566278933589
 20
178.7496289629339
 30
0.0
 10
166.2524709294861
 20
177.4774180764706
 30
0.0
 10
164.4944094110192
 20
176.6357554001135
 30
0.0
 10
163.2290871091944
 20
176.5286951849753
 30
0.0
 10
162.6007990499056
 20
176.4755350891648
 30
0.0
 11
169.7832882465516
 21
184.4005350891648
 31
0.0
 11
169.5385490123436
 21
182.3493947035733
 31
0.0
 11
168.8210171566084
 21
180.4380350891648
 31
0.0
 11
167.6795845126193
 21
178.7967153422725
 31
0.0
 11
166.1920436482286
 21
177.5372837641731
 31
0.0
 11
164.4597635496299
 21
176.745574956681
 31
0.0
 11
162.6007990499056
 21
176.4755350891648
 31
0.0
  0
SPLINE
  5
1CA
330
1F
100
AcDbEntity
  8
1
  6
Continuous
 62
     3
100
AcDbSpline
210
0.0
220
0.0
230
1.0
 70
    11
 71
     3
 72
   263
 73
   259
 74
   257
 42
0.0000000001
 43
0.0000000001
 44
0.00000001
 40
0.0
 40
0.0
 40
0.0
 40
0.0
 40
0.1357373530256934
 40
0.2714750529844624
 40
0.4072127529475795
 40
0.5429501059775788
 40
0.6786852677524797
 40
0.8144205168186085
 40
0.9501456690641681
 40
1.085870807554034
 40
1.221596813743292
 40
1.357322801837902
 40
1.492789914689861
 40
1.628257034749296
 40
1.763725265408676
 40
1.899193485393252
 40
2.0346493017296
 40
2.1701051705353
 40
2.305558955002907
 40
2.441012529317676
 40
2.58234054934112
 40
2.723669347708151
 40
2.865002509479054
 40
3.006335471972836
 40
3.147693302695883
 40
3.2890511703439
 40
3.430407718618465
 40
3.571764298244873
 40
3.713019470041828
 40
3.854274601483139
 40
3.995529542930643
 40
4.136784450815092
 40
4.278050540054991
 40
4.419316777524811
 40
4.560583086062603
 40
4.701848863317276
 40
4.815485762560558
 40
4.929121553525531
 40
5.04275304877917
 40
5.156384815483661
 40
5.269976942554287
 40
5.383569075274783
 40
5.497161775433782
 40
5.610754201404678
 40
5.72570435957241
 40
5.840654941400099
 40
5.955607011960341
 40
6.070558991400622
 40
6.185521238035879
 40
6.300483443618276
 40
6.415451004690626
 40
6.530418796840765
 40
6.634081308353121
 40
6.737742372233343
 40
6.841396325025653
 40
6.94505048910149
 40
7.048923513634402
 40
7.152796553742598
 40
7.25667432689302
 40
7.36055263061543
 40
7.461171310756935
 40
7.561788644144475
 40
7.662435914667792
 40
7.763083179495085
 40
7.863118353069889
 40
7.963156590585907
 40
8.063106576151364
 40
8.163043025630632
 40
8.26297947510833
 40
8.362929460672227
 40
8.46296769818663
 40
8.563002871759787
 40
8.663650136585403
 40
8.764297407107145
 40
8.86491474049306
 40
8.965533420632967
 40
9.069411724353717
 40
9.173289497502527
 40
9.2771625376092
 40
9.381035562140545
 40
9.484689726214668
 40
9.588343679005252
 40
9.692004742883757
 40
9.7956672543945
 40
9.910635046542419
 40
10.02560260761247
 40
10.14056481319236
 40
10.25552705982506
 40
10.37047903926279
 40
10.48543110982064
 40
10.60038169164609
 40
10.7153318498116
 40
10.82892427578029
 40
10.94251697593704
 40
11.05610910865544
 40
11.16970123572389
 40
11.28333300242615
 40
11.39696449767756
 40
11.51060028864048
 40
11.6242371878818
 40
11.76550296513475
 40
11.9067692736706
 40
12.04803551113819
 40
12.18930160037583
 40
12.33055650825843
 40
12.47181144970412
 40
12.61306658114372
 40
12.75432175293892
 40
12.89567833256336
 40
13.03703488083591
 40
13.17839274848189
 40
13.31975057920304
 40
13.46108354169494
 40
13.60241670346413
 40
13.74374550182942
 40
13.88507352185104
 40
14.0205270961641
 40
14.15598088062997
 40
14.29143674943411
 40
14.42689256576907
 40
14.56236078575236
 40
14.6978290164104
 40
14.8332961364684
 40
14.96876324931878
 40
15.10448923741174
 40
15.24021524359945
 40
15.37594038208804
 40
15.5116655343324
 40
15.64740078339723
 40
15.78313594517082
 40
15.91887329819954
 40
16.05461099816134
 40
16.19034869811888
 40
16.32608605114332
 40
16.46182121291253
 40
16.5975564619729
 40
16.73328161421258
 40
16.86900675269658
 40
17.00473275888006
 40
17.14045874696903
 40
17.2759258598156
 40
17.41139297986967
 40
17.5468612105234
 40
17.68232943050221
 40
17.81778524683271
 40
17.95324111563253
 40
18.08869490009407
 40
18.22414847440292
 40
18.36547649441976
 40
18.50680529278028
 40
18.64813845454459
 40
18.78947141703161
 40
18.93082924774791
 40
19.07218711538903
 40
19.21354366365668
 40
19.35490024327613
 40
19.4961554150664
 40
19.63741054650116
 40
19.77866548794217
 40
19.91992039582014
 40
20.06118648505319
 40
20.20245272251605
 40
20.34371903104698
 40
20.48498480829502
 40
20.59862170753289
 40
20.71225749849242
 40
20.82588899374044
 40
20.93952076043913
 40
21.053112887504
 40
21.16670502021892
 40
21.28029772037254
 40
21.39389014633803
 40
21.50884030449982
 40
21.62379088632136
 40
21.73874295687537
 40
21.8536949363095
 40
21.96865718293888
 40
22.08361938851554
 40
22.19858694958207
 40
22.31355474172625
 40
22.41721725323422
 40
22.52087831711011
 40
22.6245322698983
 40
22.72818643397006
 40
22.83205945849883
 40
22.93593249860276
 40
23.039810271749
 40
23.14368857546719
 40
23.24430725560492
 40
23.3449245889887
 40
23.44557185950825
 40
23.54621912433175
 40
23.64625429790283
 40
23.74629253541518
 40
23.846242520977
 40
23.9461789704526
 40
24.04611541992956
 40
24.14606540549267
 40
24.24610364300639
 40
24.34613881657888
 40
24.44678608140375
 40
24.54743335192469
 40
24.64805068530983
 40
24.74866936544889
 40
24.85254766916843
 40
24.95642544231605
 40
25.06029848242138
 40
25.16417150695154
 40
25.26782567102463
 40
25.37147962381416
 40
25.47514068769153
 40
25.57880319920098
 40
25.69377099134703
 40
25.80873855241534
 40
25.92370075799377
 40
26.03866300462503
 40
26.15361498406111
 40
26.26856705461715
 40
26.38351763644072
 40
26.49846779460441
 40
26.61206022057165
 40
26.72565292072713
 40
26.83924505344408
 40
26.95283718051108
 40
27.06646894721172
 40
27.18010044246149
 40
27.29373623342269
 40
27.40737313266219
 40
27.54863890991173
 40
27.68990521844423
 40
27.83117145590864
 40
27.97243754514326
 40
28.11369245302267
 40
28.25494739446509
 40
28.39620252590114
 40
28.53745769769281
 40
28.6788142773138
 40
28.82017082558288
 40
28.96152869322523
 40
29.10288652394266
 40
29.24421948643086
 40
29.38555264819642
 40
29.52688144655828
 40
29.66820946657645
 40
29.80366304088628
 40
29.93911682534891
 40
30.07457269415
 40
30.21002851048186
 40
30.34549673046205
 40
30.48096496111695
 40
30.61643208117187
 40
30.75189919401924
 40
30.88762518210923
 40
31.02335118829382
 40
31.15907632677892
 40
31.29480147901968
 40
31.43053672808113
 40
31.5662718898515
 40
31.5662718898515
 40
31.5662718898515
 40
31.5662718898515
 10
81.46542315501239
 20
80.90455245496437
 30
0.0
 10
81.42019113860232
 20
80.9034020136125
 30
0.0
 10
81.32972699017301
 20
80.90110112796833
 30
0.0
 10
81.19398464602799
 20
80.9002305761199
 30
0.0
 10
81.05824672986954
 20
80.90118710006459
 30
0.0
 10
80.9225380113631
 20
80.90420855132248
 30
0.0
 10
80.78689210013604
 20
80.90929327022903
 30
0.0
 10
80.65134614208178
 20
80.91650327079346
 30
0.0
 10
80.51593620066505
 20
80.92588333595457
 30
0.0
 10
80.3807009791883
 20
80.93748144844491
 30
0.0
 10
80.2456785902598
 20
80.95134457237513
 30
0.0
 10
80.11099869982844
 20
80.96750930294512
 30
0.0
 10
79.97670756733218
 20
80.98601684181443
 30
0.0
 10
79.84285270240169
 20
81.006904726972
 30
0.0
 10
79.70939979520189
 20
81.03022708877116
 30
0.0
 10
79.57640676327395
 20
81.05602492899261
 30
0.0
 10
79.44393053260173
 20
81.0843391673244
 30
0.0
 10
79.31203149257851
 20
81.11521118496545
 30
0.0
 10
79.18076847686473
 20
81.14868288992776
 30
0.0
 10
79.04832012568502
 20
81.18531683871281
 30
0.0
 10
78.91479429295858
 20
81.22529032412137
 30
0.0
 10
78.7802820511836
 20
81.26869052227218
 30
0.0
 10
78.6467086363376
 20
81.31490391767568
 30
0.0
 10
78.51411409914905
 20
81.36388240996892
 30
0.0
 10
78.3825455779191
 20
81.4155757424626
 30
0.0
 10
78.2520480436335
 20
81.4699360119419
 30
0.0
 10
78.12267201588561
 20
81.52691249905347
 30
0.0
 10
77.99448940064539
 20
81.58644370604463
 30
0.0
 10
77.86753857864718
 20
81.64848111652559
 30
0.0
 10
77.74186184944601
 20
81.71298628318073
 30
0.0
 10
77.61747145105605
 20
81.77993803741599
 30
0.0
 10
77.49440605702742
 20
81.84930251196546
 30
0.0
 10
77.37270708989152
 20
81.92104458752813
 30
0.0
 10
77.25241436309196
 20
81.99512753243674
 30
0.0
 10
77.13357047743852
 20
82.0715126337739
 30
0.0
 10
77.02386464511424
 20
82.14503605592179
 30
0.0
 10
76.92300767035334
 20
82.21518044765223
 30
0.0
 10
76.83077809950467
 20
82.28157146926684
 30
0.0
 10
76.73969722896224
 20
82.34952772477675
 30
0.0
 10
76.64986094427982
 20
82.41909818963518
 30
0.0
 10
76.56135766026792
 20
82.49033673390247
 30
0.0
 10
76.47428017762003
 20
82.56329192592645
 30
0.0
 10
76.38871610900621
 20
82.63801749664292
 30
0.0
 10
76.30443354011275
 20
82.71486020572469
 30
0.0
 10
76.22156414583019
 20
82.79388333680023
 30
0.0
 10
76.14019937799574
 20
82.87509796452734
 30
0.0
 10
76.06073590456364
 20
82.95817509905268
 30
0.0
 10
75.9832428042919
 20
83.04309881114322
 30
0.0
 10
75.9077937391324
 20
83.12984850373593
 30
0.0
 10
75.83446360524161
 20
83.21840379361048
 30
0.0
 10
75.76333264653154
 20
83.30873783118679
 30
0.0
 10
75.69673694045285
 20
83.39780481123336
 30
0.0
 10
75.63449606122172
 20
83.48538044805402
 30
0.0
 10
75.57655187687018
 20
83.57134604760604
 30
0.0
 10
75.52092256011481
 20
83.65882606386198
 30
0.0
 10
75.467778852664
 20
83.74792254122416
 30
0.0
 10
75.41734396310974
 20
83.8386656990101
 30
0.0
 10
75.36982063199994
 20
83.93105283688563
 30
0.0
 10
75.32544860233207
 20
84.02499829446884
 30
0.0
 10
75.2848687255907
 20
84.11946544393288
 30
0.0
 10
75.24817088307981
 20
84.21434389280444
 30
0.0
 10
75.21554301698488
 20
84.30956411205241
 30
0.0
 10
75.18692539750433
 20
84.40607951485471
 30
0.0
 10
75.16269846072038
 20
84.50359394504461
 30
0.0
 10
75.14317168070193
 20
84.60195487849276
 30
0.0
 10
75.12871763833998
 20
84.70095979936963
 30
0.0
 10
75.11969927803841
 20
84.80058020331744
 30
0.0
 10
75.11654541288063
 20
84.90053508919625
 30
0.0
 10
75.11969927804151
 20
85.00048997507444
 30
0.0
 10
75.1287176383457
 20
85.1001103790204
 30
0.0
 10
75.14317168070987
 20
85.19911529989537
 30
0.0
 10
75.16269846073041
 20
85.2974762333414
 30
0.0
 10
75.18692539751633
 20
85.39499066352911
 30
0.0
 10
75.21554301699877
 20
85.49150606632918
 30
0.0
 10
75.24817088309527
 20
85.58672628557491
 30
0.0
 10
75.28486872560764
 20
85.68160473444412
 30
0.0
 10
75.32544860235056
 20
85.77607188390579
 30
0.0
 10
75.36982063201998
 20
85.87001734148649
 30
0.0
 10
75.41734396313124
 20
85.96240447935946
 30
0.0
 10
75.46777885268685
 20
86.0531476371429
 30
0.0
 10
75.52092256013881
 20
86.14224411450235
 30
0.0
 10
75.57655187689511
 20
86.22972413075576
 30
0.0
 10
75.63449606124729
 20
86.31568973030522
 30
0.0
 10
75.69673694047894
 20
86.40326536712328
 30
0.0
 10
75.76333264655807
 20
86.49233234716701
 30
0.0
 10
75.83446360526845
 20
86.58266638474002
 30
0.0
 10
75.90779373915939
 20
86.67122167461132
 30
0.0
 10
75.98324280431885
 20
86.75797136720068
 30
0.0
 10
76.06073590459019
 20
86.84289507928821
 30
0.0
 10
76.14019937802186
 20
86.92597221381058
 30
0.0
 10
76.22156414585618
 20
87.00718684153463
 30
0.0
 10
76.30443354013866
 20
87.08620997260701
 30
0.0
 10
76.38871610903168
 20
87.16305268168598
 30
0.0
 10
76.47428017764506
 20
87.23777825239964
 30
0.0
 10
76.56135766029237
 20
87.3107334444209
 30
0.0
 10
76.6498609443037
 20
87.38197198868549
 30
0.0
 10
76.73969722898526
 20
87.45154245354142
 30
0.0
 10
76.83077809952698
 20
87.51949870904858
 30
0.0
 10
76.9230076703752
 20
87.58588973066037
 30
0.0
 10
77.02386464513587
 20
87.6560341223877
 30
0.0
 10
77.13357047745978
 20
87.72955754453275
 30
0.0
 10
77.25241436311268
 20
87.80594264586712
 30
0.0
 10
77.37270708991147
 20
87.88002559077297
 30
0.0
 10
77.49440605704652
 20
87.95176766633287
 30
0.0
 10
77.61747145107446
 20
88.02113214087953
 30
0.0
 10
77.74186184946397
 20
88.0880838951119
 30
0.0
 10
77.86753857866461
 20
88.15258906176416
 30
0.0
 10
77.99448940066223
 20
88.21462647224223
 30
0.0
 10
78.12267201590161
 20
88.2741576792307
 30
0.0
 10
78.2520480436485
 20
88.33113416633952
 30
0.0
 10
78.38254557793321
 20
88.38549443581587
 30
0.0
 10
78.51411409916219
 20
88.43718776830659
 30
0.0
 10
78.64670863634967
 20
88.48616626059754
 30
0.0
 10
78.78028205119455
 20
88.53237965599871
 30
0.0
 10
78.91479429296837
 20
88.57577985414756
 30
0.0
 10
79.04832012569364
 20
88.61575333955392
 30
0.0
 10
79.18076847687205
 20
88.65238728833681
 30
0.0
 10
79.31203149258475
 20
88.68585899329723
 30
0.0
 10
79.44393053260667
 20
88.71673101093529
 30
0.0
 10
79.576406763278
 20
88.74504524926967
 30
0.0
 10
79.7093997952044
 20
88.77084308947342
 30
0.0
 10
79.84285270240487
 20
88.79416545133101
 30
0.0
 10
79.97670756732742
 20
88.81505333626409
 30
0.0
 10
80.110998699847
 20
88.83356087596655
 30
0.0
 10
80.24567859018421
 20
88.84972560341639
 30
0.0
 10
80.3807009794576
 20
88.86358873899016
 30
0.0
 10
80.51593619964079
 20
88.87518680802118
 30
0.0
 10
80.65134614587934
 20
88.88456703537345
 30
0.0
 10
80.78689208593136
 20
88.89177643058518
 30
0.0
 10
80.92253806433911
 20
88.89686340874324
 30
0.0
 10
81.05824653211371
 20
88.8998764282269
 30
0.0
 10
81.19398538401524
 20
88.90086442016454
 30
0.0
 10
81.32972423591525
 20
88.89987642822383
 30
0.0
 10
81.46543270368554
 20
88.89686340873723
 30
0.0
 10
81.6010786820888
 20
88.89177643057619
 30
0.0
 10
81.73662462213613
 20
88.88456703536136
 30
0.0
 10
81.87203456836986
 20
88.87518680800571
 30
0.0
 10
82.00726978854823
 20
88.86358873897125
 30
0.0
 10
82.14229217781704
 20
88.84972560339438
 30
0.0
 10
82.27697206814983
 20
88.83356087594181
 30
0.0
 10
82.4112632006652
 20
88.81505333623709
 30
0.0
 10
82.54511806558335
 20
88.794165451302
 30
0.0
 10
82.67857097277918
 20
88.77084308944245
 30
0.0
 10
82.8115640047007
 20
88.74504524923667
 30
0.0
 10
82.94404023536704
 20
88.71673101090028
 30
0.0
 10
83.07593927538409
 20
88.68585899326034
 30
0.0
 10
83.20720229109187
 20
88.65238728829823
 30
0.0
 10
83.33965064226535
 20
88.61575333951404
 30
0.0
 10
83.4731764749855
 20
88.57577985410649
 30
0.0
 10
83.60768871675396
 20
88.5323796559569
 30
0.0
 10
83.74126213159352
 20
88.48616626055502
 30
0.0
 10
83.87385666877555
 20
88.43718776826348
 30
0.0
 10
84.00542518999896
 20
88.3854944357718
 30
0.0
 10
84.13592272427809
 20
88.33113416629479
 30
0.0
 10
84.26529875201953
 20
88.2741576791857
 30
0.0
 10
84.3934813672534
 20
88.21462647219724
 30
0.0
 10
84.52043218924557
 20
88.1525890617192
 30
0.0
 10
84.64610891844089
 20
88.08808389506704
 30
0.0
 10
84.77049931682518
 20
88.02113214083502
 30
0.0
 10
84.89356471084814
 20
87.9517676662889
 30
0.0
 10
85.01526367797814
 20
87.88002559072953
 30
0.0
 10
85.13555640477169
 20
87.80594264582433
 30
0.0
 10
85.25440029041943
 20
87.72955754449092
 30
0.0
 10
85.36410612273845
 20
87.6560341223465
 30
0.0
 10
85.46496309749459
 20
87.58588973061941
 30
0.0
 10
85.55719266833862
 20
87.51949870900776
 30
0.0
 10
85.64827353887631
 20
87.45154245350093
 30
0.0
 10
85.73810982355393
 20
87.38197198864566
 30
0.0
 10
85.82661310756136
 20
87.31073344438188
 30
0.0
 10
85.91369059020491
 20
87.23777825236142
 30
0.0
 10
85.99925465881451
 20
87.16305268164842
 30
0.0
 10
86.08353722770372
 20
87.08620997257022
 30
0.0
 10
86.16640662198196
 20
87.00718684149865
 30
0.0
 10
86.24777138981212
 20
86.92597221377582
 30
0.0
 10
86.32723486324002
 20
86.8428950792551
 30
0.0
 10
86.40472796350795
 20
86.75797136716928
 30
0.0
 10
86.48017702866376
 20
86.67122167458125
 30
0.0
 10
86.55350716255109
 20
86.58266638471135
 30
0.0
 10
86.62463812125776
 20
86.49233234713978
 30
0.0
 10
86.69123382733335
 20
86.40326536709766
 30
0.0
 10
86.7534747065616
 20
86.31568973028094
 30
0.0
 10
86.81141889091082
 20
86.22972413073254
 30
0.0
 10
86.86704820766434
 20
86.14224411448035
 30
0.0
 10
86.92019191511365
 20
86.05314763712205
 30
0.0
 10
86.97062680466638
 20
85.96240447934004
 30
0.0
 10
87.01815013577479
 20
85.87001734146854
 30
0.0
 10
87.06252216544154
 20
85.77607188388941
 30
0.0
 10
87.10310204218206
 20
85.68160473442944
 30
0.0
 10
87.13979988469237
 20
85.58672628556188
 30
0.0
 10
87.17242775078704
 20
85.49150606631778
 30
0.0
 10
87.20104537026785
 20
85.39499066351954
 30
0.0
 10
87.22527230705239
 20
85.29747623333365
 30
0.0
 10
87.24479908707181
 20
85.19911529988953
 30
0.0
 10
87.25925312943504
 20
85.10011037901654
 30
0.0
 10
87.26827148973862
 20
85.00048997507261
 30
0.0
 10
87.2714253548993
 20
84.90053508919658
 30
0.0
 10
87.2682714897417
 20
84.80058020332001
 30
0.0
 10
87.2592531294409
 20
84.70095979937444
 30
0.0
 10
87.24479908708027
 20
84.60195487849973
 30
0.0
 10
87.22527230706312
 20
84.50359394505375
 30
0.0
 10
87.20104537028035
 20
84.40607951486595
 30
0.0
 10
87.17242775080116
 20
84.3095641120658
 30
0.0
 10
87.13979988470835
 20
84.21434389281964
 30
0.0
 10
87.1031020421999
 20
84.1194654439499
 30
0.0
 10
87.06252216546103
 20
84.02499829448773
 30
0.0
 10
87.01815013579565
 20
83.93105283690647
 30
0.0
 10
86.9706268046884
 20
83.8386656990328
 30
0.0
 10
86.92019191513683
 20
83.74792254124856
 30
0.0
 10
86.86704820768882
 20
83.65882606388789
 30
0.0
 10
86.81141889093657
 20
83.57134604763331
 30
0.0
 10
86.75347470658814
 20
83.48538044808262
 30
0.0
 10
86.69123382736059
 20
83.39780481126346
 30
0.0
 10
86.62463812128584
 20
83.30873783121852
 30
0.0
 10
86.55350716257989
 20
83.21840379364409
 30
0.0
 10
86.48017702869326
 20
83.12984850377131
 30
0.0
 10
86.40472796353788
 20
83.04309881118039
 30
0.0
 10
86.32723486327055
 20
82.95817509909145
 30
0.0
 10
86.24777138984297
 20
82.87509796456752
 30
0.0
 10
86.16640662201303
 20
82.79388333684174
 30
0.0
 10
86.08353722773481
 20
82.71486020576737
 30
0.0
 10
85.99925465884544
 20
82.63801749668662
 30
0.0
 10
85.9136905902356
 20
82.56329192597104
 30
0.0
 10
85.82661310759173
 20
82.49033673394786
 30
0.0
 10
85.73810982358395
 20
82.41909818968128
 30
0.0
 10
85.6482735389059
 20
82.34952772482336
 30
0.0
 10
85.55719266836775
 20
82.28157146931407
 30
0.0
 10
85.46496309752345
 20
82.21518044770004
 30
0.0
 10
85.36410612276718
 20
82.14503605597028
 30
0.0
 10
85.25440029044823
 20
82.07151263382292
 30
0.0
 10
85.13555640480072
 20
81.99512753248638
 30
0.0
 10
85.01526367800707
 20
81.92104458757824
 30
0.0
 10
84.89356471087703
 20
81.849302512016
 30
0.0
 10
84.7704993168541
 20
81.77993803746689
 30
0.0
 10
84.64610891846979
 20
81.7129862832319
 30
0.0
 10
84.52043218927449
 20
81.64848111657679
 30
0.0
 10
84.3934813672822
 20
81.58644370609576
 30
0.0
 10
84.26529875204807
 20
81.52691249910443
 30
0.0
 10
84.13592272430635
 20
81.46993601199243
 30
0.0
 10
84.005425190027
 20
81.41557574251264
 30
0.0
 10
83.87385666880337
 20
81.36388241001829
 30
0.0
 10
83.74126213162106
 20
81.31490391772417
 30
0.0
 10
83.60768871678093
 20
81.26869052232016
 30
0.0
 10
83.47317647501194
 20
81.22529032416698
 30
0.0
 10
83.33965064229105
 20
81.18531683876162
 30
0.0
 10
83.20720229111762
 20
81.14868288995876
 30
0.0
 10
83.07593927540745
 20
81.11521118505414
 30
0.0
 10
82.94404023539627
 20
81.08433916718892
 30
0.0
 10
82.81156400470412
 20
81.0560249296843
 30
0.0
 10
82.67857097287418
 20
81.03022708636536
 30
0.0
 10
82.54511806533228
 20
81.00690473611527
 30
0.0
 10
82.41126320170198
 20
80.98601680784459
 30
0.0
 10
82.27697206437378
 20
80.96750942996562
 30
0.0
 10
82.14229219203261
 20
80.95134409744728
 30
0.0
 10
82.00726973558756
 20
80.93748322089601
 30
0.0
 10
81.87203476610392
 20
80.92587672125296
 30
0.0
 10
81.73662388423885
 20
80.91652795805533
 30
0.0
 10
81.60108143626087
 20
80.90920112857648
 30
0.0
 10
81.51064257240168
 20
80.9061020125029
 30
0.0
 10
81.46542315501236
 20
80.90455245496437
 30
0.0
 11
81.46542315501239
 21
80.90455245496437
 31
0.0
 11
81.32971942852257
 21
80.90153125930749
 31
0.0
 11
81.19398538402805
 21
80.90053508901153
 31
0.0
 11
81.05825133952916
 21
80.90153125930357
 31
0.0
 11
80.92254761303495
 21
80.90455245495667
 31
0.0
 11
80.78690811108837
 21
80.90964751665805
 31
0.0
 11
80.65136489635744
 21
80.91686518798952
 31
0.0
 11
80.51596480373507
 21
80.92625304556918
 31
0.0
 11
80.38073678547316
 21
80.9378589188689
 31
0.0
 11
80.2457214341162
 21
80.95172988329263
 31
0.0
 11
80.11096364348694
 21
80.96791264291444
 31
0.0
 11
79.97676609429882
 21
80.98641551988935
 31
0.0
 11
79.84292012128547
 21
81.00731040264343
 31
0.0
 11
79.70947582125866
 21
81.03063978986937
 31
0.0
 11
79.5764881725638
 21
81.0564452916161
 31
0.0
 11
79.4440259642857
 21
81.08476562984565
 31
0.0
 11
79.3121367007597
 21
81.11564466092622
 31
0.0
 11
79.18088529949165
 21
81.14912297318612
 31
0.0
 11
79.05033598455728
 21
81.18524148872612
 31
0.0
 11
78.91494308391886
 21
81.22576767409387
 31
0.0
 11
78.78044016240715
 21
81.2691588408526
 31
0.0
 11
78.64687323481775
 21
81.31536423523993
 31
0.0
 11
78.51429413046824
 21
81.36433144240097
 31
0.0
 11
78.38272530735439
 21
81.41601974950385
 31
0.0
 11
78.2522344932412
 21
81.47037224878467
 31
0.0
 11
78.12286575205101
 21
81.52734068340389
 31
0.0
 11
77.99465909714448
 21
81.58687837097533
 31
0.0
 11
77.86774584197529
 21
81.64889489475527
 31
0.0
 11
77.74207616887634
 21
81.71339408406571
 31
0.0
 11
77.61769280557004
 21
81.78033986373816
 31
0.0
 11
77.49463756750205
 21
81.84969660375292
 31
0.0
 11
77.37294205117531
 21
81.92143438511744
 31
0.0
 11
77.25265584219032
 21
81.99551122209701
 31
0.0
 11
77.13381816701585
 21
82.0718903873649
 31
0.0
 11
77.01646813199457
 21
82.15053508905467
 31
0.0
 11
76.92318483814482
 21
82.21543171422246
 31
0.0
 11
76.83096816422866
 21
82.28183335607021
 31
0.0
 11
76.73990281144722
 21
82.3497981869489
 31
0.0
 11
76.65007102425045
 21
82.41938574627827
 31
0.0
 11
76.56159360408569
 21
82.49062420115635
 31
0.0
 11
76.4745325697502
 21
82.56358685541471
 31
0.0
 11
76.38898538107382
 21
82.63831957943158
 31
0.0
 11
76.30505526770169
 21
82.71486352306721
 31
0.0
 11
76.2218696866262
 21
82.79419635337044
 31
0.0
 11
76.14051667856197
 21
82.87540795562913
 31
0.0
 11
76.06106471758706
 21
82.95848240671566
 31
0.0
 11
75.98358612796747
 21
83.04340016532832
 31
0.0
 11
75.90814744815306
 21
83.13014878917495
 31
0.0
 11
75.83483144944654
 21
83.21869862286218
 31
0.0
 11
75.76371261769495
 21
83.30902941423042
 31
0.0
 11
75.69487357958619
 21
83.4011097056295
 31
0.0
 11
75.63484775664858
 21
83.48562489286654
 31
0.0
 11
75.57693613450127
 21
83.57160082080597
 31
0.0
 11
75.52134288893214
 21
83.65908529358006
 31
0.0
 11
75.46827280999385
 21
83.74812322062098
 31
0.0
 11
75.41783525384034
 21
83.83892882702762
 31
0.0
 11
75.3703466760669
 21
83.931310878544
 31
0.0
 11
75.32600933447557
 21
84.02525124204821
 31
0.0
 11
75.285036948412
 21
84.12070785818614
 31
0.0
 11
75.24878423009764
 21
84.2145687084286
 31
0.0
 11
75.21621490985473
 21
84.30976895610125
 31
0.0
 11
75.18764944828617
 21
84.40627744002452
 31
0.0
 11
75.16342996873165
 21
84.50396719755992
 31
0.0
 11
75.14401000634685
 21
84.6020992566085
 31
0.0
 11
75.12961951420903
 21
84.70109704800478
 31
0.0
 11
75.12067593114554
 21
84.80064609087573
 31
0.0
 11
75.11759665380461
 21
84.90053508919677
 31
0.0
 11
75.12067593114855
 21
85.00042408751614
 31
0.0
 11
75.1296195142147
 21
85.09997313038528
 31
0.0
 11
75.14401000635478
 21
85.1989709217796
 31
0.0
 11
75.16342996874165
 21
85.2971029808261
 31
0.0
 11
75.18764944829815
 21
85.39479273835927
 31
0.0
 11
75.21621490986855
 21
85.49130122228036
 31
0.0
 11
75.24878423011309
 21
85.58650146995073
 31
0.0
 11
75.28503694842894
 21
85.68036232019091
 31
0.0
 11
75.32600933449403
 21
85.77581893632637
 31
0.0
 11
75.37034667608691
 21
85.86975929982808
 31
0.0
 11
75.41783525386182
 21
85.96214135134198
 31
0.0
 11
75.46827281001669
 21
86.05294695774607
 31
0.0
 11
75.52134288895611
 21
86.14198488478432
 31
0.0
 11
75.57693613452614
 21
86.2294693575558
 31
0.0
 11
75.63484775667413
 21
86.3154452854927
 31
0.0
 11
75.69487357961233
 21
86.39996047272734
 31
0.0
 11
75.7637126177215
 21
86.49204076412335
 31
0.0
 11
75.83483144947341
 21
86.58237155548841
 31
0.0
 11
75.90814744818003
 21
86.67092138917229
 31
0.0
 11
75.98358612799433
 21
86.75767001301564
 31
0.0
 11
76.06106471761353
 21
86.84258777162519
 31
0.0
 11
76.1405166785881
 21
86.92566222270874
 31
0.0
 11
76.22186968665221
 21
87.00687382496439
 31
0.0
 11
76.30505526772754
 21
87.08620665526456
 31
0.0
 11
76.3889853810993
 21
87.16275059889732
 31
0.0
 11
76.47453256977516
 21
87.23748332291136
 31
0.0
 11
76.56159360411016
 21
87.31044597716705
 31
0.0
 11
76.65007102427431
 21
87.38168443204243
 31
0.0
 11
76.73990281147026
 21
87.45127199136921
 31
0.0
 11
76.83096816425096
 21
87.51923682224518
 31
0.0
 11
76.92318483816663
 21
87.58563846409008
 31
0.0
 11
77.016468132016
 21
87.65053508925499
 31
0.0
 11
77.13381816703715
 21
87.72917979094184
 31
0.0
 11
77.25265584221111
 21
87.80555895620694
 31
0.0
 11
77.37294205119525
 21
87.87963579318365
 31
0.0
 11
77.49463756752104
 21
87.95137357454533
 31
0.0
 11
77.61769280558846
 21
88.02073031455733
 31
0.0
 11
77.74207616889424
 21
88.08767609422691
 31
0.0
 11
77.86774584199276
 21
88.15217528353446
 31
0.0
 11
77.99465909716136
 21
88.2141918073116
 31
0.0
 11
78.12286575206701
 21
88.27372949488026
 31
0.0
 11
78.25223449325622
 21
88.33069792949671
 31
0.0
 11
78.38272530736843
 21
88.38505042877459
 31
0.0
 11
78.51429413048135
 21
88.43673873587466
 31
0.0
 11
78.64687323482976
 21
88.48570594303324
 31
0.0
 11
78.7804401624181
 21
88.53191133741836
 31
0.0
 11
78.91494308392866
 21
88.575302504175
 31
0.0
 11
79.05033598456582
 21
88.61582868954059
 31
0.0
 11
79.18088529949901
 21
88.65194720507846
 31
0.0
 11
79.3121367007658
 21
88.68542551733626
 31
0.0
 11
79.44402596429065
 21
88.71630454841495
 31
0.0
 11
79.5764881725677
 21
88.74462488664278
 31
0.0
 11
79.70947582126156
 21
88.77043038838788
 31
0.0
 11
79.84292012128725
 21
88.79375977561243
 31
0.0
 11
79.97676609429934
 21
88.81465465836536
 31
0.0
 11
80.110963643486
 21
88.83315753533921
 31
0.0
 11
80.24572143411375
 21
88.84934029495983
 31
0.0
 11
80.38073678546927
 21
88.86321125938231
 31
0.0
 11
80.51596480373
 21
88.87481713268096
 31
0.0
 11
80.65136489635121
 21
88.88420499025982
 31
0.0
 11
80.78690811108086
 21
88.89142266159087
 31
0.0
 11
80.92254761302614
 21
88.89651772329208
 31
0.0
 11
81.05825133951907
 21
88.89953891894521
 31
0.0
 11
81.19398538401664
 21
88.90053508923756
 31
0.0
 11
81.32971942850993
 21
88.89953891894217
 31
0.0
 11
81.46542315499852
 21
88.89651772328607
 31
0.0
 11
81.6010626569393
 21
88.89142266158184
 31
0.0
 11
81.73660587166432
 21
88.88420499024767
 31
0.0
 11
81.87200596428062
 21
88.87481713266547
 31
0.0
 11
82.00723398253645
 21
88.86321125936348
 31
0.0
 11
82.1422493338874
 21
88.84934029493789
 31
0.0
 11
82.2770071245108
 21
88.83315753531454
 31
0.0
 11
82.4112046736933
 21
88.81465465833838
 31
0.0
 11
82.54505064670109
 21
88.79375977558341
 31
0.0
 11
82.67849494672205
 21
88.7704303883569
 31
0.0
 11
82.81148259541098
 21
88.74462488660978
 31
0.0
 11
82.94394480368304
 21
88.71630454837998
 31
0.0
 11
83.075834067203
 21
88.6854255172994
 31
0.0
 11
83.20708546846491
 21
88.65194720503997
 31
0.0
 11
83.33763478339334
 21
88.6158286895007
 31
0.0
 11
83.47302768402518
 21
88.57530250413403
 31
0.0
 11
83.60753060553046
 21
88.53191133737654
 31
0.0
 11
83.7410975331134
 21
88.48570594299073
 31
0.0
 11
83.87367663745636
 21
88.43673873583148
 31
0.0
 11
84.00524546056374
 21
88.3850504287306
 31
0.0
 11
84.1357362746704
 21
88.33069792945204
 31
0.0
 11
84.26510501585413
 21
88.27372949483531
 31
0.0
 11
84.39331167075427
 21
88.21419180726662
 31
0.0
 11
84.52022492591742
 21
88.15217528348953
 31
0.0
 11
84.64589459901056
 21
88.08767609418211
 31
0.0
 11
84.7702779623112
 21
88.02073031451286
 31
0.0
 11
84.89333320037359
 21
87.95137357450136
 31
0.0
 11
85.01502871669436
 21
87.87963579314021
 31
0.0
 11
85.13531492567336
 21
87.80555895616416
 31
0.0
 11
85.25415260084203
 21
87.72917979089995
 31
0.0
 11
85.37150263585781
 21
87.65053508921389
 31
0.0
 11
85.4647859297031
 21
87.58563846404915
 31
0.0
 11
85.55700260361469
 21
87.51923682220439
 31
0.0
 11
85.6480679563914
 21
87.45127199132875
 31
0.0
 11
85.73789974358334
 21
87.38168443200263
 31
0.0
 11
85.82637716374354
 21
87.31044597712805
 31
0.0
 11
85.9134381980747
 21
87.2374833228732
 31
0.0
 11
85.99898538674692
 21
87.16275059885976
 31
0.0
 11
86.08291550011494
 21
87.08620665522763
 31
0.0
 11
86.16610108118603
 21
87.0068738249284
 31
0.0
 11
86.24745408924592
 21
86.92566222267406
 31
0.0
 11
86.32690605021666
 21
86.84258777159218
 31
0.0
 11
86.40438463983234
 21
86.75767001298428
 31
0.0
 11
86.47982331964312
 21
86.67092138914226
 31
0.0
 11
86.55313931834618
 21
86.58237155545963
 31
0.0
 11
86.62425815009438
 21
86.49204076409613
 31
0.0
 11
86.6930971881997
 21
86.39996047270192
 31
0.0
 11
86.75312301113478
 21
86.31544528546846
 31
0.0
 11
86.81103463327979
 21
86.22946935753271
 31
0.0
 11
86.86662787884707
 21
86.14198488476232
 31
0.0
 11
86.91969795778381
 21
86.05294695772523
 31
0.0
 11
86.97013551393583
 21
85.9621413513225
 31
0.0
 11
87.01762409170784
 21
85.86975929981018
 31
0.0
 11
87.0619614332981
 21
85.77581893631007
 31
0.0
 11
87.10293381936076
 21
85.68036232017636
 31
0.0
 11
87.13918653767459
 21
85.58650146993774
 31
0.0
 11
87.17175585791728
 21
85.49130122226899
 31
0.0
 11
87.20032131948606
 21
85.39479273834971
 31
0.0
 11
87.2245407990412
 21
85.29710298081838
 31
0.0
 11
87.24396076142692
 21
85.19897092177378
 31
0.0
 11
87.2583512535661
 21
85.0999731303814
 31
0.0
 11
87.26729483663165
 21
85.00042408751429
 31
0.0
 11
87.27037411397538
 21
84.900535089197
 31
0.0
 11
87.26729483663466
 21
84.80064609087827
 31
0.0
 11
87.25835125357196
 21
84.70109704800961
 31
0.0
 11
87.24396076143533
 21
84.60209925661547
 31
0.0
 11
87.22454079905184
 21
84.503967197569
 31
0.0
 11
87.20032131949856
 21
84.4062774400358
 31
0.0
 11
87.17175585793144
 21
84.30976895611457
 31
0.0
 11
87.13918653769055
 21
84.21456870844376
 31
0.0
 11
87.10293381937852
 21
84.12070785820302
 31
0.0
 11
87.06196143331752
 21
84.02525124206711
 31
0.0
 11
87.01762409172869
 21
83.93131087856482
 31
0.0
 11
86.97013551395786
 21
83.83892882705031
 31
0.0
 11
86.919697957807
 21
83.74812322064535
 31
0.0
 11
86.86662787887155
 21
83.65908529360594
 31
0.0
 11
86.81103463330547
 21
83.57160082083321
 31
0.0
 11
86.75312301116129
 21
83.4856248928951
 31
0.0
 11
86.69309718822697
 21
83.4011097056593
 31
0.0
 11
86.62425815012242
 21
83.30902941426218
 31
0.0
 11
86.55313931837499
 21
83.2186986228958
 31
0.0
 11
86.47982331967258
 21
83.13014878921032
 31
0.0
 11
86.40438463986231
 21
83.04340016536538
 31
0.0
 11
86.32690605024715
 21
82.95848240675437
 31
0.0
 11
86.24745408927677
 21
82.87540795566932
 31
0.0
 11
86.16610108121702
 21
82.79419635341196
 31
0.0
 11
86.08291550014596
 21
82.71486352310995
 31
0.0
 11
85.99898538677787
 21
82.63831957947532
 31
0.0
 11
85.91343819810544
 21
82.56358685545929
 31
0.0
 11
85.82637716377394
 21
82.49062420120168
 31
0.0
 11
85.73789974361328
 21
82.41938574632428
 31
0.0
 11
85.6480679564209
 21
82.34979818699553
 31
0.0
 11
85.55700260364382
 21
82.28183335611746
 31
0.0
 11
85.46478592973195
 21
82.21543171427024
 31
0.0
 11
85.37150263588643
 21
82.15053508910299
 31
0.0
 11
85.25415260087088
 21
82.07189038741389
 31
0.0
 11
85.13531492570232
 21
81.99551122214659
 31
0.0
 11
85.01502871672332
 21
81.92143438516759
 31
0.0
 11
84.89333320040247
 21
81.84969660380348
 31
0.0
 11
84.77027796234009
 21
81.78033986378904
 31
0.0
 11
84.64589459903945
 21
81.7133940841168
 31
0.0
 11
84.52022492594635
 21
81.64889489480647
 31
0.0
 11
84.39331167078309
 21
81.58687837102643
 31
0.0
 11
84.26510501588263
 21
81.52734068345478
 31
0.0
 11
84.1357362746986
 21
81.47037224883518
 31
0.0
 11
84.00524546059175
 21
81.41601974955387
 31
0.0
 11
83.8736766374842
 21
81.36433144245032
 31
0.0
 11
83.74109753314092
 21
81.31536423528853
 31
0.0
 11
83.60753060555749
 21
81.26915884090029
 31
0.0
 11
83.47302768405159
 21
81.2257676741404
 31
0.0
 11
83.33763478341908
 21
81.18524148877131
 31
0.0
 11
83.20708546849028
 21
81.14912297322968
 31
0.0
 11
83.07583406722783
 21
81.11564466096797
 31
0.0
 11
82.94394480370703
 21
81.0847656298854
 31
0.0
 11
82.81148259543397
 21
81.05644529165373
 31
0.0
 11
82.67849494674402
 21
81.03063978990468
 31
0.0
 11
82.54505064672219
 21
81.0073104026763
 31
0.0
 11
82.41120467371381
 21
80.98641551991965
 31
0.0
 11
82.2770071245307
 21
80.96791264294198
 31
0.0
 11
82.14224933390645
 21
80.95172988331724
 31
0.0
 11
82.0072339825545
 21
80.93785891889046
 31
0.0
 11
81.87200596429764
 21
80.92625304558749
 31
0.0
 11
81.73660587168033
 21
80.91686518800444
 31
0.0
 11
81.60106265695427
 21
80.90964751666942
 31
0.0
 11
81.46542315501236
 21
80.90455245496437
 31
0.0
  0
SPLINE
  5
1CB
330
1F
100
AcDbEntity
  8
1
  6
Continuous
 62
     3
100
AcDbSpline
210
0.0
220
0.0
230
1.0
 70
    11
 71
     3
 72
   263
 73
   259
 74
   257
 42
0.0000000001
 43
0.0000000001
 44
0.00000001
 40
0.0
 40
0.0
 40
0.0
 40
0.0
 40
0.0912303494866107
 40
0.1824607518461238
 40
0.2736911542059448
 40
0.3649215036928717
 40
0.4561515411724839
 40
0.5473815909728337
 40
0.638612476201116
 40
0.7298433612317454
 40
0.8210743570975836
 40
0.9123053472723146
 40
1.003452384883535
 40
1.094599421781417
 40
1.185746869201603
 40
1.276894314439293
 40
1.368034263389786
 40
1.459174228006772
 40
1.550313283819145
 40
1.641452273816387
 40
1.73553900128314
 40
1.829626102582073
 40
1.923715193452065
 40
2.017804188193736
 40
2.111903922211285
 40
2.206003675550241
 40
2.300102723833904
 40
2.3942017803201
 40
2.48829058441087
 40
2.582379379229776
 40
2.676468069533844
 40
2.770556740272307
 40
2.864651596390944
 40
2.958746525173778
 40
3.052841562605519
 40
3.146936344302581
 40
3.228291832571798
 40
3.309646674810114
 40
3.390998909430722
 40
3.472351304877057
 40
3.553681717776337
 40
3.635012123106062
 40
3.716343115968606
 40
3.797673990622728
 40
3.879541009410761
 40
3.961408208728305
 40
4.043276179440147
 40
4.125144107925306
 40
4.207022918671317
 40
4.288901726900746
 40
4.370782732546382
 40
4.452663785251986
 40
4.528837386754543
 40
4.605010279912539
 40
4.681180075654864
 40
4.757350001519788
 40
4.833601463973625
 40
4.90985291929174
 40
4.986106692778499
 40
5.062360648906641
 40
5.137183624627903
 40
5.212006127113827
 40
5.286840041929538
 40
5.361673912247379
 40
5.436266003510493
 40
5.510859266464982
 40
5.585419261019394
 40
5.659974193021864
 40
5.734529125024265
 40
5.809089119578594
 40
5.883682382533122
 40
5.958274473796306
 40
6.033108344114125
 40
6.107942258929798
 40
6.182764761415716
 40
6.257587737136951
 40
6.333841693265163
 40
6.410095466751987
 40
6.486346922070049
 40
6.562598384523814
 40
6.638768310388758
 40
6.714938106131076
 40
6.791110999289109
 40
6.867284600791726
 40
6.9491656534973
 40
7.031046659142939
 40
7.112925467372295
 40
7.194804278118239
 40
7.276672206603165
 40
7.358540177314893
 40
7.440407376632534
 40
7.522274395420634
 40
7.603605270074663
 40
7.684936262937035
 40
7.766266668266662
 40
7.847597081165901
 40
7.928949476612246
 40
8.010301711232856
 40
8.091656553471227
 40
8.173012041740495
 40
8.267106823437489
 40
8.361201860869082
 40
8.455296789651733
 40
8.549391645770228
 40
8.643480316508843
 40
8.737569006813086
 40
8.83165780163204
 40
8.925746605722825
 40
9.019845662209052
 40
9.113944710492804
 40
9.208044463831742
 40
9.302144197849257
 40
9.39623319259093
 40
9.490322283460925
 40
9.584409384759844
 40
9.678496112226561
 40
9.769635102223749
 40
9.86077415803609
 40
9.951914122653111
 40
10.04305407160358
 40
10.13420151684127
 40
10.22534896426145
 40
10.31649600115935
 40
10.40764303877061
 40
10.49887402894537
 40
10.59010502481121
 40
10.68133590984181
 40
10.77256679507006
 40
10.8637968448704
 40
10.95502688235002
 40
11.04625723183699
 40
11.13748763419684
 40
11.22871803655636
 40
11.31994838604299
 40
11.41117842352235
 40
11.50240847332242
 40
11.59363935855029
 40
11.68487024358053
 40
11.77610123944599
 40
11.8673322296204
 40
11.95847926723134
 40
12.04962630412892
 40
12.14077375154875
 40
12.23192119678609
 40
12.32306114573641
 40
12.41420111035328
 40
12.50534016616542
 40
12.5964791561624
 40
12.69056588362865
 40
12.7846529849271
 40
12.87874207579672
 40
12.97283107053807
 40
13.06693080455512
 40
13.16103055789351
 40
13.25512960617672
 40
13.34922866266242
 40
13.44331746675279
 40
13.53740626157133
 40
13.63149495187523
 40
13.7255836226136
 40
13.81967847873195
 40
13.91377340751448
 40
14.00786844494598
 40
14.10196322664283
 40
14.18331871491194
 40
14.26467355715008
 40
14.34602579177043
 40
14.42737818721644
 40
14.50870860011522
 40
14.59003900544438
 40
14.67136999830645
 40
14.75270087296028
 40
14.83456789174802
 40
14.91643509106532
 40
14.99830306177678
 40
15.0801709902615
 40
15.16204980100722
 40
15.24392860923623
 40
15.32580961488122
 40
15.40769066758612
 40
15.48386426908835
 40
15.56003716224619
 40
15.63620695798852
 40
15.71237688385341
 40
15.78862834630725
 40
15.86487980162533
 40
15.94113357511204
 40
16.01738753124008
 40
16.09221050696138
 40
16.16703300944732
 40
16.24186692426289
 40
16.3167007945805
 40
16.39129288584328
 40
16.46588614879747
 40
16.54044614335167
 40
16.61500107535407
 40
16.68955600735646
 40
16.7641160019106
 40
16.83870926486476
 40
16.91330135612747
 40
16.98813522644518
 40
17.06296914126083
 40
17.13779164374677
 40
17.21261461946805
 40
17.28886857559606
 40
17.36512234908273
 40
17.4413738044008
 40
17.51762526685461
 40
17.59379519271949
 40
17.66996498846179
 40
17.74613788161967
 40
17.82231148312201
 40
17.90419253582726
 40
17.98607354147259
 40
18.06795234970174
 40
18.14983116044749
 40
18.23169908893214
 40
18.31356705964357
 40
18.39543425896092
 40
18.47730127774878
 40
18.55863215240248
 40
18.6399631452645
 40
18.72129355059373
 40
18.80262396349259
 40
18.88397635893851
 40
18.96532859355868
 40
19.0466834357966
 40
19.12803892406545
 40
19.22213370576225
 40
19.31622874319372
 40
19.41032367197631
 40
19.50441852809468
 40
19.59850719883304
 40
19.69259588913692
 40
19.78668468395552
 40
19.88077348804597
 40
19.97487254453157
 40
20.06897159281469
 40
20.16307134615314
 40
20.25717108017015
 40
20.35126007491137
 40
20.44534916578088
 40
20.53943626707945
 40
20.63352299454587
 40
20.72466198454284
 40
20.81580104035493
 40
20.9069410049718
 40
20.99808095392216
 40
21.08922839915961
 40
21.18037584657949
 40
21.27152288347706
 40
21.36266992108801
 40
21.45390091126244
 40
21.54513190712795
 40
21.63636279215826
 40
21.72759367738623
 40
21.81882372718627
 40
21.91005376466554
 40
21.91005376466554
 40
21.91005376466554
 40
21.91005376466554
 10
89.4177232105894
 20
85.08295137285114
 30
0.0
 10
89.41669534056666
 20
85.0525576385044
 30
0.0
 10
89.4146395999255
 20
84.99177015219607
 30
0.0
 10
89.41384336209649
 20
84.9005342338302
 30
0.0
 10
89.41471455985655
 20
84.8093034476618
 30
0.0
 10
89.41742336797698
 20
84.71810693438647
 30
0.0
 10
89.42193120265205
 20
84.62698238901916
 30
0.0
 10
89.42825535778879
 20
84.53596539708207
 30
0.0
 10
89.43639812661227
 20
84.44509278990662
 30
0.0
 10
89.44636539889149
 20
84.3544017683844
 30
0.0
 10
89.45816188783563
 20
84.26393040653095
 30
0.0
 10
89.47178837689819
 20
84.17374472580234
 30
0.0
 10
89.48724768262082
 20
84.08388342190824
 30
0.0
 10
89.50454209205797
 20
83.9943854680109
 30
0.0
 10
89.52368045997875
 20
83.90526339981847
 30
0.0
 10
89.54466612391067
 20
83.81656048321886
 30
0.0
 10
89.56750260436488
 20
83.72831841082717
 30
0.0
 10
89.59219358963705
 20
83.64057997803796
 30
0.0
 10
89.61874337489876
 20
83.55338623377204
 30
0.0
 10
89.6474617614501
 20
83.46584795513706
 30
0.0
 10
89.678423160346
 20
83.37803431424082
 30
0.0
 10
89.71166339376828
 20
83.29000595910315
 30
0.0
 10
89.74682004740986
 20
83.20272461329327
 30
0.0
 10
89.78385944794992
 20
83.11622102283252
 30
0.0
 10
89.82274698552416
 20
83.03052858997485
 30
0.0
 10
89.86344931294339
 20
82.94567953318085
 30
0.0
 10
89.90593188893371
 20
82.86170805559118
 30
0.0
 10
89.95016038745501
 20
82.77864716976057
 30
0.0
 10
89.99610243522729
 20
82.69652568123809
 30
0.0
 10
90.04372877650982
 20
82.61537348329549
 30
0.0
 10
90.09301235613752
 20
82.5352170389088
 30
0.0
 10
90.14392585848677
 20
82.45608353410712
 30
0.0
 10
90.19644128612549
 20
82.37800148493234
 30
0.0
 10
90.2505299436308
 20
82.30099833972774
 30
0.0
 10
90.30616202551232
 20
82.22510290366142
 30
0.0
 10
90.36073022854433
 20
82.15371553020074
 30
0.0
 10
90.41398010970218
 20
82.08668692566935
 30
0.0
 10
90.46572250441452
 20
82.02390182192727
 30
0.0
 10
90.51861993758143
 20
81.96208774578652
 30
0.0
 10
90.5726867797901
 20
81.90130432259608
 30
0.0
 10
90.62794043407425
 20
81.84160716564726
 30
0.0
 10
90.6843952089919
 20
81.78305402090899
 30
0.0
 10
90.74206850043328
 20
81.72569997532835
 30
0.0
 10
90.80110003906125
 20
81.6694845946672
 30
0.0
 10
90.86150705018781
 20
81.61448347544896
 30
0.0
 10
90.9232850961646
 20
81.56075345484427
 30
0.0
 10
90.98628670339346
 20
81.50846268664566
 30
0.0
 10
91.0504979906367
 20
81.45765809786997
 30
0.0
 10
91.11590074258837
 20
81.40839041014452
 30
0.0
 10
91.18247610022134
 20
81.36071126194118
 30
0.0
 10
91.25019978106916
 20
81.31467601642535
 30
0.0
 10
91.31744867004801
 20
81.27136893000002
 30
0.0
 10
91.38410859927382
 20
81.23070625993012
 30
0.0
 10
91.45010799624433
 20
81.19265987457314
 30
0.0
 10
91.5170779384766
 20
81.15634993339846
 30
0.0
 10
91.58504272719253
 20
81.12187807674268
 30
0.0
 10
91.65399687661517
 20
81.08936436961967
 30
0.0
 10
91.72392145758184
 20
81.05892148454845
 30
0.0
 10
91.79476371279077
 20
81.03067492037482
 30
0.0
 10
91.8660385454385
 20
81.00490413792417
 30
0.0
 10
91.9376816121254
 20
80.98167681242623
 30
0.0
 10
92.00964030458678
 20
80.96110098129384
 30
0.0
 10
92.08231517189782
 20
80.94319598577782
 30
0.0
 10
92.15555772608823
 20
80.92814470192263
 30
0.0
 10
92.22927614250389
 20
80.91610657412454
 30
0.0
 10
92.30335639550489
 20
80.90726372925312
 30
0.0
 10
92.37775201371977
 20
80.90179594519591
 30
0.0
 10
92.45231563316183
 20
80.89990468251054
 30
0.0
 10
92.52687925260393
 20
80.90179594519591
 30
0.0
 10
92.60127487081874
 20
80.90726372925322
 30
0.0
 10
92.67535512381977
 20
80.91610657412454
 30
0.0
 10
92.7490735402354
 20
80.92814470192269
 30
0.0
 10
92.8223160944259
 20
80.94319598577775
 30
0.0
 10
92.89499096173687
 20
80.96110098129385
 30
0.0
 10
92.96694965419826
 20
80.98167681242624
 30
0.0
 10
93.03859272088508
 20
81.00490413792424
 30
0.0
 10
93.10986755353292
 20
81.0306749203748
 30
0.0
 10
93.18070980874194
 20
81.05892148454842
 30
0.0
 10
93.2506343897085
 20
81.0893643696197
 30
0.0
 10
93.3195885391311
 20
81.12187807674272
 30
0.0
 10
93.38755332784697
 20
81.15634993339853
 30
0.0
 10
93.45452327007935
 20
81.19265987457321
 30
0.0
 10
93.52052266704985
 20
81.23070625993016
 30
0.0
 10
93.58718259627571
 20
81.27136893000008
 30
0.0
 10
93.65443148525453
 20
81.31467601642532
 30
0.0
 10
93.72215516610241
 20
81.3607112619411
 30
0.0
 10
93.78873052373527
 20
81.40839041014453
 30
0.0
 10
93.85413327568679
 20
81.45765809786992
 30
0.0
 10
93.91834456292975
 20
81.5084626866458
 30
0.0
 10
93.98134617015842
 20
81.5607534548445
 30
0.0
 10
94.04312421613531
 20
81.61448347544913
 30
0.0
 10
94.10353122726204
 20
81.66948459466715
 30
0.0
 10
94.16256276588982
 20
81.72569997532845
 30
0.0
 10
94.22023605733092
 20
81.78305402090919
 30
0.0
 10
94.27669083224845
 20
81.84160716564743
 30
0.0
 10
94.33194448653258
 20
81.90130432259623
 30
0.0
 10
94.38601132874126
 20
81.96208774578662
 30
0.0
 10
94.43890876190821
 20
82.02390182192741
 30
0.0
 10
94.49065115662046
 20
82.08668692566957
 30
0.0
 10
94.54390103777834
 20
82.15371553020097
 30
0.0
 10
94.59846924081032
 20
82.2251029036616
 30
0.0
 10
94.65410132269169
 20
82.3009983397279
 30
0.0
 10
94.70818998019666
 20
82.37800148493253
 30
0.0
 10
94.76070540783516
 20
82.45608353410739
 30
0.0
 10
94.81161891018465
 20
82.53521703890895
 30
0.0
 10
94.86090248981259
 20
82.61537348329561
 30
0.0
 10
94.90852883109537
 20
82.69652568123819
 30
0.0
 10
94.95447087886765
 20
82.77864716976069
 30
0.0
 10
94.99869937738893
 20
82.86170805559135
 30
0.0
 10
95.04118195337935
 20
82.94567953318106
 30
0.0
 10
95.08188428079843
 20
83.03052858997509
 30
0.0
 10
95.12077181837282
 20
83.11622102283273
 30
0.0
 10
95.15781121891274
 20
83.20272461329353
 30
0.0
 10
95.19296787255445
 20
83.2900059591033
 30
0.0
 10
95.22620810597671
 20
83.37803431424103
 30
0.0
 10
95.25716950487256
 20
83.46584795513716
 30
0.0
 10
95.28588789142388
 20
83.55338623377217
 30
0.0
 10
95.3124376766858
 20
83.64057997803806
 30
0.0
 10
95.33712866195707
 20
83.7283184108272
 30
0.0
 10
95.35996514241492
 20
83.8165604832191
 30
0.0
 10
95.38095080633288
 20
83.9052633998181
 30
0.0
 10
95.40008917430592
 20
83.99438546801264
 30
0.0
 10
95.41738358354803
 20
84.08388342190224
 30
0.0
 10
95.43284288999902
 20
84.17374472582516
 30
0.0
 10
95.44646937634154
 20
84.26393040644619
 30
0.0
 10
95.45826587544072
 20
84.354401768701
 30
0.0
 10
95.4682331098229
 20
84.44509278872516
 30
0.0
 10
95.47637602007974
 20
84.5359654014913
 30
0.0
 10
95.48269964738373
 20
84.6269823725638
 30
0.0
 10
95.4872094519542
 20
84.71810699579875
 30
0.0
 10
95.48991090829685
 20
84.80930321846724
 30
0.0
 10
95.49080954329996
 20
84.90053508919672
 30
0.0
 10
95.48991090829635
 20
84.99176695992605
 30
0.0
 10
95.48720945195325
 20
85.08296318259423
 30
0.0
 10
95.48269964738219
 20
85.17408780582888
 30
0.0
 10
95.47637602007788
 20
85.26510477690104
 30
0.0
 10
95.46823310982087
 20
85.35597738966685
 30
0.0
 10
95.4582658754388
 20
85.44666840969066
 30
0.0
 10
95.44646937634005
 20
85.53713977194514
 30
0.0
 10
95.43284288999777
 20
85.62732545256581
 30
0.0
 10
95.41738358354652
 20
85.71718675648842
 30
0.0
 10
95.40008917430403
 20
85.80668471037755
 30
0.0
 10
95.3809508063309
 20
85.89580677857177
 30
0.0
 10
95.35996514241293
 20
85.98450969517046
 30
0.0
 10
95.33712866195505
 20
86.07275176756212
 30
0.0
 10
95.3124376766837
 20
86.16049020035105
 30
0.0
 10
95.28588789142134
 20
86.24768394461665
 30
0.0
 10
95.25716950486982
 20
86.33522222325125
 30
0.0
 10
95.22620810597412
 20
86.42303586414708
 30
0.0
 10
95.19296787255216
 20
86.51106421928438
 30
0.0
 10
95.15781121891025
 20
86.59834556509372
 30
0.0
 10
95.12077181836986
 20
86.68484915555388
 30
0.0
 10
95.0818842807955
 20
86.770541588411
 30
0.0
 10
95.04118195337637
 20
86.85539064520445
 30
0.0
 10
94.998699377386
 20
86.93936212279358
 30
0.0
 10
94.95447087886475
 20
87.02242300862369
 30
0.0
 10
94.9085288310924
 20
87.10454449714567
 30
0.0
 10
94.86090248980967
 20
87.18569669508778
 30
0.0
 10
94.81161891018164
 20
87.26585313947399
 30
0.0
 10
94.76070540783218
 20
87.34498664427534
 30
0.0
 10
94.70818998019362
 20
87.42306869344993
 30
0.0
 10
94.65410132268872
 20
87.50007183865449
 30
0.0
 10
94.59846924080735
 20
87.57596727472064
 30
0.0
 10
94.54390103777534
 20
87.64735464818105
 30
0.0
 10
94.4906511566175
 20
87.71438325271225
 30
0.0
 10
94.43890876190522
 20
87.77716835645411
 30
0.0
 10
94.38601132873825
 20
87.8389824325945
 30
0.0
 10
94.33194448652955
 20
87.89976585578444
 30
0.0
 10
94.2766908322455
 20
87.9594630127327
 30
0.0
 10
94.22023605732791
 20
88.01801615747036
 30
0.0
 10
94.16256276588676
 20
88.07537020305057
 30
0.0
 10
94.10353122725897
 20
88.13158558371141
 30
0.0
 10
94.0431242161323
 20
88.18658670292908
 30
0.0
 10
93.98134617015543
 20
88.24031672353327
 30
0.0
 10
93.9183445629267
 20
88.29260749173147
 30
0.0
 10
93.85413327568381
 20
88.34341208050695
 30
0.0
 10
93.78873052373228
 20
88.39267976823204
 30
0.0
 10
93.72215516609982
 20
88.44035891643524
 30
0.0
 10
93.65443148525256
 20
88.4863941619509
 30
0.0
 10
93.5871825962743
 20
88.52970124837603
 30
0.0
 10
93.52052266704875
 20
88.57036391844572
 30
0.0
 10
93.45452327007841
 20
88.6084103038025
 30
0.0
 10
93.38755332784609
 20
88.64472024497711
 30
0.0
 10
93.31958853913022
 20
88.67919210163296
 30
0.0
 10
93.25063438970759
 20
88.71170580875591
 30
0.0
 10
93.18070980874097
 20
88.74214869382709
 30
0.0
 10
93.10986755353191
 20
88.7703952580004
 30
0.0
 10
93.03859272088414
 20
88.79616604045077
 30
0.0
 10
92.96694965419722
 20
88.81939336594854
 30
0.0
 10
92.89499096173577
 20
88.83996919708073
 30
0.0
 10
92.82231609442485
 20
88.85787419259657
 30
0.0
 10
92.74907354023459
 20
88.87292547645144
 30
0.0
 10
92.67535512381924
 20
88.88496360424945
 30
0.0
 10
92.60127487081846
 20
88.89380644912072
 30
0.0
 10
92.5268792526038
 20
88.89927423317778
 30
0.0
 10
92.45231563316183
 20
88.90116549586315
 30
0.0
 10
92.37775201371983
 20
88.89927423317778
 30
0.0
 10
92.30335639550518
 20
88.89380644912072
 30
0.0
 10
92.22927614250446
 20
88.88496360424946
 30
0.0
 10
92.15555772608914
 20
88.87292547645146
 30
0.0
 10
92.08231517189881
 20
88.85787419259657
 30
0.0
 10
92.00964030458785
 20
88.8399691970807
 30
0.0
 10
91.93768161212641
 20
88.81939336594853
 30
0.0
 10
91.8660385454395
 20
88.79616604045073
 30
0.0
 10
91.7947637127917
 20
88.77039525800043
 30
0.0
 10
91.72392145758275
 20
88.74214869382706
 30
0.0
 10
91.65399687661613
 20
88.71170580875594
 30
0.0
 10
91.58504272719347
 20
88.67919210163294
 30
0.0
 10
91.51707793847761
 20
88.6447202449772
 30
0.0
 10
91.45010799624535
 20
88.60841030380254
 30
0.0
 10
91.38410859927495
 20
88.57036391844575
 30
0.0
 10
91.31744867004922
 20
88.52970124837601
 30
0.0
 10
91.25019978107065
 20
88.48639416195091
 30
0.0
 10
91.18247610022301
 20
88.44035891643527
 30
0.0
 10
91.11590074259037
 20
88.39267976823203
 30
0.0
 10
91.05049799063885
 20
88.3434120805069
 30
0.0
 10
90.98628670339593
 20
88.2926074917315
 30
0.0
 10
90.92328509616718
 20
88.24031672353327
 30
0.0
 10
90.86150705019034
 20
88.18658670292905
 30
0.0
 10
90.8011000390636
 20
88.13158558371138
 30
0.0
 10
90.74206850043589
 20
88.07537020305058
 30
0.0
 10
90.68439520899476
 20
88.01801615747033
 30
0.0
 10
90.62794043407717
 20
87.95946301273264
 30
0.0
 10
90.57268677979307
 20
87.89976585578438
 30
0.0
 10
90.51861993758439
 20
87.83898243259455
 30
0.0
 10
90.46572250441763
 20
87.77716835645418
 30
0.0
 10
90.41398010970573
 20
87.71438325271228
 30
0.0
 10
90.36073022854814
 20
87.6473546481811
 30
0.0
 10
90.30616202551636
 20
87.57596727472065
 30
0.0
 10
90.25052994363499
 20
87.50007183865453
 30
0.0
 10
90.19644128613004
 20
87.42306869344998
 30
0.0
 10
90.1439258584916
 20
87.34498664427534
 30
0.0
 10
90.09301235614201
 20
87.26585313947399
 30
0.0
 10
90.04372877651403
 20
87.18569669508776
 30
0.0
 10
89.99610243523122
 20
87.10454449714564
 30
0.0
 10
89.95016038745896
 20
87.02242300862363
 30
0.0
 10
89.90593188893762
 20
86.9393621227936
 30
0.0
 10
89.86344931294734
 20
86.8553906452045
 30
0.0
 10
89.82274698552818
 20
86.77054158841106
 30
0.0
 10
89.78385944795392
 20
86.68484915555393
 30
0.0
 10
89.74682004741388
 20
86.5983455650937
 30
0.0
 10
89.71166339377247
 20
86.51106421928431
 30
0.0
 10
89.6784231603492
 20
86.42303586414708
 30
0.0
 10
89.64746176145704
 20
86.33522222325111
 30
0.0
 10
89.61874337489127
 20
86.2476839446171
 30
0.0
 10
89.59219358968122
 20
86.16049020034943
 30
0.0
 10
89.5675026042148
 20
86.0727517675682
 30
0.0
 10
89.54466612448476
 20
85.98450969514778
 30
0.0
 10
89.52368045784931
 20
85.89580677865648
 30
0.0
 10
89.5045421000165
 20
85.80668471006145
 30
0.0
 10
89.48724765292944
 20
85.71718675766817
 30
0.0
 10
89.47178848776053
 20
85.62732544816089
 30
0.0
 10
89.45816147367603
 20
85.53713978840115
 30
0.0
 10
89.44636694451495
 20
85.44666834827743
 30
0.0
 10
89.43639235829271
 20
85.3559776188629
 30
0.0
 10
89.42827688536937
 20
85.26510392153241
 30
0.0
 10
89.42185086145676
 20
85.17409099807443
 30
0.0
 10
89.41909909414994
 20
85.11333124655798
 30
0.0
 10
89.4177232105894
 20
85.08295137285114
 30
0.0
 11
89.4177232105894
 21
85.08295137285114
 31
0.0
 11
89.41502082916854
 21
84.99176105646774
 31
0.0
 11
89.4141212680817
 21
84.90053508919674
 31
0.0
 11
89.41502082916806
 21
84.80930912192542
 31
0.0
 11
89.41772321058856
 21
84.71811880554169
 31
0.0
 11
89.42223392008367
 21
84.62700034836433
 31
0.0
 11
89.42855843426375
 21
84.53598978575229
 31
0.0
 11
89.4367022057139
 21
84.44512310645727
 31
0.0
 11
89.44667026323651
 21
84.35443842080034
 31
0.0
 11
89.45846758421271
 21
84.26397341196014
 31
0.0
 11
89.47209905327509
 21
84.17376655734552
 31
0.0
 11
89.48755431977855
 21
84.08393940553378
 31
0.0
 11
89.50484938659825
 21
83.99444827190052
 31
0.0
 11
89.5239884339332
 21
83.90533287458712
 31
0.0
 11
89.54497529396544
 21
83.81663446152722
 31
0.0
 11
89.56781180493839
 21
83.72840190483026
 31
0.0
 11
89.59250348981632
 21
83.64067041761915
 31
0.0
 11
89.61905377862064
 21
83.55348435417562
 31
0.0
 11
89.64746638406447
 21
83.4668873602924
 31
0.0
 11
89.67874841849894
 21
83.3781532258962
 31
0.0
 11
89.71198251056941
 21
83.29013119595433
 31
0.0
 11
89.74713357673996
 21
83.20285485570214
 31
0.0
 11
89.78416578743845
 21
83.11636003330057
 31
0.0
 11
89.82304921769288
 21
83.03066966748374
 31
0.0
 11
89.86374614156122
 21
82.94582555180028
 31
0.0
 11
89.90622315995917
 21
82.86185928597935
 31
0.0
 11
89.95044788943427
 21
82.77880023629513
 31
0.0
 11
89.99638343364974
 21
82.6966867244176
 31
0.0
 11
90.04400500466247
 21
82.61553940600994
 31
0.0
 11
90.09328383107412
 21
82.53538780645869
 31
0.0
 11
90.1441915223072
 21
82.45626078872992
 31
0.0
 11
90.1967032798366
 21
82.37818161564797
 31
0.0
 11
90.25078716247177
 21
82.30118298409032
 31
0.0
 11
90.30641460359216
 21
82.22529185243663
 31
0.0
 11
90.36355700716801
 21
82.15053508915602
 31
0.0
 11
90.41416937197246
 21
82.0868396890048
 31
0.0
 11
90.46591568000879
 21
82.02406286238677
 31
0.0
 11
90.51881570388441
 21
81.962258545776
 31
0.0
 11
90.57289032080695
 21
81.90147904224447
 31
0.0
 11
90.62814142982165
 21
81.84179695938025
 31
0.0
 11
90.6845981397161
 21
81.78325402864569
 31
0.0
 11
90.74227331307013
 21
81.72591028636643
 31
0.0
 11
90.80117669202819
 21
81.66982906741278
 31
0.0
 11
90.86171344518134
 21
81.61471545491173
 31
0.0
 11
90.92348878866237
 21
81.56099352957487
 31
0.0
 11
90.98648782234804
 21
81.50871077540921
 31
0.0
 11
91.0506932202016
 21
81.45791683284794
 31
0.0
 11
91.11609559545965
 21
81.40865560103443
 31
0.0
 11
91.18266678456014
 21
81.36098573614245
 31
0.0
 11
91.25038714582571
 21
81.31495909434011
 31
0.0
 11
91.3192314237882
 21
81.27063108757235
 31
0.0
 11
91.38426961503373
 21
81.23097694219788
 31
0.0
 11
91.45027083289573
 21
81.19294867780424
 31
0.0
 11
91.51723981228999
 21
81.15665827160207
 31
0.0
 11
91.5851791309748
 21
81.12221837347631
 31
0.0
 11
91.65415440186788
 21
81.08971148910433
 31
0.0
 11
91.72407356210564
 21
81.059287888565
 31
0.0
 11
91.79491039869444
 21
81.03106058701026
 31
0.0
 11
91.86662639435568
 21
81.00514762130754
 31
0.0
 11
91.93780942099075
 21
80.98209432620997
 31
0.0
 11
92.00975540557802
 21
80.96154725391186
 31
0.0
 11
92.08242234821105
 21
80.94366904776548
 31
0.0
 11
92.15572944890856
 21
80.9286298611494
 31
0.0
 11
92.22935109365027
 21
80.91663680046705
 31
0.0
 11
92.30342205145354
 21
80.90782498519984
 31
0.0
 11
92.37778382443017
 21
80.90239179941928
 31
0.0
 11
92.45231563316187
 21
80.9005350891367
 31
0.0
 11
92.52684744189351
 21
80.9023917994193
 31
0.0
 11
92.60120921487005
 21
80.9078249851999
 31
0.0
 11
92.67528017267337
 21
80.91663680046707
 31
0.0
 11
92.74890181741515
 21
80.92862986114943
 31
0.0
 11
92.82220891811264
 21
80.94366904776547
 31
0.0
 11
92.89487586074563
 21
80.96154725391186
 31
0.0
 11
92.96682184533289
 21
80.98209432621
 31
0.0
 11
93.03800487196793
 21
81.00514762130757
 31
0.0
 11
93.10972086762925
 21
81.03106058701026
 31
0.0
 11
93.18055770421812
 21
81.059287888565
 31
0.0
 11
93.2504768644558
 21
81.08971148910436
 31
0.0
 11
93.31945213534881
 21
81.12221837347636
 31
0.0
 11
93.38739145403363
 21
81.15665827160213
 31
0.0
 11
93.4543604334279
 21
81.19294867780428
 31
0.0
 11
93.52036165128993
 21
81.23097694219793
 31
0.0
 11
93.58539984253554
 21
81.2706310875724
 31
0.0
 11
93.65424412049802
 21
81.3149590943401
 31
0.0
 11
93.7219644817636
 21
81.36098573614242
 31
0.0
 11
93.788535670864
 21
81.40865560103441
 31
0.0
 11
93.85393804612193
 21
81.45791683284799
 31
0.0
 11
93.91814344397514
 21
81.50871077540931
 31
0.0
 11
93.98114247766063
 21
81.56099352957501
 31
0.0
 11
94.0429178211418
 21
81.61471545491186
 31
0.0
 11
94.10345457429509
 21
81.66982906741285
 31
0.0
 11
94.16235795325298
 21
81.72591028636654
 31
0.0
 11
94.22003312660672
 21
81.78325402864584
 31
0.0
 11
94.27648983650103
 21
81.8417969593804
 31
0.0
 11
94.33174094551572
 21
81.90147904224459
 31
0.0
 11
94.38581556243827
 21
81.96225854577611
 31
0.0
 11
94.43871558631388
 21
82.0240628623869
 31
0.0
 11
94.4904618943502
 21
82.086839689005
 31
0.0
 11
94.54107425915467
 21
82.15053508915628
 31
0.0
 11
94.59821666273047
 21
82.22529185243684
 31
0.0
 11
94.65384410385069
 21
82.30118298409047
 31
0.0
 11
94.70792798648556
 21
82.37818161564812
 31
0.0
 11
94.76043974401475
 21
82.45626078873003
 31
0.0
 11
94.81134743524804
 21
82.53538780645884
 31
0.0
 11
94.86062626166
 21
82.61553940601011
 31
0.0
 11
94.9082478326729
 21
82.69668672441773
 31
0.0
 11
94.9541833768884
 21
82.77880023629525
 31
0.0
 11
94.99840810636348
 21
82.86185928597952
 31
0.0
 11
95.04088512476149
 21
82.94582555180052
 31
0.0
 11
95.08158204862978
 21
83.03066966748398
 31
0.0
 11
95.12046547888423
 21
83.11636003330077
 31
0.0
 11
95.1574976895827
 21
83.20285485570236
 31
0.0
 11
95.19264875575328
 21
83.29013119595453
 31
0.0
 11
95.22588284782375
 21
83.37815322589638
 31
0.0
 11
95.2571648822582
 21
83.46688736029256
 31
0.0
 11
95.28557748770203
 21
83.55348435417572
 31
0.0
 11
95.31212777650633
 21
83.64067041761922
 31
0.0
 11
95.3368194613843
 21
83.72840190483036
 31
0.0
 11
95.35965597235722
 21
83.8166344615273
 31
0.0
 11
95.38064283238946
 21
83.9053328745872
 31
0.0
 11
95.39978187972442
 21
83.9944482719006
 31
0.0
 11
95.41707694654413
 21
84.08393940553387
 31
0.0
 11
95.43253221304775
 21
84.17376655734562
 31
0.0
 11
95.44616368211042
 21
84.26397341196022
 31
0.0
 11
95.457961003087
 21
84.35443842080038
 31
0.0
 11
95.46792906060973
 21
84.44512310645727
 31
0.0
 11
95.47607283205974
 21
84.53598978575226
 31
0.0
 11
95.48239734623951
 21
84.62700034836432
 31
0.0
 11
95.48690805573426
 21
84.7181188055417
 31
0.0
 11
95.48961043715462
 21
84.80930912192548
 31
0.0
 11
95.49050999824098
 21
84.90053508919682
 31
0.0
 11
95.48961043715413
 21
84.99176105646784
 31
0.0
 11
95.48690805573328
 21
85.08295137285126
 31
0.0
 11
95.48239734623803
 21
85.17406983002836
 31
0.0
 11
95.4760728320579
 21
85.26508039264012
 31
0.0
 11
95.46792906060774
 21
85.35594707193472
 31
0.0
 11
95.45796100308513
 21
85.44663175759126
 31
0.0
 11
95.4461636821089
 21
85.53709676643108
 31
0.0
 11
95.43253221304641
 21
85.62730362104536
 31
0.0
 11
95.41707694654261
 21
85.71713077285675
 31
0.0
 11
95.39978187972257
 21
85.80662190648964
 31
0.0
 11
95.3806428323875
 21
85.89573730380265
 31
0.0
 11
95.35965597235524
 21
85.9844357168622
 31
0.0
 11
95.33681946138229
 21
86.07266827355896
 31
0.0
 11
95.31212777650417
 21
86.1603997607699
 31
0.0
 11
95.28557748769953
 21
86.24758582421309
 31
0.0
 11
95.25716488225547
 21
86.33418281809595
 31
0.0
 11
95.2258828478212
 21
86.4229169524917
 31
0.0
 11
95.19264875575092
 21
86.51093898243313
 31
0.0
 11
95.15749768958018
 21
86.59821532268484
 31
0.0
 11
95.12046547888136
 21
86.68471014508592
 31
0.0
 11
95.08158204862681
 21
86.77040051090215
 31
0.0
 11
95.04088512475853
 21
86.855244626585
 31
0.0
 11
94.99840810636054
 21
86.93921089240541
 31
0.0
 11
94.95418337688548
 21
87.0222699420891
 31
0.0
 11
94.90824783266996
 21
87.10438345396612
 31
0.0
 11
94.86062626165707
 21
87.18553077237327
 31
0.0
 11
94.81134743524507
 21
87.26568237192411
 31
0.0
 11
94.76043974401176
 21
87.34480938965262
 31
0.0
 11
94.70792798648257
 21
87.42288856273436
 31
0.0
 11
94.65384410384773
 21
87.49988719429187
 31
0.0
 11
94.59821666272748
 21
87.57577832594538
 31
0.0
 11
94.54107425915169
 21
87.65053508922576
 31
0.0
 11
94.4904618943472
 21
87.71423048937682
 31
0.0
 11
94.43871558631088
 21
87.77700731599462
 31
0.0
 11
94.38581556243523
 21
87.83881163260503
 31
0.0
 11
94.33174094551266
 21
87.8995911361361
 31
0.0
 11
94.27648983649804
 21
87.95927321899971
 31
0.0
 11
94.22003312660375
 21
88.01781614973365
 31
0.0
 11
94.16235795324997
 21
88.07515989201248
 31
0.0
 11
94.10345457429199
 21
88.13124111096579
 31
0.0
 11
94.04291782113879
 21
88.18635472346634
 31
0.0
 11
93.98114247765767
 21
88.24007664880273
 31
0.0
 11
93.91814344397216
 21
88.29235940296797
 31
0.0
 11
93.85393804611888
 21
88.3431533455289
 31
0.0
 11
93.78853567086104
 21
88.39241457734221
 31
0.0
 11
93.72196448176095
 21
88.44008444223402
 31
0.0
 11
93.654244120496
 21
88.48611108403614
 31
0.0
 11
93.58539984253419
 21
88.53043909080363
 31
0.0
 11
93.52036165128892
 21
88.57009323617791
 31
0.0
 11
93.45436043342701
 21
88.6081215005714
 31
0.0
 11
93.38739145403274
 21
88.64441190677354
 31
0.0
 11
93.31945213534796
 21
88.67885180489928
 31
0.0
 11
93.25047686445485
 21
88.71135868927125
 31
0.0
 11
93.1805577042171
 21
88.74178228981049
 31
0.0
 11
93.10972086762825
 21
88.77000959136498
 31
0.0
 11
93.03800487196702
 21
88.7959225570674
 31
0.0
 11
92.96682184533185
 21
88.81897585216478
 31
0.0
 11
92.89487586074452
 21
88.83952292446274
 31
0.0
 11
92.82220891811157
 21
88.85740113060889
 31
0.0
 11
92.74890181741425
 21
88.87244031722473
 31
0.0
 11
92.67528017267286
 21
88.88443337790693
 31
0.0
 11
92.60120921486987
 21
88.893245193174
 31
0.0
 11
92.52684744189344
 21
88.89867837895443
 31
0.0
 11
92.4523156331618
 21
88.90053508923698
 31
0.0
 11
92.37778382443018
 21
88.89867837895443
 31
0.0
 11
92.30342205145381
 21
88.893245193174
 31
0.0
 11
92.22935109365085
 21
88.88443337790693
 31
0.0
 11
92.15572944890953
 21
88.87244031722476
 31
0.0
 11
92.0824223482121
 21
88.85740113060889
 31
0.0
 11
92.00975540557909
 21
88.83952292446271
 31
0.0
 11
91.93780942099175
 21
88.81897585216477
 31
0.0
 11
91.8666263943566
 21
88.79592255706739
 31
0.0
 11
91.7949103986954
 21
88.77000959136498
 31
0.0
 11
91.7240735621066
 21
88.74178228981049
 31
0.0
 11
91.65415440186884
 21
88.71135868927126
 31
0.0
 11
91.58517913097576
 21
88.67885180489931
 31
0.0
 11
91.51723981229098
 21
88.6444119067736
 31
0.0
 11
91.45027083289673
 21
88.60812150057146
 31
0.0
 11
91.3842696150348
 21
88.57009323617794
 31
0.0
 11
91.31923142378939
 21
88.53043909080368
 31
0.0
 11
91.25038714582718
 21
88.48611108403615
 31
0.0
 11
91.18266678456186
 21
88.440084442234
 31
0.0
 11
91.1160955954616
 21
88.39241457734217
 31
0.0
 11
91.05069322020371
 21
88.34315334552886
 31
0.0
 11
90.9864878223505
 21
88.29235940296797
 31
0.0
 11
90.923488788665
 21
88.24007664880276
 31
0.0
 11
90.86171344518385
 21
88.18635472346632
 31
0.0
 11
90.80117669203055
 21
88.1312411109657
 31
0.0
 11
90.74227331307269
 21
88.07515989201246
 31
0.0
 11
90.68459813971893
 21
88.01781614973368
 31
0.0
 11
90.62814142982462
 21
87.95927321899967
 31
0.0
 11
90.57289032080992
 21
87.89959113613601
 31
0.0
 11
90.51881570388741
 21
87.83881163260502
 31
0.0
 11
90.46591568001197
 21
87.77700731599465
 31
0.0
 11
90.41416937197599
 21
87.71423048937686
 31
0.0
 11
90.36355700717185
 21
87.65053508922585
 31
0.0
 11
90.3064146035962
 21
87.57577832594544
 31
0.0
 11
90.25078716247599
 21
87.49988719429194
 31
0.0
 11
90.19670327984112
 21
87.42288856273437
 31
0.0
 11
90.14419152231193
 21
87.34480938965261
 31
0.0
 11
90.09328383107861
 21
87.26568237192411
 31
0.0
 11
90.04400500466664
 21
87.18553077237327
 31
0.0
 11
89.9963834336537
 21
87.1043834539661
 31
0.0
 11
89.95044788943814
 21
87.022269942089
 31
0.0
 11
89.90622315996309
 21
86.93921089240541
 31
0.0
 11
89.86374614156517
 21
86.85524462658508
 31
0.0
 11
89.82304921769688
 21
86.77040051090216
 31
0.0
 11
89.78416578744248
 21
86.68471014508592
 31
0.0
 11
89.74713357674399
 21
86.59821532268482
 31
0.0
 11
89.71198251057343
 21
86.51093898243316
 31
0.0
 11
89.67874841850293
 21
86.42291695249169
 31
0.0
 11
89.64746638406832
 21
86.33418281809588
 31
0.0
 11
89.61905377862415
 21
86.24758582421306
 31
0.0
 11
89.59250348981952
 21
86.16039976076993
 31
0.0
 11
89.5678118049414
 21
86.07266827355899
 31
0.0
 11
89.54497529396826
 21
85.98443571686222
 31
0.0
 11
89.52398843393571
 21
85.89573730380265
 31
0.0
 11
89.50484938660043
 21
85.80662190648962
 31
0.0
 11
89.48755431978057
 21
85.7171307728567
 31
0.0
 11
89.47209905327693
 21
85.62730362104529
 31
0.0
 11
89.45846758421426
 21
85.537096766431
 31
0.0
 11
89.44667026323769
 21
85.44663175759119
 31
0.0
 11
89.43670220571494
 21
85.3559470719346
 31
0.0
 11
89.42855843426477
 21
85.26508039263989
 31
0.0
 11
89.42223392008465
 21
85.17406983002816
 31
0.0
 11
89.4177232105894
 21
85.08295137285114
 31
0.0
  0
SPLINE
  5
1CC
330
1F
100
AcDbEntity
  8
1
  6
Continuous
 62
     3
100
AcDbSpline
210
0.0
220
0.0
230
1.0
 70
    11
 71
     3
 72
   263
 73
   259
 74
   257
 42
0.0000000001
 43
0.0000000001
 44
0.00000001
 40
0.0
 40
0.0
 40
0.0
 40
0.0
 40
0.0912303494870535
 40
0.1824607518470094
 40
0.273691154211274
 40
0.3649215037026737
 40
0.4561515411867578
 40
0.5473815909915922
 40
0.6386124762242958
 40
0.7298433612593144
 40
0.8210743571295491
 40
0.912305347308745
 40
1.003452384924366
 40
1.09459942182667
 40
1.1857468692513
 40
1.276894314493447
 40
1.368034263448433
 40
1.459174228069995
 40
1.550313283886879
 40
1.641452273888563
 40
1.735539001360066
 40
1.829626102663701
 40
1.923715193538487
 40
2.017804188285012
 40
2.11190392230747
 40
2.206003675651353
 40
2.300102723939949
 40
2.394201780431022
 40
2.488290584526768
 40
2.582379379350679
 40
2.676468069659816
 40
2.770556740403384
 40
2.864651596526856
 40
2.958746525314492
 40
3.052841562751041
 40
3.146936344452891
 40
3.228291832724699
 40
3.30964667496562
 40
3.390998909588843
 40
3.472351305037824
 40
3.55368171793972
 40
3.635012123272112
 40
3.716343116137473
 40
3.797673990794444
 40
3.879541009585324
 40
3.961408208905681
 40
4.04327617962025
 40
4.125144108108147
 40
4.207022918856971
 40
4.288901727089173
 40
4.370782732737511
 40
4.452663785445846
 40
4.528837386950276
 40
4.605010280110168
 40
4.681180075854222
 40
4.757350001720829
 40
4.833601464176541
 40
4.909852919496583
 40
4.986106692985281
 40
5.062360649115307
 40
5.137183624838056
 40
5.212006127325534
 40
5.286840042142861
 40
5.361673912462348
 40
5.436266003726749
 40
5.510859266682512
 40
5.585419261238197
 40
5.659974193242022
 40
5.734529125245948
 40
5.809089119801679
 40
5.883682382757474
 40
5.95827447402187
 40
6.033108344341304
 40
6.107942259158631
 40
6.182764761646149
 40
6.257587737368908
 40
6.333841693498913
 40
6.41009546698754
 40
6.486346922307538
 40
6.562598384763211
 40
6.638768310629907
 40
6.714938106374038
 40
6.791110999533913
 40
6.867284601038312
 40
6.949165653746619
 40
7.031046659394953
 40
7.112925467627143
 40
7.194804278375917
 40
7.276672206863907
 40
7.358540177578617
 40
7.440407376899205
 40
7.5222743956902
 40
7.603605270347038
 40
7.684936263212248
 40
7.766266668544798
 40
7.847597081446978
 40
7.928949476896022
 40
8.010301711519297
 40
8.091656553760247
 40
8.173012042032047
 40
8.267106823733897
 40
8.361201861170533
 40
8.455296789958396
 40
8.549391646082114
 40
8.64348031682567
 40
8.737569007134782
 40
8.831657801958539
 40
8.925746606054066
 40
9.019845662544919
 40
9.11394471083336
 40
9.208044464177163
 40
9.302144198199617
 40
9.396233192946195
 40
9.490322283821008
 40
9.584409385124603
 40
9.678496112596061
 40
9.76963510259775
 40
9.86077415841462
 40
9.951914123036119
 40
10.04305407199107
 40
10.1342015172332
 40
10.22534896465787
 40
10.31649600156018
 40
10.40764303917583
 40
10.49887402935497
 40
10.59010502522518
 40
10.68133591026024
 40
10.77256679549294
 40
10.86379684529769
 40
10.95502688278172
 40
11.04625723227313
 40
11.13748763463743
 40
11.22871803699737
 40
11.31994838648439
 40
11.41117842396408
 40
11.50240847376454
 40
11.59363935899296
 40
11.68487024402375
 40
11.77610123988962
 40
11.86733223006442
 40
11.95847926767575
 40
12.0496263045737
 40
12.14077375199385
 40
12.23192119723143
 40
12.32306114618203
 40
12.41420111079922
 40
12.50534016661194
 40
12.59647915660943
 40
12.69056588407603
 40
12.78465298537481
 40
12.87874207624471
 40
12.97283107098647
 40
13.06693080500421
 40
13.16103055834336
 40
13.25512960662706
 40
13.34922866311324
 40
13.44331746720393
 40
13.53740626202271
 40
13.63149495232672
 40
13.72558362306519
 40
13.81967847918376
 40
13.91377340796648
 40
14.00786844539801
 40
14.10196322709492
 40
14.18331871536328
 40
14.26467355760073
 40
14.34602579222039
 40
14.42737818766575
 40
14.50870860056411
 40
14.59003900589283
 40
14.67136999875429
 40
14.75270087340738
 40
14.83456789219452
 40
14.9164350915112
 40
14.9983030622218
 40
15.08017099070572
 40
15.16204980145075
 40
15.24392860967911
 40
15.32580961532341
 40
15.40769066802773
 40
15.4838642695294
 40
15.5600371626866
 40
15.63620695842805
 40
15.71237688429203
 40
15.78862834674504
 40
15.86487980206235
 40
15.94113357554815
 40
16.01738753167513
 40
16.09221050739514
 40
16.16703300987995
 40
16.24186692469481
 40
16.31670079501192
 40
16.39129288627429
 40
16.46588614922791
 40
16.54044614378127
 40
16.61500107578286
 40
16.6895560077846
 40
16.76411600233812
 40
16.83870926529141
 40
16.91330135655335
 40
16.98813522687036
 40
17.06296914168529
 40
17.13779164417013
 40
17.21261461989027
 40
17.28886857601757
 40
17.36512234950356
 40
17.44137380482069
 40
17.51762526727343
 40
17.59379519313724
 40
17.66996498887859
 40
17.74613788203584
 40
17.82231148353755
 40
17.9041925362419
 40
17.98607354188625
 40
18.06795235011457
 40
18.14983116085955
 40
18.23169908934347
 40
18.31356706005411
 40
18.39543425937078
 40
18.4773012781579
 40
18.558632152811
 40
18.63996314567244
 40
18.72129355100122
 40
18.80262396389963
 40
18.88397635934496
 40
18.96532859396457
 40
19.04668343620197
 40
19.12803892447023
 40
19.22213370616697
 40
19.31622874359832
 40
19.41032367238094
 40
19.50441852849941
 40
19.59850719923792
 40
19.69259588954199
 40
19.78668468436099
 40
19.88077348845187
 40
19.97487254493816
 40
20.06897159322192
 40
20.16307134656098
 40
20.25717108057869
 40
20.35126007532051
 40
20.44534916619051
 40
20.53943626748924
 40
20.63352299495583
 40
20.72466198495323
 40
20.81580104076584
 40
20.90694100538309
 40
20.99808095433369
 40
21.08922839957136
 40
21.18037584699148
 40
21.27152288388936
 40
21.3626699215006
 40
21.4539009116754
 40
21.54513190754133
 40
21.63636279257211
 40
21.72759367780055
 40
21.818823727601
 40
21.9100537650807
 40
21.9100537650807
 40
21.9100537650807
 40
21.9100537650807
 10
66.90106271219742
 20
85.08295137285197
 30
0.0
 10
66.90003484217416
 20
85.05255763850508
 30
0.0
 10
66.897979101532
 20
84.99177015219652
 30
0.0
 10
66.89718286370139
 20
84.90053423382889
 30
0.0
 10
66.89805406145952
 20
84.80930344765736
 30
0.0
 10
66.900762869578
 20
84.71810693437749
 30
0.0
 10
66.905270704251
 20
84.62698238900555
 30
0.0
 10
66.91159485938581
 20
84.5359653970639
 30
0.0
 10
66.91973762820726
 20
84.4450927898838
 30
0.0
 10
66.92970490048454
 20
84.35440176835695
 30
0.0
 10
66.94150138942668
 20
84.26393040649879
 30
0.0
 10
66.95512787848729
 20
84.17374472576542
 30
0.0
 10
66.97058718420834
 20
84.08388342186653
 30
0.0
 10
66.98788159364395
 20
83.99438546796445
 30
0.0
 10
67.00701996156323
 20
83.90526339976708
 30
0.0
 10
67.0280056254938
 20
83.81656048316262
 30
0.0
 10
67.05084210594687
 20
83.72831841076594
 30
0.0
 10
67.07553309121816
 20
83.64057997797175
 30
0.0
 10
67.10208287647922
 20
83.55338623370096
 30
0.0
 10
67.13080126302981
 20
83.4658479550609
 30
0.0
 10
67.16176266192446
 20
83.37803431415934
 30
0.0
 10
67.19500289534547
 20
83.29000595901611
 30
0.0
 10
67.23015954898636
 20
83.20272461320077
 30
0.0
 10
67.26719894952602
 20
83.11622102273458
 30
0.0
 10
67.30608648710017
 20
83.0305285898715
 30
0.0
 10
67.34678881451933
 20
82.94567953307202
 30
0.0
 10
67.38927139050973
 20
82.86170805547685
 30
0.0
 10
67.43349988903111
 20
82.77864716964072
 30
0.0
 10
67.47944193680382
 20
82.69652568111277
 30
0.0
 10
67.527068278087
 20
82.61537348316477
 30
0.0
 10
67.57635185771551
 20
82.53521703877263
 30
0.0
 10
67.62726536006564
 20
82.4560835339656
 30
0.0
 10
67.67978078770494
 20
82.37800148478526
 30
0.0
 10
67.73386944521087
 20
82.30099833957524
 30
0.0
 10
67.7895015270932
 20
82.22510290350353
 30
0.0
 10
67.8440697301256
 20
82.15371553003803
 30
0.0
 10
67.89731961128362
 20
82.08668692550255
 30
0.0
 10
67.94906200599556
 20
82.02390182175677
 30
0.0
 10
68.00195943916236
 20
81.96208774561248
 30
0.0
 10
68.05602628137108
 20
81.90130432241853
 30
0.0
 10
68.11127993565518
 20
81.84160716546612
 30
0.0
 10
68.16773471057303
 20
81.7830540207242
 30
0.0
 10
68.22540800201475
 20
81.72569997514005
 30
0.0
 10
68.28443954064319
 20
81.66948459447522
 30
0.0
 10
68.3448465517703
 20
81.61448347525344
 30
0.0
 10
68.4066245977476
 20
81.56075345464501
 30
0.0
 10
68.469626204977
 20
81.50846268644275
 30
0.0
 10
68.53383749222081
 20
81.45765809766337
 30
0.0
 10
68.5992402441734
 20
81.40839040993446
 30
0.0
 10
68.66581560180715
 20
81.36071126172753
 30
0.0
 10
68.73353928265588
 20
81.31467601620813
 30
0.0
 10
68.80078817163559
 20
81.27136892977964
 30
0.0
 10
68.86744810086212
 20
81.23070625970676
 30
0.0
 10
68.93344749783324
 20
81.19265987434723
 30
0.0
 10
69.00041744006607
 20
81.15634993316976
 30
0.0
 10
69.06838222878261
 20
81.12187807651131
 30
0.0
 10
69.13733637820609
 20
81.08936436938578
 30
0.0
 10
69.20726095917372
 20
81.05892148431211
 30
0.0
 10
69.27810321438382
 20
81.03067492013611
 30
0.0
 10
69.34937804703269
 20
81.00490413768333
 30
0.0
 10
69.42102111372061
 20
80.98167681218334
 30
0.0
 10
69.49297980618316
 20
80.96110098104921
 30
0.0
 10
69.56565467349537
 20
80.94319598553149
 30
0.0
 10
69.63889722768714
 20
80.92814470167514
 30
0.0
 10
69.71261564410398
 20
80.9161065738758
 30
0.0
 10
69.78669589710621
 20
80.90726372900352
 30
0.0
 10
69.8610915153223
 20
80.90179594494573
 30
0.0
 10
69.9356551347658
 20
80.89990468226017
 30
0.0
 10
70.01021875420932
 20
80.90179594494576
 30
0.0
 10
70.08461437242548
 20
80.90726372900365
 30
0.0
 10
70.15869462542773
 20
80.91610657387574
 30
0.0
 10
70.23241304184458
 20
80.92814470167505
 30
0.0
 10
70.3056555960363
 20
80.94319598553147
 30
0.0
 10
70.37833046334855
 20
80.9611009810492
 30
0.0
 10
70.45028915581108
 20
80.98167681218334
 30
0.0
 10
70.52193222249905
 20
81.0049041376833
 30
0.0
 10
70.59320705514786
 20
81.03067492013605
 30
0.0
 10
70.66404931035787
 20
81.05892148431208
 30
0.0
 10
70.7339738913255
 20
81.08936436938572
 30
0.0
 10
70.802928040749
 20
81.12187807651125
 30
0.0
 10
70.87089282946556
 20
81.15634993316965
 30
0.0
 10
70.93786277169848
 20
81.19265987434707
 30
0.0
 10
71.00386216866953
 20
81.23070625970678
 30
0.0
 10
71.07052209789609
 20
81.27136892977956
 30
0.0
 10
71.13777098687575
 20
81.31467601620804
 30
0.0
 10
71.20549466772454
 20
81.36071126172742
 30
0.0
 10
71.27207002535825
 20
81.40839040993428
 30
0.0
 10
71.33747277731081
 20
81.45765809766327
 30
0.0
 10
71.40168406455473
 20
81.50846268644268
 30
0.0
 10
71.46468567178428
 20
81.56075345464495
 30
0.0
 10
71.52646371776183
 20
81.61448347525335
 30
0.0
 10
71.58687072888907
 20
81.66948459447514
 30
0.0
 10
71.64590226751731
 20
81.72569997513997
 30
0.0
 10
71.70357555895896
 20
81.78305402072424
 30
0.0
 10
71.76003033387698
 20
81.84160716546606
 30
0.0
 10
71.81528398816141
 20
81.90130432241844
 30
0.0
 10
71.86935083037028
 20
81.96208774561242
 30
0.0
 10
71.9222482635371
 20
82.02390182175678
 30
0.0
 10
71.9739906582491
 20
82.08668692550252
 30
0.0
 10
72.02724053940703
 20
82.15371553003808
 30
0.0
 10
72.08180874243949
 20
82.22510290350357
 30
0.0
 10
72.13744082432187
 20
82.30099833957533
 30
0.0
 10
72.1915294818282
 20
82.3780014847854
 30
0.0
 10
72.24404490946789
 20
82.45608353396555
 30
0.0
 10
72.29495841181813
 20
82.53521703877264
 30
0.0
 10
72.34424199144652
 20
82.61537348316475
 30
0.0
 10
72.39186833272937
 20
82.69652568111289
 30
0.0
 10
72.43781038050153
 20
82.77864716964085
 30
0.0
 10
72.4820388790225
 20
82.86170805547697
 30
0.0
 10
72.5245214550125
 20
82.9456795330722
 30
0.0
 10
72.56522378243149
 20
83.03052858987164
 30
0.0
 10
72.60411132000563
 20
83.11622102273473
 30
0.0
 10
72.64115072054518
 20
83.20272461320096
 30
0.0
 10
72.67630737418624
 20
83.29000595901633
 30
0.0
 10
72.70954760760716
 20
83.37803431415948
 30
0.0
 10
72.74050900650185
 20
83.46584795506105
 30
0.0
 10
72.7692273930524
 20
83.55338623370108
 30
0.0
 10
72.79577717831354
 20
83.64057997797195
 30
0.0
 10
72.82046816358353
 20
83.72831841076608
 30
0.0
 10
72.84330464404007
 20
83.81656048316297
 30
0.0
 10
72.86429030795688
 20
83.90526339976682
 30
0.0
 10
72.8834286759288
 20
83.99438546796617
 30
0.0
 10
72.90072308516949
 20
84.08388342186052
 30
0.0
 10
72.91618239161882
 20
84.1737447257882
 30
0.0
 10
72.92980887795903
 20
84.26393040641405
 30
0.0
 10
72.94160537705584
 20
84.35440176867355
 30
0.0
 10
72.95157261143589
 20
84.44509278870242
 30
0.0
 10
72.95971552169087
 20
84.53596540147319
 30
0.0
 10
72.96603914899319
 20
84.62698237255023
 30
0.0
 10
72.97054895356206
 20
84.7181069957897
 30
0.0
 10
72.9732504099029
 20
84.80930321846267
 30
0.0
 10
72.97414904490408
 20
84.9005350891953
 30
0.0
 10
72.97325040989881
 20
84.99176695992632
 30
0.0
 10
72.97054895355421
 20
85.08296318259487
 30
0.0
 10
72.96603914898168
 20
85.17408780582977
 30
0.0
 10
72.95971552167578
 20
85.26510477690229
 30
0.0
 10
72.95157261141692
 20
85.35597738966842
 30
0.0
 10
72.94160537703306
 20
85.44666840969252
 30
0.0
 10
72.92980887793303
 20
85.53713977194727
 30
0.0
 10
72.91618239158981
 20
85.62732545256827
 30
0.0
 10
72.90072308513754
 20
85.71718675649103
 30
0.0
 10
72.88342867589404
 20
85.80668471038038
 30
0.0
 10
72.86429030791987
 20
85.89580677857465
 30
0.0
 10
72.84330464400097
 20
85.98450969517341
 30
0.0
 10
72.82046816354202
 20
86.07275176756514
 30
0.0
 10
72.79577717826982
 20
86.1604902003542
 30
0.0
 10
72.76922739300686
 20
86.2476839446201
 30
0.0
 10
72.74050900645481
 20
86.33522222325499
 30
0.0
 10
72.7095476075586
 20
86.42303586415109
 30
0.0
 10
72.67630737413624
 20
86.51106421928857
 30
0.0
 10
72.64115072049422
 20
86.59834556509827
 30
0.0
 10
72.60411131995374
 20
86.68484915555887
 30
0.0
 10
72.56522378237896
 20
86.7705415884165
 30
0.0
 10
72.52452145495946
 20
86.85539064521049
 30
0.0
 10
72.48203887896896
 20
86.93936212280019
 30
0.0
 10
72.43781038044769
 20
87.02242300863075
 30
0.0
 10
72.3918683326754
 20
87.10454449715319
 30
0.0
 10
72.34424199139269
 20
87.18569669509554
 30
0.0
 10
72.29495841176467
 20
87.26585313948198
 30
0.0
 10
72.24404490941497
 20
87.3449866442833
 30
0.0
 10
72.19152948177616
 20
87.42306869345796
 30
0.0
 10
72.13744082427083
 20
87.50007183866238
 30
0.0
 10
72.0818087423891
 20
87.57596727472837
 30
0.0
 10
72.02724053935724
 20
87.64735464818865
 30
0.0
 10
71.97399065819974
 20
87.71438325271949
 30
0.0
 10
71.9222482634882
 20
87.77716835646106
 30
0.0
 10
71.86935083032178
 20
87.83898243260107
 30
0.0
 10
71.8152839881135
 20
87.89976585579056
 30
0.0
 10
71.76003033383002
 20
87.95946301273867
 30
0.0
 10
71.70357555891297
 20
88.01801615747615
 30
0.0
 10
71.64590226747234
 20
88.07537020305602
 30
0.0
 10
71.58687072884511
 20
88.13158558371654
 30
0.0
 10
71.52646371771925
 20
88.18658670293411
 30
0.0
 10
71.46468567174324
 20
88.24031672353826
 30
0.0
 10
71.4016840645152
 20
88.29260749173605
 30
0.0
 10
71.33747277727277
 20
88.34341208051092
 30
0.0
 10
71.27207002532181
 20
88.39267976823552
 30
0.0
 10
71.20549466768979
 20
88.44035891643819
 30
0.0
 10
71.13777098684304
 20
88.48639416195348
 30
0.0
 10
71.07052209786525
 20
88.52970124837822
 30
0.0
 10
71.0038621686403
 20
88.5703639184477
 30
0.0
 10
70.93786277167061
 20
88.60841030380432
 30
0.0
 10
70.87089282943909
 20
88.64472024497863
 30
0.0
 10
70.80292804072397
 20
88.67919210163404
 30
0.0
 10
70.73397389130199
 20
88.71170580875643
 30
0.0
 10
70.6640493103361
 20
88.7421486938272
 30
0.0
 10
70.593207055128
 20
88.77039525800038
 30
0.0
 10
70.52193222248135
 20
88.79616604045071
 30
0.0
 10
70.4502891557957
 20
88.81939336594857
 30
0.0
 10
70.37833046333537
 20
88.83996919708092
 30
0.0
 10
70.30565559602536
 20
88.85787419259711
 30
0.0
 10
70.23241304183567
 20
88.87292547645227
 30
0.0
 10
70.15869462542089
 20
88.88496360425046
 30
0.0
 10
70.08461437242069
 20
88.89380644912171
 30
0.0
 10
70.0102187542068
 20
88.8992742331788
 30
0.0
 10
69.93565513476554
 20
88.90116549586412
 30
0.0
 10
69.86109151532426
 20
88.8992742331788
 30
0.0
 10
69.78669589711035
 20
88.89380644912168
 30
0.0
 10
69.71261564411037
 20
88.88496360425043
 30
0.0
 10
69.63889722769586
 20
88.8729254764523
 30
0.0
 10
69.56565467350636
 20
88.85787419259711
 30
0.0
 10
69.49297980619635
 20
88.83996919708093
 30
0.0
 10
69.42102111373592
 20
88.81939336594853
 30
0.0
 10
69.34937804705012
 20
88.79616604045069
 30
0.0
 10
69.27810321440319
 20
88.77039525800042
 30
0.0
 10
69.207260959195
 20
88.74214869382723
 30
0.0
 10
69.13733637822921
 20
88.7117058087565
 30
0.0
 10
69.0683822288075
 20
88.67919210163396
 30
0.0
 10
69.00041744009253
 20
88.64472024497863
 30
0.0
 10
68.93344749786108
 20
88.60841030380439
 30
0.0
 10
68.86744810089138
 20
88.5703639184477
 30
0.0
 10
68.80078817166643
 20
88.52970124837825
 30
0.0
 10
68.73353928268861
 20
88.48639416195338
 30
0.0
 10
68.66581560184184
 20
88.44035891643824
 30
0.0
 10
68.59924024420981
 20
88.39267976823552
 30
0.0
 10
68.5338374922589
 20
88.34341208051093
 30
0.0
 10
68.4696262050165
 20
88.29260749173605
 30
0.0
 10
68.40662459778844
 20
88.24031672353821
 30
0.0
 10
68.34484655181241
 20
88.18658670293411
 30
0.0
 10
68.28443954068653
 20
88.13158558371656
 30
0.0
 10
68.22540800205935
 20
88.07537020305602
 30
0.0
 10
68.16773471061867
 20
88.01801615747615
 30
0.0
 10
68.11127993570165
 20
87.95946301273865
 30
0.0
 10
68.05602628141808
 20
87.89976585579049
 30
0.0
 10
68.00195943920987
 20
87.83898243260101
 30
0.0
 10
67.94906200604348
 20
87.77716835646103
 30
0.0
 10
67.89731961133195
 20
87.71438325271957
 30
0.0
 10
67.84406973017465
 20
87.64735464818867
 30
0.0
 10
67.78950152714305
 20
87.57596727472837
 30
0.0
 10
67.73386944526169
 20
87.50007183866234
 30
0.0
 10
67.67978078775651
 20
87.4230686934579
 30
0.0
 10
67.62726536011772
 20
87.34498664428338
 30
0.0
 10
67.57635185776803
 20
87.26585313948198
 30
0.0
 10
67.52706827813985
 20
87.18569669509559
 30
0.0
 10
67.47944193685677
 20
87.10454449715317
 30
0.0
 10
67.43349988908413
 20
87.02242300863084
 30
0.0
 10
67.38927139056268
 20
86.93936212280016
 30
0.0
 10
67.34678881457218
 20
86.85539064521045
 30
0.0
 10
67.3060864871527
 20
86.77054158841648
 30
0.0
 10
67.26719894957786
 20
86.68484915555888
 30
0.0
 10
67.23015954903741
 20
86.5983455650982
 30
0.0
 10
67.19500289539556
 20
86.51106421928851
 30
0.0
 10
67.16176266197219
 20
86.42303586415105
 30
0.0
 10
67.13080126307987
 20
86.33522222325486
 30
0.0
 10
67.10208287651376
 20
86.24768394462059
 30
0.0
 10
67.07553309130309
 20
86.16049020035265
 30
0.0
 10
67.05084210583581
 20
86.07275176757126
 30
0.0
 10
67.02800562610491
 20
85.98450969515076
 30
0.0
 10
67.00701995946882
 20
85.89580677865936
 30
0.0
 10
66.98788160163535
 20
85.80668471006423
 30
0.0
 10
66.97058715454739
 20
85.71718675767083
 30
0.0
 10
66.95512798937753
 20
85.62732544816339
 30
0.0
 10
66.941500975292
 20
85.53713978840344
 30
0.0
 10
66.92970644612967
 20
85.44666834827946
 30
0.0
 10
66.91973185990574
 20
85.35597761886467
 30
0.0
 10
66.91161638698046
 20
85.26510392153389
 30
0.0
 10
66.90519036306628
 20
85.1740909980756
 30
0.0
 10
66.90243859575845
 20
85.11333124655891
 30
0.0
 10
66.90106271219742
 20
85.08295137285195
 30
0.0
 11
66.90106271219742
 21
85.08295137285197
 31
0.0
 11
66.89836033077503
 21
84.99176105646816
 31
0.0
 11
66.89746076968652
 21
84.90053508919674
 31
0.0
 11
66.89836033077101
 21
84.80930912192096
 31
0.0
 11
66.90106271218954
 21
84.7181188055327
 31
0.0
 11
66.90557342168266
 21
84.62700034835076
 31
0.0
 11
66.91189793586076
 21
84.53598978573409
 31
0.0
 11
66.92004170730891
 21
84.44512310643445
 31
0.0
 11
66.93000976482955
 21
84.35443842077288
 31
0.0
 11
66.94180708580379
 21
84.26397341192799
 31
0.0
 11
66.95543855486426
 21
84.17376655730857
 31
0.0
 11
66.97089382136609
 21
84.08393940549209
 31
0.0
 11
66.98818888818424
 21
83.99444827185403
 31
0.0
 11
67.00732793551772
 21
83.90533287453576
 31
0.0
 11
67.0283147955486
 21
83.81663446147095
 31
0.0
 11
67.05115130652042
 21
83.72840190476907
 31
0.0
 11
67.07584299139748
 21
83.64067041755295
 31
0.0
 11
67.10239328020108
 21
83.5534843541045
 31
0.0
 11
67.1308058856441
 21
83.46688736021633
 31
0.0
 11
67.16208792007741
 21
83.37815322581469
 31
0.0
 11
67.1953220121467
 21
83.29013119586735
 31
0.0
 11
67.23047307831649
 21
83.20285485560969
 31
0.0
 11
67.26750528901458
 21
83.11636003320265
 31
0.0
 11
67.3063887192689
 21
83.03066966738038
 31
0.0
 11
67.34708564313719
 21
82.94582555169144
 31
0.0
 11
67.3895626615352
 21
82.86185928586501
 31
0.0
 11
67.4337873910104
 21
82.77880023617531
 31
0.0
 11
67.47972293522628
 21
82.69668672429232
 31
0.0
 11
67.52734450623964
 21
82.61553940587923
 31
0.0
 11
67.57662333265212
 21
82.53538780632253
 31
0.0
 11
67.62753102388606
 21
82.45626078858825
 31
0.0
 11
67.68004278141608
 21
82.37818161550089
 31
0.0
 11
67.73412666405187
 21
82.3011829839378
 31
0.0
 11
67.78975410517303
 21
82.22529185227872
 31
0.0
 11
67.84689650874967
 21
82.15053508899268
 31
0.0
 11
67.89750887355385
 21
82.08683968883794
 31
0.0
 11
67.94925518158989
 21
82.0240628622163
 31
0.0
 11
68.00215520546539
 21
81.96225854560197
 31
0.0
 11
68.0562298223879
 21
81.9014790420669
 31
0.0
 11
68.11148093140262
 21
81.84179695919912
 31
0.0
 11
68.1679376412972
 21
81.78325402846097
 31
0.0
 11
68.22561281465161
 21
81.7259102861781
 31
0.0
 11
68.28451619361016
 21
81.66982906722083
 31
0.0
 11
68.34505294676383
 21
81.61471545471613
 31
0.0
 11
68.4068282902454
 21
81.56099352937561
 31
0.0
 11
68.46982732393158
 21
81.5087107752063
 31
0.0
 11
68.53403272178576
 21
81.4579168326414
 31
0.0
 11
68.59943509704465
 21
81.4086556008243
 31
0.0
 11
68.666006286146
 21
81.36098573592878
 31
0.0
 11
68.73372664741245
 21
81.31495909412293
 31
0.0
 11
68.80257092537599
 21
81.27063108735176
 31
0.0
 11
68.86760911662206
 21
81.23097694197457
 31
0.0
 11
68.9336103344847
 21
81.19294867757824
 31
0.0
 11
69.00057931387947
 21
81.15665827137339
 31
0.0
 11
69.06851863256483
 21
81.122218373245
 31
0.0
 11
69.13749390345879
 21
81.08971148887046
 31
0.0
 11
69.20741306369759
 21
81.05928788832868
 31
0.0
 11
69.27824990028752
 21
81.03106058677156
 31
0.0
 11
69.34996589594996
 21
81.00514762106664
 31
0.0
 11
69.42114892258597
 21
80.98209432596714
 31
0.0
 11
69.49309490717435
 21
80.96154725366725
 31
0.0
 11
69.56576184980865
 21
80.94366904751925
 31
0.0
 11
69.63906895050756
 21
80.92862986090184
 31
0.0
 11
69.7126905952504
 21
80.91663680021837
 31
0.0
 11
69.78676155305484
 21
80.90782498495028
 31
0.0
 11
69.86112332603271
 21
80.90239179916918
 31
0.0
 11
69.93565513476577
 21
80.9005350888864
 31
0.0
 11
70.01018694349892
 21
80.90239179916921
 31
0.0
 11
70.08454871647683
 21
80.90782498495037
 31
0.0
 11
70.15861967428133
 21
80.91663680021836
 31
0.0
 11
70.23224131902415
 21
80.9286298609018
 31
0.0
 11
70.30554841972301
 21
80.94366904751922
 31
0.0
 11
70.37821536235731
 21
80.96154725366722
 31
0.0
 11
70.45016134694573
 21
80.98209432596711
 31
0.0
 11
70.52134437358175
 21
81.0051476210666
 31
0.0
 11
70.59306036924417
 21
81.03106058677153
 31
0.0
 11
70.66389720583403
 21
81.05928788832864
 31
0.0
 11
70.73381636607279
 21
81.0897114888704
 31
0.0
 11
70.80279163696672
 21
81.12221837324492
 31
0.0
 11
70.87073095565219
 21
81.15665827137327
 31
0.0
 11
70.93769993504704
 21
81.19294867757816
 31
0.0
 11
71.00370115290963
 21
81.23097694197453
 31
0.0
 11
71.06873934415567
 21
81.2706310873517
 31
0.0
 11
71.1375836221192
 21
81.31495909412284
 31
0.0
 11
71.20530398338566
 21
81.36098573592867
 31
0.0
 11
71.271875172487
 21
81.40865560082419
 31
0.0
 11
71.33727754774584
 21
81.45791683264126
 31
0.0
 11
71.40148294560011
 21
81.5087107752062
 31
0.0
 11
71.46448197928648
 21
81.56099352937551
 31
0.0
 11
71.5262573227683
 21
81.61471545471609
 31
0.0
 11
71.58679407592211
 21
81.6698290672208
 31
0.0
 11
71.64569745488049
 21
81.72591028617806
 31
0.0
 11
71.70337262823473
 21
81.78325402846089
 31
0.0
 11
71.75982933812953
 21
81.84179695919903
 31
0.0
 11
71.8150804471446
 21
81.90147904206688
 31
0.0
 11
71.86915506406724
 21
81.96225854560193
 31
0.0
 11
71.92205508794277
 21
82.0240628622163
 31
0.0
 11
71.97380139597884
 21
82.08683968883796
 31
0.0
 11
72.02441376078299
 21
82.15053508899271
 31
0.0
 11
72.08155616435963
 21
82.22529185227874
 31
0.0
 11
72.13718360548091
 21
82.30118298393785
 31
0.0
 11
72.19126748811706
 21
82.37818161550096
 31
0.0
 11
72.24377924564747
 21
82.45626078858835
 31
0.0
 11
72.2946869368815
 21
82.53538780632256
 31
0.0
 11
72.34396576329387
 21
82.6155394058793
 31
0.0
 11
72.39158733430688
 21
82.69668672429242
 31
0.0
 11
72.43752287852226
 21
82.77880023617544
 31
0.0
 11
72.48174760799702
 21
82.86185928586512
 31
0.0
 11
72.52422462639466
 21
82.94582555169157
 31
0.0
 11
72.5649215502628
 21
83.0306696673805
 31
0.0
 11
72.60380498051704
 21
83.1163600332028
 31
0.0
 11
72.64083719121513
 21
83.20285485560989
 31
0.0
 11
72.67598825738496
 21
83.29013119586756
 31
0.0
 11
72.70922234945425
 21
83.37815322581486
 31
0.0
 11
72.74050438388755
 21
83.46688736021646
 31
0.0
 11
72.76891698933053
 21
83.55348435410464
 31
0.0
 11
72.795467278134
 21
83.64067041755312
 31
0.0
 11
72.82015896301077
 21
83.72840190476926
 31
0.0
 11
72.8429954739824
 21
83.81663446147115
 31
0.0
 11
72.86398233401346
 21
83.9053328745359
 31
0.0
 11
72.88312138134725
 21
83.99444827185414
 31
0.0
 11
72.90041644816557
 21
84.08393940549217
 31
0.0
 11
72.91587171466743
 21
84.17376655730868
 31
0.0
 11
72.9295031837279
 21
84.26397341192805
 31
0.0
 11
72.94130050470216
 21
84.35443842077291
 31
0.0
 11
72.95126856222277
 21
84.44512310643452
 31
0.0
 11
72.9594123336709
 21
84.53598978573416
 31
0.0
 11
72.965736847849
 21
84.62700034835075
 31
0.0
 11
72.97024755734209
 21
84.71811880553263
 31
0.0
 11
72.97294993876065
 21
84.8093091219209
 31
0.0
 11
72.97384949984513
 21
84.90053508919671
 31
0.0
 11
72.97294993875661
 21
84.99176105646812
 31
0.0
 11
72.97024755733426
 21
85.0829513728519
 31
0.0
 11
72.9657368478375
 21
85.17406983002925
 31
0.0
 11
72.95941233365575
 21
85.26508039264128
 31
0.0
 11
72.9512685622038
 21
85.35594707193628
 31
0.0
 11
72.94130050467946
 21
85.4466317575932
 31
0.0
 11
72.92950318370194
 21
85.53709676643325
 31
0.0
 11
72.91587171463843
 21
85.62730362104777
 31
0.0
 11
72.90041644813363
 21
85.71713077285938
 31
0.0
 11
72.88312138131258
 21
85.80662190649245
 31
0.0
 11
72.86398233397648
 21
85.89573730380557
 31
0.0
 11
72.84299547394326
 21
85.98443571686514
 31
0.0
 11
72.8201589629693
 21
86.07266827356193
 31
0.0
 11
72.79546727809034
 21
86.16039976077298
 31
0.0
 11
72.76891698928505
 21
86.24758582421656
 31
0.0
 11
72.74050438384046
 21
86.33418281809979
 31
0.0
 11
72.70922234940569
 21
86.42291695249573
 31
0.0
 11
72.67598825733505
 21
86.51093898243737
 31
0.0
 11
72.64083719116417
 21
86.59821532268933
 31
0.0
 11
72.60380498046523
 21
86.6847101450908
 31
0.0
 11
72.56492155021029
 21
86.77040051090762
 31
0.0
 11
72.5242246263416
 21
86.85524462659112
 31
0.0
 11
72.48174760794352
 21
86.93921089241202
 31
0.0
 11
72.43752287846841
 21
87.02226994209623
 31
0.0
 11
72.3915873342529
 21
87.10438345397364
 31
0.0
 11
72.34396576324005
 21
87.18553077238107
 31
0.0
 11
72.29468693682806
 21
87.26568237193206
 31
0.0
 11
72.2437792455946
 21
87.34480938966058
 31
0.0
 11
72.19126748806505
 21
87.42288856274234
 31
0.0
 11
72.13718360542981
 21
87.49988719429982
 31
0.0
 11
72.0815561643093
 21
87.57577832595317
 31
0.0
 11
72.02441376073341
 21
87.65053508923354
 31
0.0
 11
71.97380139592951
 21
87.71423048938411
 31
0.0
 11
71.92205508789382
 21
87.77700731600154
 31
0.0
 11
71.86915506401876
 21
87.83881163261155
 31
0.0
 11
71.81508044709672
 21
87.8995911361422
 31
0.0
 11
71.75982933808257
 21
87.9592732190057
 31
0.0
 11
71.70337262818876
 21
88.01781614973947
 31
0.0
 11
71.6456974548355
 21
88.07515989201796
 31
0.0
 11
71.58679407587819
 21
88.1312411109709
 31
0.0
 11
71.52625732272573
 21
88.18635472347138
 31
0.0
 11
71.46448197924536
 21
88.24007664880769
 31
0.0
 11
71.40148294556059
 21
88.29235940297248
 31
0.0
 11
71.33727754770791
 21
88.34315334553287
 31
0.0
 11
71.27187517245055
 21
88.39241457734568
 31
0.0
 11
71.20530398335092
 21
88.44008444223701
 31
0.0
 11
71.13758362208651
 21
88.48611108403868
 31
0.0
 11
71.06873934412516
 21
88.53043909080583
 31
0.0
 11
71.00370115288042
 21
88.57009323617991
 31
0.0
 11
70.93769993501917
 21
88.60812150057323
 31
0.0
 11
70.8707309556257
 21
88.64441190677505
 31
0.0
 11
70.80279163694172
 21
88.67885180490033
 31
0.0
 11
70.7338163660493
 21
88.7113586892718
 31
0.0
 11
70.66389720581222
 21
88.74178228981067
 31
0.0
 11
70.59306036922429
 21
88.77000959136501
 31
0.0
 11
70.52134437356418
 21
88.7959225570674
 31
0.0
 11
70.45016134693037
 21
88.81897585216481
 31
0.0
 11
70.37821536234425
 21
88.8395229244629
 31
0.0
 11
70.30554841971211
 21
88.85740113060939
 31
0.0
 11
70.23224131901537
 21
88.87244031722554
 31
0.0
 11
70.15861967427442
 21
88.8844333779079
 31
0.0
 11
70.08454871647201
 21
88.89324519317499
 31
0.0
 11
70.01018694349642
 21
88.89867837895542
 31
0.0
 11
69.9356551347656
 21
88.90053508923798
 31
0.0
 11
69.86112332603463
 21
88.89867837895542
 31
0.0
 11
69.78676155305888
 21
88.89324519317498
 31
0.0
 11
69.7126905952568
 21
88.8844333779079
 31
0.0
 11
69.63906895051628
 21
88.87244031722557
 31
0.0
 11
69.56576184981964
 21
88.8574011306094
 31
0.0
 11
69.49309490718744
 21
88.8395229244629
 31
0.0
 11
69.42114892260129
 21
88.81897585216481
 31
0.0
 11
69.34996589596734
 21
88.79592255706741
 31
0.0
 11
69.27824990030689
 21
88.77000959136501
 31
0.0
 11
69.20741306371876
 21
88.74178228981066
 31
0.0
 11
69.13749390348187
 21
88.7113586892718
 31
0.0
 11
69.06851863258976
 21
88.6788518049003
 31
0.0
 11
69.00057931390594
 21
88.64441190677506
 31
0.0
 11
68.93361033451257
 21
88.6081215005733
 31
0.0
 11
68.86760911665127
 21
88.57009323617994
 31
0.0
 11
68.8025709254065
 21
88.53043909080584
 31
0.0
 11
68.73372664744514
 21
88.48611108403865
 31
0.0
 11
68.66600628618068
 21
88.44008444223698
 31
0.0
 11
68.59943509708107
 21
88.39241457734568
 31
0.0
 11
68.53403272182375
 21
88.3431533455329
 31
0.0
 11
68.46982732397109
 21
88.2923594029725
 31
0.0
 11
68.40682829028628
 21
88.24007664880767
 31
0.0
 11
68.34505294680592
 21
88.18635472347138
 31
0.0
 11
68.28451619365346
 21
88.13124111097093
 31
0.0
 11
68.22561281469616
 21
88.07515989201796
 31
0.0
 11
68.1679376413429
 21
88.0178161497395
 31
0.0
 11
68.11148093144908
 21
87.95927321900565
 31
0.0
 11
68.05622982243489
 21
87.89959113614213
 31
0.0
 11
68.00215520551288
 21
87.8388116326115
 31
0.0
 11
67.94925518163784
 21
87.77700731600153
 31
0.0
 11
67.89750887360219
 21
87.71423048938412
 31
0.0
 11
67.84689650879847
 21
87.65053508923356
 31
0.0
 11
67.78975410522287
 21
87.57577832595317
 31
0.0
 11
67.73412666410269
 21
87.4998871942998
 31
0.0
 11
67.6800427814676
 21
87.42288856274234
 31
0.0
 11
67.62753102393812
 21
87.34480938966065
 31
0.0
 11
67.57662333270463
 21
87.2656823719321
 31
0.0
 11
67.5273445062925
 21
87.18553077238114
 31
0.0
 11
67.47972293527926
 21
87.10438345397367
 31
0.0
 11
67.43378739106342
 21
87.02226994209623
 31
0.0
 11
67.38956266158814
 21
86.93921089241199
 31
0.0
 11
67.34708564319001
 21
86.85524462659104
 31
0.0
 11
67.30638871932136
 21
86.77040051090762
 31
0.0
 11
67.26750528906643
 21
86.68471014509085
 31
0.0
 11
67.23047307836748
 21
86.5982153226893
 31
0.0
 11
67.19532201219656
 21
86.51093898243725
 31
0.0
 11
67.16208792012593
 21
86.42291695249567
 31
0.0
 11
67.13080588569116
 21
86.33418281809973
 31
0.0
 11
67.1023932802466
 21
86.24758582421659
 31
0.0
 11
67.07584299144133
 21
86.1603997607731
 31
0.0
 11
67.05115130656239
 21
86.072668273562
 31
0.0
 11
67.02831479558844
 21
85.98443571686519
 31
0.0
 11
67.00732793555521
 21
85.89573730380555
 31
0.0
 11
66.98818888821926
 21
85.80662190649242
 31
0.0
 11
66.97089382139853
 21
85.71713077285936
 31
0.0
 11
66.95543855489392
 21
85.62730362104782
 31
0.0
 11
66.9418070858302
 21
85.53709676643332
 31
0.0
 11
66.93000976485234
 21
85.44663175759325
 31
0.0
 11
66.92004170732791
 21
85.35594707193636
 31
0.0
 11
66.91189793587593
 21
85.26508039264135
 31
0.0
 11
66.90557342169417
 21
85.17406983002932
 31
0.0
 11
66.90106271219742
 21
85.08295137285195
 31
0.0
  0
SPLINE
  5
1CD
330
1F
100
AcDbEntity
  8
1
  6
Continuous
 62
     3
100
AcDbSpline
210
0.0
220
0.0
230
1.0
 70
    11
 71
     3
 72
   263
 73
   259
 74
   257
 42
0.0000000001
 43
0.0000000001
 44
0.00000001
 40
0.0
 40
0.0
 40
0.0
 40
0.0
 40
0.098154173036156
 40
0.1963017067008177
 40
0.294449240365451
 40
0.3926034134015766
 40
0.4908012180886804
 40
0.5889974859420435
 40
0.6875109143818189
 40
0.7860244014974204
 40
0.8845229198144453
 40
0.9830220584651452
 40
1.083399291952444
 40
1.183776286023323
 40
1.284150236430448
 40
1.384524196296553
 40
1.484791226223575
 40
1.585058085137411
 40
1.685329008529524
 40
1.785600862038261
 40
1.893370118385823
 40
2.001139313489944
 40
2.108905626327972
 40
2.216671942325319
 40
2.324423940639293
 40
2.432175994398005
 40
2.539927034525565
 40
2.647677837748759
 40
2.75472538938335
 40
2.86177309615085
 40
2.968820029310423
 40
3.075866972468798
 40
3.182942800197542
 40
3.29001841656903
 40
3.397097460656438
 40
3.504177353717563
 40
3.627976389887468
 40
3.751775761435688
 40
3.875574988232449
 40
3.999374119715395
 40
4.123165114305412
 40
4.246956134592391
 40
4.370747292749495
 40
4.494538462978737
 40
4.618343005888374
 40
4.742147538127236
 40
4.865952996991479
 40
4.989758430459886
 40
5.113549778260157
 40
5.23734125229562
 40
5.361130115252624
 40
5.484918487322057
 40
5.604832800538352
 40
5.724747199673414
 40
5.844662790651133
 40
5.964578361186557
 40
6.084503801778299
 40
6.20442924520293
 40
6.324354151245123
 40
6.444279058280734
 40
6.564313464203671
 40
6.684347877520477
 40
6.804382150177378
 40
6.924416423006691
 40
7.044449503423697
 40
7.16448256814303
 40
7.284516030162792
 40
7.404549559719563
 40
7.524583089276333
 40
7.644616551296095
 40
7.764649616015427
 40
7.884682696432489
 40
8.004716969261715
 40
8.124751241918698
 40
8.244785655235356
 40
8.364820061158232
 40
8.484744968193981
 40
8.6046698742362
 40
8.72459531766078
 40
8.844520758252525
 40
8.964436328787945
 40
9.084351919765684
 40
9.204266318900691
 40
9.324180632116999
 40
9.447969004186472
 40
9.57175786714353
 40
9.695549341179003
 40
9.819340688979196
 40
9.943146122447608
 40
10.06695158131183
 40
10.19075611355072
 40
10.31456065646037
 40
10.4383518266896
 40
10.56214298484677
 40
10.6859340051337
 40
10.80972499972367
 40
10.9335241312067
 40
11.05732335800361
 40
11.18112272955215
 40
11.30492176572226
 40
11.41200165878346
 40
11.51908070287097
 40
11.62615631924249
 40
11.73323214697126
 40
11.84027909012963
 40
11.94732602328918
 40
12.05437373005659
 40
12.16142128169107
 40
12.26917208491395
 40
12.37692312504129
 40
12.48467517880002
 40
12.59242717711407
 40
12.70019349311161
 40
12.80795980594973
 40
12.91572900105372
 40
13.02349825740112
 40
13.12377011090979
 40
13.22404103430197
 40
13.32430789321575
 40
13.42457492314267
 40
13.52494888300863
 40
13.6253228334157
 40
13.72569982748662
 40
13.82607706097401
 40
13.92457619962476
 40
14.0230747179418
 40
14.12158820505744
 40
14.22010163349723
 40
14.31829790135055
 40
14.41649570603765
 40
14.51464987907381
 40
14.61279741273846
 40
14.71094494640317
 40
14.80909911943939
 40
14.90729692412648
 40
15.00549319197977
 40
15.10400662041954
 40
15.20252010753517
 40
15.30101862585227
 40
15.39951776450304
 40
15.49989499799042
 40
15.60027199206139
 40
15.70064594246862
 40
15.80101990233475
 40
15.90128693226182
 40
16.00155379117571
 40
16.10182471456801
 40
16.2020965680769
 40
16.30986582442444
 40
16.41763501952844
 40
16.52540133236648
 40
16.6331676483639
 40
16.74091964667787
 40
16.84867170043643
 40
16.95642274056355
 40
17.06417354378624
 40
17.17122109542074
 40
17.27826880218833
 40
17.38531573534807
 40
17.4923626785065
 40
17.59943850623521
 40
17.70651412260658
 40
17.81359316669395
 40
17.92067305975515
 40
18.04447209592536
 40
18.16827146747383
 40
18.29207069427065
 40
18.41586982575356
 40
18.53966082034347
 40
18.66345184063038
 40
18.78724299878742
 40
18.91103416901662
 40
19.03483871192625
 40
19.15864324416521
 40
19.28244870302947
 40
19.40625413649794
 40
19.53004548429823
 40
19.65383695833366
 40
19.77762582129051
 40
19.90141419335984
 40
20.02132850657618
 40
20.14124290571126
 40
20.26115849668905
 40
20.38107406722441
 40
20.5009995078162
 40
20.62092495124073
 40
20.74084985728291
 40
20.8607747643186
 40
20.98080917024146
 40
21.10084358355819
 40
21.22087785621519
 40
21.34091212904447
 40
21.46094520946151
 40
21.58097827418086
 40
21.70101173620059
 40
21.82104526575733
 40
21.94107879531413
 40
22.06111225733392
 40
22.18114532205328
 40
22.30117840247034
 40
22.4212126752996
 40
22.54124694795651
 40
22.6612813612733
 40
22.78131576719624
 40
22.90124067423179
 40
23.02116558027379
 40
23.14109102369801
 40
23.26101646428956
 40
23.38093203482516
 40
23.50084762580319
 40
23.62076202493842
 40
23.74067633815478
 40
23.86446471022409
 40
23.98825357318108
 40
24.11204504721658
 40
24.2358363950169
 40
24.35964182848532
 40
24.48344728734952
 40
24.60725181958847
 40
24.73105636249813
 40
24.8548475327273
 40
24.97863869088433
 40
25.10242971117124
 40
25.22622070576127
 40
25.35001983724438
 40
25.47381906404135
 40
25.59761843558998
 40
25.72141747176025
 40
25.82849736482146
 40
25.93557640890884
 40
26.04265202528014
 40
26.14972785300871
 40
26.25677479616693
 40
26.36382172932646
 40
26.47086943609391
 40
26.57791698772847
 40
26.68566779095143
 40
26.7934188310788
 40
26.90117088483747
 40
27.00892288315156
 40
27.1166891991489
 40
27.22445551198702
 40
27.33222470709126
 40
27.43999396343882
 40
27.54026581694729
 40
27.64053674033916
 40
27.74080359925279
 40
27.84107062917968
 40
27.94144458904573
 40
28.04181853945292
 40
28.14219553352397
 40
28.24257276701148
 40
28.34107190566228
 40
28.43957042397938
 40
28.53808391109501
 40
28.6365973395348
 40
28.73479360738821
 40
28.83299141207533
 40
28.83299141207533
 40
28.83299141207533
 40
28.83299141207533
 10
230.4412644333032
 20
85.09654605430538
 30
0.0
 10
230.438555639361
 20
85.06393438302034
 30
0.0
 10
230.4331382347056
 20
84.99871324637789
 30
0.0
 10
230.4309025213188
 20
84.90052994070975
 30
0.0
 10
230.4333220672038
 20
84.8023775266618
 30
0.0
 10
230.4405301131867
 20
84.70443752727891
 30
0.0
 10
230.4521539456536
 20
84.60691406163116
 30
0.0
 10
230.4679864459048
 20
84.5098655833851
 30
0.0
 10
230.4877806518809
 20
84.41344272176343
 30
0.0
 10
230.51132920155
 20
84.31776601034436
 30
0.0
 10
230.5383913790593
 20
84.22303056690646
 30
0.0
 10
230.568941616449
 20
84.12871085153515
 30
0.0
 10
230.6028378749108
 20
84.03487611237912
 30
0.0
 10
230.6399911229555
 20
83.94161095522041
 30
0.0
 10
230.6800345618504
 20
83.84955229384859
 30
0.0
 10
230.72280331217
 20
83.75876952523132
 30
0.0
 10
230.7681493075643
 20
83.66928766216762
 30
0.0
 10
230.8159147900947
 20
83.58111407865462
 30
0.0
 10
230.8659661565036
 20
83.49421706329977
 30
0.0
 10
230.9194583548311
 20
83.40645369909701
 30
0.0
 10
230.9764283288064
 20
83.31791810706287
 30
0.0
 10
231.0369860118886
 20
83.22876028204803
 30
0.0
 10
231.0997077616624
 20
83.14111295403103
 30
0.0
 10
231.1645207442971
 20
83.05500811356652
 30
0.0
 10
231.2313570217086
 20
82.97047061639097
 30
0.0
 10
231.3001498624039
 20
82.88752446757219
 30
0.0
 10
231.3708375249833
 20
82.80618796858579
 30
0.0
 10
231.4431993172198
 20
82.72665471672036
 30
0.0
 10
231.5171604945332
 20
82.64893063211342
 30
0.0
 10
231.5926216839754
 20
82.57299321110959
 30
0.0
 10
231.6696618880344
 20
82.49865918929798
 30
0.0
 10
231.7482086591591
 20
82.42590580694232
 30
0.0
 10
231.8281860577407
 20
82.35471436220328
 30
0.0
 10
231.9095209443112
 20
82.28506208551767
 30
0.0
 10
231.9921349088911
 20
82.21693019386956
 30
0.0
 10
232.0803214456674
 20
82.14682295427099
 30
0.0
 10
232.1742318709008
 20
82.0749887311382
 30
0.0
 10
232.2740622024043
 20
82.00176158652141
 30
0.0
 10
232.3753508415228
 20
81.93056496878091
 30
0.0
 10
232.4780599014972
 20
81.86143813247358
 30
0.0
 10
232.5821532788048
 20
81.79441887219745
 30
0.0
 10
232.6875934641774
 20
81.72954406739788
 30
0.0
 10
232.7943446960973
 20
81.66684970106441
 30
0.0
 10
232.9023721294249
 20
81.606371432941
 30
0.0
 10
233.0116364373907
 20
81.54814779915024
 30
0.0
 10
233.1220997101434
 20
81.49222141104767
 30
0.0
 10
233.2337185392915
 20
81.43863743492764
 30
0.0
 10
233.346447929001
 20
81.38744133321586
 30
0.0
 10
233.4602454813144
 20
81.33867700351671
 30
0.0
 10
233.5750672419172
 20
81.292390002873
 30
0.0
 10
233.6908727352125
 20
81.2486246609401
 30
0.0
 10
233.8063980725352
 20
81.20785768089573
 30
0.0
 10
233.9215634511435
 20
81.17004204611183
 30
0.0
 10
234.0362778823032
 20
81.13508012384449
 30
0.0
 10
234.151709864272
 20
81.10256461096469
 30
0.0
 10
234.2678053912773
 20
81.0724900388962
 30
0.0
 10
234.3845081491193
 20
81.04485174143976
 30
0.0
 10
234.5017632637424
 20
81.01964527115898
 30
0.0
 10
234.6195137786046
 20
80.99686642498072
 30
0.0
 10
234.7377428458738
 20
80.9765037867803
 30
0.0
 10
234.8563991360598
 20
80.95855452267277
 30
0.0
 10
234.9754316821643
 20
80.94301509450145
 30
0.0
 10
235.0947538672897
 20
80.92988472153635
 30
0.0
 10
235.214315501509
 20
80.91915711822281
 30
0.0
 10
235.3340675057686
 20
80.91082586275468
 30
0.0
 10
235.4539614823954
 20
80.90488398860649
 30
0.0
 10
235.5739499163085
 20
80.90132451053147
 30
0.0
 10
235.6939853839558
 20
80.90014037835722
 30
0.0
 10
235.8140208516032
 20
80.90132451053145
 30
0.0
 10
235.9340092855162
 20
80.90488398860651
 30
0.0
 10
236.0539032621431
 20
80.91082586275468
 30
0.0
 10
236.1736552664026
 20
80.91915711822281
 30
0.0
 10
236.2932169006218
 20
80.92988472153635
 30
0.0
 10
236.4125390857474
 20
80.94301509450136
 30
0.0
 10
236.5315716318516
 20
80.95855452267267
 30
0.0
 10
236.6502279220378
 20
80.97650378678016
 30
0.0
 10
236.768456989307
 20
80.99686642498055
 30
0.0
 10
236.8862075041692
 20
81.01964527115878
 30
0.0
 10
237.0034626187924
 20
81.04485174143966
 30
0.0
 10
237.1201653766342
 20
81.07249003889606
 30
0.0
 10
237.2362609036396
 20
81.1025646109646
 30
0.0
 10
237.3516928856083
 20
81.13508012384429
 30
0.0
 10
237.4664073167681
 20
81.17004204611165
 30
0.0
 10
237.5815726953762
 20
81.20785768089561
 30
0.0
 10
237.6970980326992
 20
81.24862466094004
 30
0.0
 10
237.8129035259943
 20
81.29239000287293
 30
0.0
 10
237.9277252865972
 20
81.33867700351661
 30
0.0
 10
238.0415228389107
 20
81.38744133321585
 30
0.0
 10
238.15425222862
 20
81.4386374349276
 30
0.0
 10
238.2658710577682
 20
81.49222141104758
 30
0.0
 10
238.3763343305209
 20
81.54814779915007
 30
0.0
 10
238.4855986384867
 20
81.6063714329409
 30
0.0
 10
238.5936260718143
 20
81.66684970106431
 30
0.0
 10
238.7003773037342
 20
81.72954406739787
 30
0.0
 10
238.8058174891067
 20
81.79441887219744
 30
0.0
 10
238.9099108664142
 20
81.86143813247362
 30
0.0
 10
239.0126199263887
 20
81.93056496878096
 30
0.0
 10
239.1139085655075
 20
82.00176158652154
 30
0.0
 10
239.2137388970114
 20
82.07498873113825
 30
0.0
 10
239.3076493222449
 20
82.14682295427097
 30
0.0
 10
239.3958358590215
 20
82.21693019386956
 30
0.0
 10
239.4784498236014
 20
82.28506208551768
 30
0.0
 10
239.5597847101719
 20
82.35471436220332
 30
0.0
 10
239.6397621087536
 20
82.42590580694241
 30
0.0
 10
239.7183088798782
 20
82.49865918929802
 30
0.0
 10
239.7953490839372
 20
82.5729932111096
 30
0.0
 10
239.8708102733793
 20
82.64893063211339
 30
0.0
 10
239.9447714506927
 20
82.72665471672025
 30
0.0
 10
240.0171332429288
 20
82.80618796858572
 30
0.0
 10
240.0878209055078
 20
82.88752446757218
 30
0.0
 10
240.1566137462031
 20
82.97047061639094
 30
0.0
 10
240.2234500236146
 20
83.05500811356661
 30
0.0
 10
240.2882630062496
 20
83.141112954031
 30
0.0
 10
240.3509847560236
 20
83.22876028204792
 30
0.0
 10
240.4115424391056
 20
83.31791810706287
 30
0.0
 10
240.4685124130806
 20
83.40645369909703
 30
0.0
 10
240.5220046114079
 20
83.49421706329986
 30
0.0
 10
240.5720559778175
 20
83.58111407865465
 30
0.0
 10
240.6198214603451
 20
83.66928766216752
 30
0.0
 10
240.665167455749
 20
83.75876952523194
 30
0.0
 10
240.7079362060325
 20
83.84955229384593
 30
0.0
 10
240.7479796450602
 20
83.94161095523063
 30
0.0
 10
240.7851328926096
 20
84.03487611234121
 30
0.0
 10
240.8190291529094
 20
84.12871085167541
 30
0.0
 10
240.8495793835651
 20
84.22303056639342
 30
0.0
 10
240.876641586107
 20
84.31776601226002
 30
0.0
 10
240.900190042324
 20
84.41344271461239
 30
0.0
 10
240.9199845967092
 20
84.50986561003671
 30
0.0
 10
240.9358158007221
 20
84.60691396252184
 30
0.0
 10
240.9474444669088
 20
84.70443789713667
 30
0.0
 10
240.9546344807851
 20
84.80237614704602
 30
0.0
 10
240.9571213128839
 20
84.90053508919706
 30
0.0
 10
240.954634480785
 20
84.9986940313481
 30
0.0
 10
240.9474444669089
 20
85.0966322812575
 30
0.0
 10
240.9358158007221
 20
85.19415621587237
 30
0.0
 10
240.9199845967092
 20
85.29120456835744
 30
0.0
 10
240.9001900423241
 20
85.38762746378178
 30
0.0
 10
240.876641586107
 20
85.48330416613413
 30
0.0
 10
240.8495793835652
 20
85.57803961200074
 30
0.0
 10
240.8190291529094
 20
85.6723593267188
 30
0.0
 10
240.7851328926101
 20
85.7661940660532
 30
0.0
 10
240.7479796450608
 20
85.85945922316391
 30
0.0
 10
240.707936206033
 20
85.95151788454865
 30
0.0
 10
240.6651674557492
 20
86.04230065316267
 30
0.0
 10
240.6198214603451
 20
86.13178251622722
 30
0.0
 10
240.5720559778175
 20
86.21995609974016
 30
0.0
 10
240.5220046114077
 20
86.30685311509515
 30
0.0
 10
240.4685124130806
 20
86.39461647929815
 30
0.0
 10
240.4115424391049
 20
86.48315207133211
 30
0.0
 10
240.3509847560231
 20
86.57230989634705
 30
0.0
 10
240.2882630062491
 20
86.65995722436395
 30
0.0
 10
240.2234500236144
 20
86.74606206482856
 30
0.0
 10
240.1566137462031
 20
86.83059956200411
 30
0.0
 10
240.0878209055079
 20
86.91354571082276
 30
0.0
 10
240.0171332429288
 20
86.99488220980894
 30
0.0
 10
239.9447714506927
 20
87.07441546167416
 30
0.0
 10
239.8708102733793
 20
87.15213954628106
 30
0.0
 10
239.7953490839372
 20
87.22807696728495
 30
0.0
 10
239.7183088798782
 20
87.30241098909678
 30
0.0
 10
239.6397621087538
 20
87.37516437145264
 30
0.0
 10
239.5597847101718
 20
87.44635581619148
 30
0.0
 10
239.4784498236014
 20
87.51600809287689
 30
0.0
 10
239.3958358590216
 20
87.58413998452494
 30
0.0
 10
239.3076493222449
 20
87.65424722412357
 30
0.0
 10
239.2137388970114
 20
87.72608144725633
 30
0.0
 10
239.1139085655075
 20
87.79930859187296
 30
0.0
 10
239.0126199263887
 20
87.87050520961336
 30
0.0
 10
238.9099108664143
 20
87.9396320459205
 30
0.0
 10
238.8058174891067
 20
88.0066513061966
 30
0.0
 10
238.7003773037342
 20
88.07152611099605
 30
0.0
 10
238.5936260718143
 20
88.13422047732945
 30
0.0
 10
238.4855986384867
 20
88.19469874545274
 30
0.0
 10
238.3763343305209
 20
88.25292237924353
 30
0.0
 10
238.2658710577681
 20
88.30884876734612
 30
0.0
 10
238.15425222862
 20
88.36243274346624
 30
0.0
 10
238.0415228389107
 20
88.41362884517824
 30
0.0
 10
237.9277252865973
 20
88.46239317487748
 30
0.0
 10
237.8129035259944
 20
88.50868017552114
 30
0.0
 10
237.697098032699
 20
88.55244551745358
 30
0.0
 10
237.5815726953763
 20
88.59321249749763
 30
0.0
 10
237.4664073167681
 20
88.63102813228164
 30
0.0
 10
237.3516928856084
 20
88.66599005454916
 30
0.0
 10
237.2362609036396
 20
88.69850556742898
 30
0.0
 10
237.1201653766343
 20
88.7285801394975
 30
0.0
 10
237.0034626187922
 20
88.7562184369537
 30
0.0
 10
236.8862075041693
 20
88.78142490723448
 30
0.0
 10
236.7684569893069
 20
88.80420375341258
 30
0.0
 10
236.6502279220379
 20
88.824566391613
 30
0.0
 10
236.5315716318517
 20
88.84251565572056
 30
0.0
 10
236.4125390857474
 20
88.858055083892
 30
0.0
 10
236.2932169006219
 20
88.87118545685709
 30
0.0
 10
236.1736552664026
 20
88.88191306017066
 30
0.0
 10
236.0539032621431
 20
88.8902443156388
 30
0.0
 10
235.9340092855161
 20
88.89618618978693
 30
0.0
 10
235.8140208516032
 20
88.89974566786174
 30
0.0
 10
235.6939853839558
 20
88.90092980003577
 30
0.0
 10
235.5739499163085
 20
88.89974566786174
 30
0.0
 10
235.4539614823954
 20
88.89618618978692
 30
0.0
 10
235.3340675057685
 20
88.8902443156388
 30
0.0
 10
235.214315501509
 20
88.88191306017067
 30
0.0
 10
235.0947538672897
 20
88.87118545685708
 30
0.0
 10
234.9754316821642
 20
88.85805508389203
 30
0.0
 10
234.8563991360599
 20
88.84251565572055
 30
0.0
 10
234.7377428458736
 20
88.82456639161292
 30
0.0
 10
234.6195137786048
 20
88.80420375341264
 30
0.0
 10
234.5017632637426
 20
88.78142490723447
 30
0.0
 10
234.3845081491198
 20
88.75621843695379
 30
0.0
 10
234.267805391278
 20
88.7285801394974
 30
0.0
 10
234.1517098642726
 20
88.69850556742902
 30
0.0
 10
234.0362778823035
 20
88.66599005454927
 30
0.0
 10
233.9215634511434
 20
88.63102813228217
 30
0.0
 10
233.8063980725352
 20
88.59321249749834
 30
0.0
 10
233.6908727352124
 20
88.55244551745409
 30
0.0
 10
233.5750672419172
 20
88.50868017552126
 30
0.0
 10
233.4602454813142
 20
88.46239317487745
 30
0.0
 10
233.3464479290009
 20
88.41362884517821
 30
0.0
 10
233.2337185392916
 20
88.36243274346626
 30
0.0
 10
233.1220997101435
 20
88.3088487673461
 30
0.0
 10
233.0116364373908
 20
88.25292237924353
 30
0.0
 10
232.9023721294249
 20
88.19469874545277
 30
0.0
 10
232.7943446960973
 20
88.13422047732948
 30
0.0
 10
232.6875934641774
 20
88.07152611099607
 30
0.0
 10
232.582153278805
 20
88.00665130619659
 30
0.0
 10
232.4780599014973
 20
87.93963204592035
 30
0.0
 10
232.3753508415229
 20
87.87050520961284
 30
0.0
 10
232.2740622024042
 20
87.79930859187213
 30
0.0
 10
232.1742318709002
 20
87.72608144725537
 30
0.0
 10
232.0803214456666
 20
87.65424722412256
 30
0.0
 10
231.99213490889
 20
87.58413998452393
 30
0.0
 10
231.9095209443102
 20
87.51600809287581
 30
0.0
 10
231.8281860577397
 20
87.44635581619049
 30
0.0
 10
231.748208659158
 20
87.37516437145177
 30
0.0
 10
231.6696618880334
 20
87.30241098909629
 30
0.0
 10
231.5926216839744
 20
87.2280769672848
 30
0.0
 10
231.5171604945322
 20
87.15213954628095
 30
0.0
 10
231.4431993172189
 20
87.07441546167406
 30
0.0
 10
231.3708375249827
 20
86.99488220980845
 30
0.0
 10
231.3001498624038
 20
86.91354571082199
 30
0.0
 10
231.2313570217086
 20
86.8305995620031
 30
0.0
 10
231.1645207442969
 20
86.74606206482771
 30
0.0
 10
231.0997077616618
 20
86.65995722436338
 30
0.0
 10
231.0369860118882
 20
86.5723098963465
 30
0.0
 10
230.9764283288033
 20
86.48315207133189
 30
0.0
 10
230.9194583548383
 20
86.39461647929672
 30
0.0
 10
230.8659661564754
 20
86.30685311509737
 30
0.0
 10
230.8159147901984
 20
86.21995609972979
 30
0.0
 10
230.7681493071763
 20
86.1317825162651
 30
0.0
 10
230.7228033136195
 20
86.04230065302141
 30
0.0
 10
230.6800345564354
 20
85.95151788507692
 30
0.0
 10
230.6399911431673
 20
85.85945922119289
 30
0.0
 10
230.6028377994798
 20
85.76619407340945
 30
0.0
 10
230.5689418957376
 20
85.67235929948197
 30
0.0
 10
230.5383903584303
 20
85.57803971153511
 30
0.0
 10
230.5113330132062
 20
85.48330379441188
 30
0.0
 10
230.4877664235374
 20
85.38762885136556
 30
0.0
 10
230.4680394744198
 20
85.2911993968836
 30
0.0
 10
230.4519567484297
 20
85.19417544704031
 30
0.0
 10
230.4448285569386
 20
85.12908935498876
 30
0.0
 10
230.4412644333032
 20
85.09654605430538
 30
0.0
 11
230.4412644333032
 21
85.09654605430538
 31
0.0
 11
230.4341198459514
 21
84.99865225186629
 31
0.0
 11
230.4316783803693
 21
84.90053508919702
 31
0.0
 11
230.4341198459514
 21
84.80241792652778
 31
0.0
 11
230.4412644333032
 21
84.70452412408872
 31
0.0
 11
230.4528523489527
 21
84.6070124373211
 31
0.0
 11
230.4686244078456
 21
84.51009108168361
 31
0.0
 11
230.4884030254237
 21
84.41358355933609
 31
0.0
 11
230.5119162913643
 21
84.31791729846799
 31
0.0
 11
230.53894072345
 21
84.22319856652392
 31
0.0
 11
230.5692626845473
 21
84.12948272479936
 31
0.0
 11
230.6033453470241
 21
84.03506894868029
 31
0.0
 11
230.6404732813032
 21
83.94181093328822
 31
0.0
 11
230.6804913784944
 21
83.84975941609524
 31
0.0
 11
230.7232511195399
 21
83.7589489741575
 31
0.0
 11
230.7685551644016
 21
83.66950054874066
 31
0.0
 11
230.8162949784869
 21
83.58132825633795
 31
0.0
 11
230.8663225312189
 21
83.49442887748201
 31
0.0
 11
230.9184906779871
 21
83.40879635405282
 31
0.0
 11
230.9768009702519
 21
83.31816455814375
 31
0.0
 11
231.0373473325887
 21
83.2290111094097
 31
0.0
 11
231.1000568713486
 21
83.14136927047863
 31
0.0
 11
231.1648613592823
 21
83.0552649314051
 31
0.0
 11
231.2316836313361
 21
82.97073519049563
 31
0.0
 11
231.3004659278513
 21
82.88779243448094
 31
0.0
 11
231.3711429397206
 21
82.80645949747624
 31
0.0
 11
231.4436521919161
 21
82.7267560223871
 31
0.0
 11
231.5174374196742
 21
82.64920011690178
 31
0.0
 11
231.5928850608993
 21
82.57326023964515
 31
0.0
 11
231.6699118332928
 21
82.49892369255348
 31
0.0
 11
231.7484387892532
 21
82.42617367381027
 31
0.0
 11
231.8284110243122
 21
82.35497202703534
 31
0.0
 11
231.9097330760153
 21
82.2853163630292
 31
0.0
 11
231.9923361536671
 21
82.21717934485906
 31
0.0
 11
232.0761493189902
 21
82.15053508916877
 31
0.0
 11
232.1744806184345
 21
82.07532101531164
 31
0.0
 11
232.2743052887061
 21
82.00209998280792
 31
0.0
 11
232.3755879904991
 21
81.93090965430063
 31
0.0
 11
232.4782932673022
 21
81.8617876529354
 31
0.0
 11
232.5823781119454
 21
81.7947760460513
 31
0.0
 11
232.6878119241889
 21
81.72990750252299
 31
0.0
 11
232.7945567373561
 21
81.66721941992516
 31
0.0
 11
232.902573711153
 21
81.60674969858891
 31
0.0
 11
233.0118355669089
 21
81.54853104417437
 31
0.0
 11
233.1222919814741
 21
81.49261197154007
 31
0.0
 11
233.2339043078106
 21
81.43903510848952
 31
0.0
 11
233.3466309625564
 21
81.38784441923735
 31
0.0
 11
233.46041699125
 21
81.33908954805145
 31
0.0
 11
233.5752321622629
 21
81.29280990296685
 31
0.0
 11
233.6910293336429
 21
81.24905264422524
 31
0.0
 11
233.8077643020625
 21
81.20786395393696
 31
0.0
 11
233.9216926977131
 21
81.17045054486172
 31
0.0
 11
234.0363970258517
 21
81.13548799023278
 31
0.0
 11
234.1518198681939
 21
81.1029715878305
 31
0.0
 11
234.2679028717183
 21
81.07289700803977
 31
0.0
 11
234.3845997030821
 21
81.04525716631116
 31
0.0
 11
234.5018460350017
 21
81.02004983340994
 31
0.0
 11
234.6195875708481
 21
80.99727015330343
 31
0.0
 11
234.7377720118571
 21
80.97691281480142
 31
0.0
 11
234.8564558350231
 21
80.95895707131959
 31
0.0
 11
234.9754800092281
 21
80.94341659722413
 31
0.0
 11
235.0947938491579
 21
80.93028517637639
 31
0.0
 11
235.2143476929696
 21
80.9195564726565
 31
0.0
 11
235.3340912179669
 21
80.91122408910641
 31
0.0
 11
235.4539770680097
 21
80.9052810608018
 31
0.0
 11
235.5739577069405
 21
80.90172040268843
 31
0.0
 11
235.6939853839558
 21
80.90053508915601
 31
0.0
 11
235.8140130609711
 21
80.90172040268843
 31
0.0
 11
235.9339936999019
 21
80.90528106080181
 31
0.0
 11
236.0538795499447
 21
80.91122408910641
 31
0.0
 11
236.173623074942
 21
80.91955647265648
 31
0.0
 11
236.2931769187537
 21
80.93028517637634
 31
0.0
 11
236.4124907586835
 21
80.94341659722406
 31
0.0
 11
236.5315149328885
 21
80.95895707131947
 31
0.0
 11
236.6501987560544
 21
80.97691281480128
 31
0.0
 11
236.7683831970635
 21
80.99727015330328
 31
0.0
 11
236.88612473291
 21
81.02004983340977
 31
0.0
 11
237.0033710648295
 21
81.04525716631102
 31
0.0
 11
237.1200678961933
 21
81.07289700803965
 31
0.0
 11
237.2361508997177
 21
81.10297158783035
 31
0.0
 11
237.3515737420599
 21
81.1354879902326
 31
0.0
 11
237.4662780701985
 21
81.17045054486155
 31
0.0
 11
237.580206465849
 21
81.20786395393684
 31
0.0
 11
237.6969414342687
 21
81.24905264422516
 31
0.0
 11
237.8127386056487
 21
81.29280990296677
 31
0.0
 11
237.9275537766616
 21
81.33908954805139
 31
0.0
 11
238.0413398053551
 21
81.3878444192373
 31
0.0
 11
238.1540664601009
 21
81.43903510848948
 31
0.0
 11
238.2656787864375
 21
81.49261197153999
 31
0.0
 11
238.3761352010027
 21
81.54853104417423
 31
0.0
 11
238.4853970567586
 21
81.6067496985888
 31
0.0
 11
238.5934140305555
 21
81.66721941992508
 31
0.0
 11
238.7001588437227
 21
81.72990750252298
 31
0.0
 11
238.8055926559662
 21
81.79477604605128
 31
0.0
 11
238.9096775006093
 21
81.8617876529354
 31
0.0
 11
239.0123827774125
 21
81.93090965430066
 31
0.0
 11
239.1136654792057
 21
82.00209998280799
 31
0.0
 11
239.2134901494776
 21
82.07532101531172
 31
0.0
 11
239.3118214489222
 21
82.15053508916881
 31
0.0
 11
239.3956346142454
 21
82.21717934485908
 31
0.0
 11
239.4782376918973
 21
82.28531636302924
 31
0.0
 11
239.5595597436004
 21
82.3549720270354
 31
0.0
 11
239.6395319786595
 21
82.42617367381033
 31
0.0
 11
239.7180589346199
 21
82.49892369255353
 31
0.0
 11
239.7950857070134
 21
82.57326023964518
 31
0.0
 11
239.8705333482384
 21
82.64920011690177
 31
0.0
 11
239.9443185759964
 21
82.72675602238705
 31
0.0
 11
240.0168278281915
 21
82.80645949747614
 31
0.0
 11
240.0875048400604
 21
82.88779243448084
 31
0.0
 11
240.1562871365755
 21
82.9707351904956
 31
0.0
 11
240.2231094086294
 21
83.05526493140513
 31
0.0
 11
240.2879138965634
 21
83.14136927047866
 31
0.0
 11
240.3506234353236
 21
83.2290111094097
 31
0.0
 11
240.4111697976601
 21
83.31816455814375
 31
0.0
 11
240.4694800899246
 21
83.40879635405281
 31
0.0
 11
240.5216482366926
 21
83.49442887748202
 31
0.0
 11
240.5716757894247
 21
83.58132825633803
 31
0.0
 11
240.6194156035099
 21
83.66950054874071
 31
0.0
 11
240.6647196483715
 21
83.75894897415749
 31
0.0
 11
240.7074793894167
 21
83.84975941609522
 31
0.0
 11
240.7474974866077
 21
83.94181093328822
 31
0.0
 11
240.7846254208871
 21
84.03506894868025
 31
0.0
 11
240.8187080833641
 21
84.12948272479929
 31
0.0
 11
240.8490300444616
 21
84.22319856652386
 31
0.0
 11
240.8760544765473
 21
84.31791729846796
 31
0.0
 11
240.8995677424879
 21
84.41358355933609
 31
0.0
 11
240.919346360066
 21
84.51009108168363
 31
0.0
 11
240.9351184189588
 21
84.60701243732107
 31
0.0
 11
240.9467063346084
 21
84.70452412408869
 31
0.0
 11
240.9538509219603
 21
84.80241792652778
 31
0.0
 11
240.9562923875423
 21
84.90053508919704
 31
0.0
 11
240.9538509219602
 21
84.99865225186635
 31
0.0
 11
240.9467063346084
 21
85.0965460543055
 31
0.0
 11
240.9351184189589
 21
85.19405774107311
 31
0.0
 11
240.919346360066
 21
85.29097909671053
 31
0.0
 11
240.8995677424879
 21
85.38748661905805
 31
0.0
 11
240.8760544765473
 21
85.48315287992617
 31
0.0
 11
240.8490300444616
 21
85.57787161187032
 31
0.0
 11
240.8187080833642
 21
85.67158745359495
 31
0.0
 11
240.7846254208876
 21
85.76600122971412
 31
0.0
 11
240.7474974866083
 21
85.85925924510626
 31
0.0
 11
240.7074793894171
 21
85.95131076229934
 31
0.0
 11
240.6647196483717
 21
86.04212120423715
 31
0.0
 11
240.61941560351
 21
86.13156962965402
 31
0.0
 11
240.5716757894247
 21
86.2197419220568
 31
0.0
 11
240.5216482366926
 21
86.30664130091294
 31
0.0
 11
240.4694800899244
 21
86.39227382434233
 31
0.0
 11
240.4111697976596
 21
86.48290562025132
 31
0.0
 11
240.350623435323
 21
86.57205906898533
 31
0.0
 11
240.287913896563
 21
86.65970090791636
 31
0.0
 11
240.2231094086292
 21
86.74580524698996
 31
0.0
 11
240.1562871365755
 21
86.83033498789949
 31
0.0
 11
240.0875048400604
 21
86.91327774391411
 31
0.0
 11
240.0168278281916
 21
86.99461068091851
 31
0.0
 11
239.9443185759964
 21
87.07431415600735
 31
0.0
 11
239.8705333482384
 21
87.15187006149264
 31
0.0
 11
239.7950857070134
 21
87.2278099387494
 31
0.0
 11
239.7180589346199
 21
87.30214648584132
 31
0.0
 11
239.6395319786595
 21
87.37489650458467
 31
0.0
 11
239.5595597436004
 21
87.44609815135944
 31
0.0
 11
239.4782376918972
 21
87.51575381536534
 31
0.0
 11
239.3956346142454
 21
87.58389083353542
 31
0.0
 11
239.3118214489223
 21
87.65053508922573
 31
0.0
 11
239.2134901494776
 21
87.72574916308287
 31
0.0
 11
239.1136654792057
 21
87.7989701955865
 31
0.0
 11
239.0123827774124
 21
87.87016052409365
 31
0.0
 11
238.9096775006093
 21
87.93928252545874
 31
0.0
 11
238.8055926559662
 21
88.00629413234273
 31
0.0
 11
238.7001588437226
 21
88.07116267587095
 31
0.0
 11
238.5934140305556
 21
88.1338507584687
 31
0.0
 11
238.4853970567586
 21
88.19432047980486
 31
0.0
 11
238.3761352010027
 21
88.25253913421939
 31
0.0
 11
238.2656787864374
 21
88.30845820685373
 31
0.0
 11
238.1540664601009
 21
88.36203506990438
 31
0.0
 11
238.0413398053551
 21
88.41322575915672
 31
0.0
 11
237.9275537766616
 21
88.46198063034272
 31
0.0
 11
237.8127386056487
 21
88.50826027542725
 31
0.0
 11
237.6969414342687
 21
88.55201753416847
 31
0.0
 11
237.5802064658491
 21
88.59320622445645
 31
0.0
 11
237.4662780701985
 21
88.63061963353175
 31
0.0
 11
237.3515737420599
 21
88.66558218816084
 31
0.0
 11
237.2361508997176
 21
88.6980985905632
 31
0.0
 11
237.1200678961933
 21
88.72817317035387
 31
0.0
 11
237.0033710648295
 21
88.75581301208236
 31
0.0
 11
236.8861247329099
 21
88.78102034498349
 31
0.0
 11
236.7683831970635
 21
88.8038000250899
 31
0.0
 11
236.6501987560544
 21
88.82415736359188
 31
0.0
 11
236.5315149328885
 21
88.84211310707377
 31
0.0
 11
236.4124907586836
 21
88.8576535811693
 31
0.0
 11
236.2931769187537
 21
88.87078500201707
 31
0.0
 11
236.173623074942
 21
88.88151370573699
 31
0.0
 11
236.0538795499447
 21
88.88984608928706
 31
0.0
 11
235.9339936999019
 21
88.89578911759158
 31
0.0
 11
235.8140130609711
 21
88.89934977570476
 31
0.0
 11
235.6939853839558
 21
88.90053508923708
 31
0.0
 11
235.5739577069405
 21
88.89934977570478
 31
0.0
 11
235.4539770680097
 21
88.89578911759158
 31
0.0
 11
235.3340912179668
 21
88.88984608928705
 31
0.0
 11
235.2143476929695
 21
88.88151370573698
 31
0.0
 11
235.0947938491579
 21
88.87078500201707
 31
0.0
 11
234.9754800092281
 21
88.85765358116932
 31
0.0
 11
234.856455835023
 21
88.84211310707374
 31
0.0
 11
234.7377720118571
 21
88.82415736359184
 31
0.0
 11
234.6195875708481
 21
88.8038000250899
 31
0.0
 11
234.5018460350019
 21
88.78102034498349
 31
0.0
 11
234.3845997030827
 21
88.7558130120824
 31
0.0
 11
234.2679028717191
 21
88.72817317035388
 31
0.0
 11
234.1518198681945
 21
88.69809859056322
 31
0.0
 11
234.036397025852
 21
88.66558218816101
 31
0.0
 11
233.9216926977131
 21
88.63061963353223
 31
0.0
 11
233.8077643020624
 21
88.5932062244571
 31
0.0
 11
233.6910293336429
 21
88.55201753416895
 31
0.0
 11
233.5752321622629
 21
88.5082602754274
 31
0.0
 11
233.46041699125
 21
88.46198063034272
 31
0.0
 11
233.3466309625564
 21
88.41322575915669
 31
0.0
 11
233.2339043078106
 21
88.36203506990437
 31
0.0
 11
233.1222919814742
 21
88.30845820685373
 31
0.0
 11
233.0118355669089
 21
88.2525391342194
 31
0.0
 11
232.902573711153
 21
88.19432047980487
 31
0.0
 11
232.7945567373561
 21
88.13385075846872
 31
0.0
 11
232.687811924189
 21
88.071162675871
 31
0.0
 11
232.5823781119455
 21
88.00629413234272
 31
0.0
 11
232.4782932673023
 21
87.93928252545855
 31
0.0
 11
232.3755879904992
 21
87.87016052409315
 31
0.0
 11
232.274305288706
 21
87.7989701955857
 31
0.0
 11
232.174480618434
 21
87.7257491630819
 31
0.0
 11
232.0761493189893
 21
87.65053508922469
 31
0.0
 11
231.9923361536661
 21
87.58389083353438
 31
0.0
 11
231.9097330760143
 21
87.51575381536429
 31
0.0
 11
231.8284110243112
 21
87.44609815135843
 31
0.0
 11
231.7484387892521
 21
87.37489650458383
 31
0.0
 11
231.6699118332917
 21
87.30214648584082
 31
0.0
 11
231.5928850608982
 21
87.22780993874923
 31
0.0
 11
231.5174374196732
 21
87.15187006149262
 31
0.0
 11
231.4436521919152
 21
87.07431415600725
 31
0.0
 11
231.37114293972
 21
86.99461068091804
 31
0.0
 11
231.3004659278512
 21
86.91327774391328
 31
0.0
 11
231.2316836313361
 21
86.83033498789852
 31
0.0
 11
231.1648613592821
 21
86.7458052469891
 31
0.0
 11
231.1000568713481
 21
86.65970090791578
 31
0.0
 11
231.0373473325878
 21
86.57205906898487
 31
0.0
 11
230.9768009702509
 21
86.48290562025073
 31
0.0
 11
230.9184906779863
 21
86.39227382434157
 31
0.0
 11
230.8663225312185
 21
86.30664130091247
 31
0.0
 11
230.8162949784867
 21
86.21974192205664
 31
0.0
 11
230.7685551644016
 21
86.13156962965405
 31
0.0
 11
230.7232511195401
 21
86.04212120423728
 31
0.0
 11
230.6804913784949
 21
85.95131076229946
 31
0.0
 11
230.6404732813039
 21
85.85925924510633
 31
0.0
 11
230.6033453470246
 21
85.76600122971413
 31
0.0
 11
230.5692626845475
 21
85.67158745359497
 31
0.0
 11
230.53894072345
 21
85.57787161187036
 31
0.0
 11
230.5119162913643
 21
85.48315287992621
 31
0.0
 11
230.4884030254237
 21
85.3874866190581
 31
0.0
 11
230.4686244078456
 21
85.29097909671054
 31
0.0
 11
230.4528523489527
 21
85.19405774107301
 31
0.0
 11
230.4412644333032
 21
85.09654605430538
 31
0.0
  0
SPLINE
  5
1CE
330
1F
100
AcDbEntity
  8
1
  6
Continuous
 62
     3
100
AcDbSpline
210
0.0
220
0.0
230
1.0
 70
    11
 71
     3
 72
   263
 73
   259
 74
   257
 42
0.0000000001
 43
0.0000000001
 44
0.00000001
 40
0.0
 40
0.0
 40
0.0
 40
0.0
 40
0.0981541730361663
 40
0.1963017067008997
 40
0.2944492403655615
 40
0.3926034134017157
 40
0.4908012180888456
 40
0.5889974859422309
 40
0.6875109143819791
 40
0.7860244014975459
 40
0.8845229198146002
 40
0.9830220584652944
 40
1.083399291952686
 40
1.183776286023599
 40
1.284150236430641
 40
1.384524196296588
 40
1.484791226223559
 40
1.585058085137367
 40
1.685329008529554
 40
1.785600862038226
 40
1.893370118385619
 40
2.001139313489597
 40
2.108905626327813
 40
2.21667194232537
 40
2.324423940639432
 40
2.432175994398042
 40
2.539927034525306
 40
2.6476778377482
 40
2.754725389382714
 40
2.861773096150175
 40
2.968820029309738
 40
3.075866972468054
 40
3.182942800196819
 40
3.290018416568329
 40
3.397097460655833
 40
3.504177353717039
 40
3.627976389887198
 40
3.751775761435701
 40
3.875574988232625
 40
3.99937411971565
 40
4.123165114305651
 40
4.246956134592597
 40
4.370747292749714
 40
4.494538462979001
 40
4.618343005888638
 40
4.74214753812752
 40
4.865952996991719
 40
4.989758430460062
 40
5.113549778260269
 40
5.237341252295785
 40
5.361130115252821
 40
5.484918487322285
 40
5.604832800538585
 40
5.724747199673611
 40
5.844662790651362
 40
5.96457836118657
 40
6.084503801778048
 40
6.204429245202435
 40
6.324354151244765
 40
6.444279058280674
 40
6.564313464203864
 40
6.684347877520612
 40
6.804382150177571
 40
6.92441642300671
 40
7.044449503423428
 40
7.164482568142645
 40
7.28451603016252
 40
7.404549559719575
 40
7.524583089276487
 40
7.644616551296248
 40
7.764649616015664
 40
7.884682696432697
 40
8.004716969261956
 40
8.124751241918943
 40
8.244785655235635
 40
8.364820061158403
 40
8.484744968193734
 40
8.604669874235595
 40
8.724595317659952
 40
8.844520758251686
 40
8.964436328787052
 40
9.084351919764877
 40
9.204266318899899
 40
9.324180632116168
 40
9.447969004185726
 40
9.57175786714292
 40
9.695549341178701
 40
9.819340688979207
 40
9.943146122447361
 40
10.06695158131123
 40
10.19075611354996
 40
10.31456065645959
 40
10.43835182668919
 40
10.56214298484656
 40
10.6859340051333
 40
10.8097249997232
 40
10.9335241312063
 40
11.05732335800333
 40
11.18112272955168
 40
11.30492176572165
 40
11.41200165878272
 40
11.5190807028701
 40
11.62615631924159
 40
11.73323214697036
 40
11.84027909012877
 40
11.94732602328839
 40
12.05437373005585
 40
12.16142128169042
 40
12.26917208491358
 40
12.37692312504112
 40
12.48467517879984
 40
12.59242717711393
 40
12.70019349311146
 40
12.80795980594962
 40
12.91572900105363
 40
13.02349825740105
 40
13.12377011090973
 40
13.22404103430186
 40
13.32430789321567
 40
13.42457492314268
 40
13.52494888300877
 40
13.6253228334159
 40
13.72569982748675
 40
13.82607706097402
 40
13.92457619962471
 40
14.02307471794173
 40
14.12158820505735
 40
14.22010163349712
 40
14.31829790135046
 40
14.4164957060376
 40
14.51464987907378
 40
14.61279741273845
 40
14.71094494640315
 40
14.80909911943936
 40
14.90729692412645
 40
15.00549319197982
 40
15.10400662041963
 40
15.20252010753524
 40
15.30101862585232
 40
15.39951776450304
 40
15.49989499799037
 40
15.60027199206126
 40
15.70064594246826
 40
15.80101990233416
 40
15.90128693226106
 40
16.00155379117491
 40
16.10182471456724
 40
16.20209656807608
 40
16.30986582442341
 40
16.41763501952727
 40
16.52540133236545
 40
16.63316764836301
 40
16.74091964667716
 40
16.84867170043591
 40
16.95642274056331
 40
17.06417354378642
 40
17.17122109542115
 40
17.27826880218871
 40
17.38531573534809
 40
17.49236267850621
 40
17.59943850623486
 40
17.70651412260633
 40
17.81359316669392
 40
17.92067305975523
 40
18.04447209592538
 40
18.16827146747383
 40
18.2920706942706
 40
18.41586982575353
 40
18.53966082034346
 40
18.6634518406304
 40
18.78724299878747
 40
18.91103416901658
 40
19.03483871192629
 40
19.15864324416522
 40
19.28244870302945
 40
19.40625413649784
 40
19.53004548429822
 40
19.65383695833371
 40
19.77762582129073
 40
19.90141419336004
 40
20.02132850657635
 40
20.14124290571124
 40
20.26115849668905
 40
20.38107406722452
 40
20.50099950781621
 40
20.6209249512407
 40
20.74084985728296
 40
20.86077476431871
 40
20.98080917024157
 40
21.1008435835583
 40
21.2208778562152
 40
21.34091212904443
 40
21.4609452094615
 40
21.58097827418085
 40
21.70101173620064
 40
21.82104526575747
 40
21.94107879531415
 40
22.06111225733388
 40
22.18114532205326
 40
22.3011784024703
 40
22.42121267529959
 40
22.54124694795655
 40
22.66128136127325
 40
22.78131576719614
 40
22.90124067423186
 40
23.02116558027412
 40
23.14109102369859
 40
23.2610164642903
 40
23.38093203482567
 40
23.50084762580346
 40
23.62076202493862
 40
23.74067633815503
 40
23.86446471022442
 40
23.98825357318142
 40
24.11204504721693
 40
24.23583639501716
 40
24.35964182848544
 40
24.48344728734959
 40
24.60725181958844
 40
24.73105636249806
 40
24.85484753272726
 40
24.97863869088427
 40
25.10242971117122
 40
25.22622070576111
 40
25.35001983724407
 40
25.47381906404089
 40
25.59761843558929
 40
25.72141747175946
 40
25.82849736482073
 40
25.93557640890824
 40
26.0426520252798
 40
26.14972785300861
 40
26.25677479616689
 40
26.36382172932641
 40
26.47086943609386
 40
26.57791698772839
 40
26.68566779095143
 40
26.79341883107892
 40
26.90117088483756
 40
27.00892288315166
 40
27.11668919914923
 40
27.22445551198744
 40
27.33222470709132
 40
27.43999396343867
 40
27.54026581694746
 40
27.64053674033975
 40
27.74080359925364
 40
27.84107062918057
 40
27.94144458904647
 40
28.04181853945348
 40
28.14219553352434
 40
28.24257276701168
 40
28.34107190566235
 40
28.43957042397935
 40
28.53808391109503
 40
28.63659733953485
 40
28.73479360738827
 40
28.83299141207541
 40
28.83299141207541
 40
28.83299141207541
 40
28.83299141207541
 10
253.9467063346092
 20
85.09654605430524
 30
0.0
 10
253.9494151285515
 20
85.0639343830202
 30
0.0
 10
253.9548325332071
 20
84.9987132463777
 30
0.0
 10
253.9570682465937
 20
84.90052994070957
 30
0.0
 10
253.9546487007089
 20
84.80237752666156
 30
0.0
 10
253.9474406547257
 20
84.70443752727863
 30
0.0
 10
253.9358168222586
 20
84.60691406163095
 30
0.0
 10
253.9199843220069
 20
84.50986558338491
 30
0.0
 10
253.9001901160308
 20
84.41344272176329
 30
0.0
 10
253.8766415663617
 20
84.3177660103442
 30
0.0
 10
253.8495793888522
 20
84.22303056690635
 30
0.0
 10
253.8190291514625
 20
84.12871085153502
 30
0.0
 10
253.7851328930003
 20
84.03487611237907
 30
0.0
 10
253.7479796449555
 20
83.94161095522043
 30
0.0
 10
253.7079362060605
 20
83.84955229384866
 30
0.0
 10
253.6651674557415
 20
83.75876952523123
 30
0.0
 10
253.6198214603471
 20
83.66928766216766
 30
0.0
 10
253.572055977817
 20
83.5811140786546
 30
0.0
 10
253.522004611408
 20
83.49421706329976
 30
0.0
 10
253.4685124130807
 20
83.40645369909694
 30
0.0
 10
253.4115424391056
 20
83.31791810706274
 30
0.0
 10
253.3509847560238
 20
83.2287602820478
 30
0.0
 10
253.2882630062496
 20
83.14111295403089
 30
0.0
 10
253.2234500236146
 20
83.05500811356636
 30
0.0
 10
253.1566137462031
 20
82.97047061639088
 30
0.0
 10
253.0878209055078
 20
82.8875244675721
 30
0.0
 10
253.0171332429288
 20
82.80618796858572
 30
0.0
 10
252.9447714506926
 20
82.72665471672026
 30
0.0
 10
252.8708102733794
 20
82.64893063211335
 30
0.0
 10
252.7953490839372
 20
82.57299321110956
 30
0.0
 10
252.7183088798782
 20
82.49865918929798
 30
0.0
 10
252.6397621087536
 20
82.42590580694237
 30
0.0
 10
252.5597847101719
 20
82.3547143622033
 30
0.0
 10
252.4784498236015
 20
82.28506208551767
 30
0.0
 10
252.3958358590215
 20
82.21693019386959
 30
0.0
 10
252.307649322245
 20
82.14682295427096
 30
0.0
 10
252.2137388970113
 20
82.07498873113829
 30
0.0
 10
252.1139085655074
 20
82.00176158652148
 30
0.0
 10
252.0126199263887
 20
81.93056496878097
 30
0.0
 10
251.9099108664144
 20
81.86143813247357
 30
0.0
 10
251.8058174891066
 20
81.79441887219741
 30
0.0
 10
251.7003773037343
 20
81.7295440673978
 30
0.0
 10
251.5936260718143
 20
81.6668497010643
 30
0.0
 10
251.4855986384866
 20
81.60637143294086
 30
0.0
 10
251.3763343305208
 20
81.5481477991501
 30
0.0
 10
251.2658710577682
 20
81.49222141104752
 30
0.0
 10
251.15425222862
 20
81.43863743492754
 30
0.0
 10
251.0415228389107
 20
81.38744133321579
 30
0.0
 10
250.9277252865973
 20
81.33867700351664
 30
0.0
 10
250.8129035259944
 20
81.29239000287302
 30
0.0
 10
250.6970980326991
 20
81.24862466094002
 30
0.0
 10
250.5815726953763
 20
81.2078576808957
 30
0.0
 10
250.4664073167681
 20
81.17004204611173
 30
0.0
 10
250.3516928856083
 20
81.13508012384443
 30
0.0
 10
250.2362609036396
 20
81.10256461096466
 30
0.0
 10
250.1201653766344
 20
81.07249003889613
 30
0.0
 10
250.0034626187928
 20
81.04485174143963
 30
0.0
 10
249.8862075041698
 20
81.01964527115874
 30
0.0
 10
249.7684569893075
 20
80.99686642498054
 30
0.0
 10
249.6502279220382
 20
80.97650378678023
 30
0.0
 10
249.5315716318518
 20
80.95855452267269
 30
0.0
 10
249.4125390857474
 20
80.94301509450136
 30
0.0
 10
249.2932169006219
 20
80.92988472153628
 30
0.0
 10
249.1736552664027
 20
80.91915711822273
 30
0.0
 10
249.0539032621435
 20
80.91082586275473
 30
0.0
 10
248.9340092855166
 20
80.90488398860651
 30
0.0
 10
248.8140208516036
 20
80.90132451053158
 30
0.0
 10
248.693985383956
 20
80.90014037835735
 30
0.0
 10
248.5739499163085
 20
80.9013245105315
 30
0.0
 10
248.4539614823954
 20
80.90488398860647
 30
0.0
 10
248.3340675057685
 20
80.91082586275466
 30
0.0
 10
248.214315501509
 20
80.91915711822273
 30
0.0
 10
248.0947538672897
 20
80.92988472153638
 30
0.0
 10
247.9754316821642
 20
80.9430150945014
 30
0.0
 10
247.85639913606
 20
80.95855452267276
 30
0.0
 10
247.7377428458739
 20
80.97650378678027
 30
0.0
 10
247.6195137786051
 20
80.99686642498072
 30
0.0
 10
247.5017632637431
 20
81.01964527115898
 30
0.0
 10
247.3845081491203
 20
81.04485174143983
 30
0.0
 10
247.2678053912784
 20
81.07249003889616
 30
0.0
 10
247.1517098642731
 20
81.10256461096472
 30
0.0
 10
247.0362778823043
 20
81.13508012384442
 30
0.0
 10
246.9215634511445
 20
81.17004204611173
 30
0.0
 10
246.8063980725363
 20
81.20785768089569
 30
0.0
 10
246.6908727352135
 20
81.2486246609401
 30
0.0
 10
246.5750672419179
 20
81.29239000287303
 30
0.0
 10
246.4602454813148
 20
81.33867700351666
 30
0.0
 10
246.3464479290012
 20
81.38744133321573
 30
0.0
 10
246.233718539292
 20
81.43863743492763
 30
0.0
 10
246.1220997101443
 20
81.49222141104775
 30
0.0
 10
246.0116364373916
 20
81.54814779915023
 30
0.0
 10
245.9023721294259
 20
81.60637143294116
 30
0.0
 10
245.7943446960978
 20
81.6668497010644
 30
0.0
 10
245.6875934641777
 20
81.72954406739775
 30
0.0
 10
245.5821532788055
 20
81.79441887219753
 30
0.0
 10
245.4780599014978
 20
81.86143813247365
 30
0.0
 10
245.3753508415234
 20
81.93056496878091
 30
0.0
 10
245.2740622024045
 20
82.0017615865213
 30
0.0
 10
245.1742318709008
 20
82.07498873113812
 30
0.0
 10
245.0803214456674
 20
82.14682295427089
 30
0.0
 10
244.992134908891
 20
82.21693019386949
 30
0.0
 10
244.9095209443112
 20
82.2850620855176
 30
0.0
 10
244.8281860577408
 20
82.35471436220323
 30
0.0
 10
244.748208659159
 20
82.42590580694227
 30
0.0
 10
244.6696618880345
 20
82.49865918929802
 30
0.0
 10
244.5926216839754
 20
82.57299321110955
 30
0.0
 10
244.5171604945334
 20
82.64893063211346
 30
0.0
 10
244.4431993172197
 20
82.7266547167203
 30
0.0
 10
244.3708375249834
 20
82.8061879685858
 30
0.0
 10
244.3001498624039
 20
82.88752446757204
 30
0.0
 10
244.2313570217086
 20
82.97047061639094
 30
0.0
 10
244.164520744297
 20
83.05500811356646
 30
0.0
 10
244.0997077616619
 20
83.14111295403093
 30
0.0
 10
244.0369860118878
 20
83.2287602820478
 30
0.0
 10
243.976428328806
 20
83.31791810706284
 30
0.0
 10
243.919458354831
 20
83.40645369909703
 30
0.0
 10
243.8659661565037
 20
83.4942170632998
 30
0.0
 10
243.8159147900941
 20
83.58111407865466
 30
0.0
 10
243.7681493075665
 20
83.6692876621675
 30
0.0
 10
243.7228033121624
 20
83.758769525232
 30
0.0
 10
243.6800345618787
 20
83.8495522938459
 30
0.0
 10
243.6399911228507
 20
83.9416109552305
 30
0.0
 10
243.6028378753015
 20
84.03487611234117
 30
0.0
 10
243.5689416150022
 20
84.12871085167545
 30
0.0
 10
243.5383913843464
 20
84.2230305663934
 30
0.0
 10
243.5113291818047
 20
84.31776601225998
 30
0.0
 10
243.4877807255875
 20
84.41344271461226
 30
0.0
 10
243.4679861712024
 20
84.5098656100366
 30
0.0
 10
243.4521549671889
 20
84.60691396252163
 30
0.0
 10
243.440526301002
 20
84.70443789713651
 30
0.0
 10
243.4333362871254
 20
84.80237614704586
 30
0.0
 10
243.4308494550268
 20
84.90053508919692
 30
0.0
 10
243.4333362871254
 20
84.99869403134795
 30
0.0
 10
243.4405263010019
 20
85.09663228125733
 30
0.0
 10
243.452154967189
 20
85.1941562158722
 30
0.0
 10
243.4679861712023
 20
85.2912045683572
 30
0.0
 10
243.4877807255876
 20
85.38762746378157
 30
0.0
 10
243.5113291818045
 20
85.48330416613393
 30
0.0
 10
243.5383913843465
 20
85.57803961200051
 30
0.0
 10
243.5689416150023
 20
85.67235932671852
 30
0.0
 10
243.602837875302
 20
85.76619406605269
 30
0.0
 10
243.6399911228515
 20
85.8594592231632
 30
0.0
 10
243.680034561879
 20
85.95151788454785
 30
0.0
 10
243.7228033121626
 20
86.04230065316175
 30
0.0
 10
243.7681493075664
 20
86.13178251622625
 30
0.0
 10
243.8159147900941
 20
86.21995609973908
 30
0.0
 10
243.8659661565037
 20
86.30685311509411
 30
0.0
 10
243.9194583548309
 20
86.39461647929706
 30
0.0
 10
243.976428328806
 20
86.48315207133116
 30
0.0
 10
244.0369860118879
 20
86.57230989634598
 30
0.0
 10
244.099707761662
 20
86.65995722436296
 30
0.0
 10
244.1645207442969
 20
86.7460620648275
 30
0.0
 10
244.2313570217084
 20
86.8305995620031
 30
0.0
 10
244.3001498624038
 20
86.91354571082192
 30
0.0
 10
244.3708375249829
 20
86.99488220980857
 30
0.0
 10
244.443199317219
 20
87.07441546167414
 30
0.0
 10
244.5171604945328
 20
87.15213954628099
 30
0.0
 10
244.5926216839751
 20
87.22807696728461
 30
0.0
 10
244.6696618880339
 20
87.30241098909632
 30
0.0
 10
244.7482086591581
 20
87.37516437145202
 30
0.0
 10
244.8281860577397
 20
87.446355816191
 30
0.0
 10
244.9095209443102
 20
87.5160080928767
 30
0.0
 10
244.99213490889
 20
87.5841399845249
 30
0.0
 10
245.0803214456667
 20
87.6542472241236
 30
0.0
 10
245.1742318709002
 20
87.72608144725636
 30
0.0
 10
245.274062202404
 20
87.79930859187297
 30
0.0
 10
245.3753508415228
 20
87.87050520961331
 30
0.0
 10
245.4780599014973
 20
87.9396320459205
 30
0.0
 10
245.5821532788049
 20
88.00665130619655
 30
0.0
 10
245.6875934641774
 20
88.0715261109961
 30
0.0
 10
245.7943446960973
 20
88.13422047732945
 30
0.0
 10
245.9023721294249
 20
88.1946987454528
 30
0.0
 10
246.0116364373907
 20
88.25292237924351
 30
0.0
 10
246.1220997101435
 20
88.30884876734613
 30
0.0
 10
246.2337185392915
 20
88.36243274346623
 30
0.0
 10
246.3464479290009
 20
88.4136288451782
 30
0.0
 10
246.4602454813143
 20
88.46239317487749
 30
0.0
 10
246.5750672419172
 20
88.50868017552123
 30
0.0
 10
246.6908727352125
 20
88.55244551745415
 30
0.0
 10
246.8063980725352
 20
88.59321249749837
 30
0.0
 10
246.9215634511434
 20
88.63102813228211
 30
0.0
 10
247.0362778823033
 20
88.6659900545493
 30
0.0
 10
247.151709864272
 20
88.69850556742898
 30
0.0
 10
247.2678053912774
 20
88.72858013949745
 30
0.0
 10
247.3845081491194
 20
88.75621843695376
 30
0.0
 10
247.5017632637422
 20
88.78142490723442
 30
0.0
 10
247.6195137786047
 20
88.80420375341261
 30
0.0
 10
247.7377428458738
 20
88.82456639161296
 30
0.0
 10
247.85639913606
 20
88.84251565572059
 30
0.0
 10
247.9754316821642
 20
88.858055083892
 30
0.0
 10
248.0947538672897
 20
88.87118545685708
 30
0.0
 10
248.214315501509
 20
88.88191306017066
 30
0.0
 10
248.3340675057685
 20
88.89024431563878
 30
0.0
 10
248.4539614823954
 20
88.89618618978696
 30
0.0
 10
248.5739499163084
 20
88.8997456678617
 30
0.0
 10
248.6939853839559
 20
88.9009298000358
 30
0.0
 10
248.8140208516031
 20
88.8997456678617
 30
0.0
 10
248.9340092855162
 20
88.89618618978696
 30
0.0
 10
249.0539032621431
 20
88.8902443156388
 30
0.0
 10
249.1736552664026
 20
88.88191306017072
 30
0.0
 10
249.2932169006219
 20
88.87118545685708
 30
0.0
 10
249.4125390857473
 20
88.85805508389197
 30
0.0
 10
249.5315716318517
 20
88.84251565572055
 30
0.0
 10
249.6502279220379
 20
88.82456639161302
 30
0.0
 10
249.7684569893069
 20
88.8042037534126
 30
0.0
 10
249.8862075041693
 20
88.78142490723445
 30
0.0
 10
250.0034626187922
 20
88.75621843695373
 30
0.0
 10
250.1201653766342
 20
88.72858013949747
 30
0.0
 10
250.2362609036395
 20
88.69850556742894
 30
0.0
 10
250.3516928856083
 20
88.66599005454914
 30
0.0
 10
250.4664073167682
 20
88.63102813228163
 30
0.0
 10
250.5815726953764
 20
88.5932124974975
 30
0.0
 10
250.6970980326991
 20
88.55244551745312
 30
0.0
 10
250.8129035259944
 20
88.5086801755202
 30
0.0
 10
250.9277252865973
 20
88.4623931748765
 30
0.0
 10
251.0415228389106
 20
88.41362884517736
 30
0.0
 10
251.1542522286201
 20
88.36243274346575
 30
0.0
 10
251.2658710577682
 20
88.30884876734594
 30
0.0
 10
251.3763343305208
 20
88.25292237924351
 30
0.0
 10
251.4855986384868
 20
88.19469874545277
 30
0.0
 10
251.5936260718143
 20
88.13422047732948
 30
0.0
 10
251.7003773037343
 20
88.07152611099606
 30
0.0
 10
251.8058174891067
 20
88.00665130619659
 30
0.0
 10
251.9099108664142
 20
87.93963204592043
 30
0.0
 10
252.0126199263887
 20
87.87050520961336
 30
0.0
 10
252.1139085655075
 20
87.79930859187297
 30
0.0
 10
252.2137388970113
 20
87.7260814472563
 30
0.0
 10
252.3076493222449
 20
87.65424722412362
 30
0.0
 10
252.3958358590216
 20
87.58413998452491
 30
0.0
 10
252.4784498236014
 20
87.51600809287669
 30
0.0
 10
252.5597847101719
 20
87.446355816191
 30
0.0
 10
252.6397621087536
 20
87.375164371452
 30
0.0
 10
252.7183088798781
 20
87.3024109890963
 30
0.0
 10
252.7953490839372
 20
87.22807696728482
 30
0.0
 10
252.8708102733793
 20
87.15213954628103
 30
0.0
 10
252.9447714506927
 20
87.07441546167412
 30
0.0
 10
253.0171332429288
 20
86.99488220980842
 30
0.0
 10
253.0878209055079
 20
86.91354571082195
 30
0.0
 10
253.1566137462031
 20
86.83059956200309
 30
0.0
 10
253.2234500236146
 20
86.7460620648275
 30
0.0
 10
253.2882630062498
 20
86.65995722436297
 30
0.0
 10
253.3509847560231
 20
86.57230989634603
 30
0.0
 10
253.4115424391078
 20
86.48315207133132
 30
0.0
 10
253.4685124130726
 20
86.39461647929625
 30
0.0
 10
253.5220046114358
 20
86.30685311509681
 30
0.0
 10
253.5720559777129
 20
86.21995609972898
 30
0.0
 10
253.6198214607354
 20
86.13178251626411
 30
0.0
 10
253.665167454292
 20
86.04230065302038
 30
0.0
 10
253.7079362114762
 20
85.95151788507594
 30
0.0
 10
253.7479796247443
 20
85.85945922119218
 30
0.0
 10
253.7851329684318
 20
85.76619407340894
 30
0.0
 10
253.8190288721741
 20
85.6723592994816
 30
0.0
 10
253.8495804094813
 20
85.57803971153487
 30
0.0
 10
253.8766377547054
 20
85.4833037944117
 30
0.0
 10
253.9002043443742
 20
85.3876288513654
 30
0.0
 10
253.919931293492
 20
85.29119939688344
 30
0.0
 10
253.9360140194825
 20
85.19417544704021
 30
0.0
 10
253.9431422109737
 20
85.12908935498868
 30
0.0
 10
253.9467063346092
 20
85.09654605430528
 30
0.0
 11
253.9467063346092
 21
85.09654605430524
 31
0.0
 11
253.9538509219612
 21
84.99865225186615
 31
0.0
 11
253.9562923875433
 21
84.90053508919681
 31
0.0
 11
253.9538509219613
 21
84.80241792652754
 31
0.0
 11
253.9467063346092
 21
84.70452412408846
 31
0.0
 11
253.9351184189594
 21
84.60701243732086
 31
0.0
 11
253.9193463600662
 21
84.5100910816834
 31
0.0
 11
253.8995677424879
 21
84.41358355933593
 31
0.0
 11
253.8760544765473
 21
84.31791729846788
 31
0.0
 11
253.8490300444615
 21
84.22319856652379
 31
0.0
 11
253.8187080833641
 21
84.12948272479927
 31
0.0
 11
253.7846254208871
 21
84.03506894868022
 31
0.0
 11
253.7474974866077
 21
83.9418109332882
 31
0.0
 11
253.7074793894167
 21
83.84975941609524
 31
0.0
 11
253.6647196483715
 21
83.75894897415752
 31
0.0
 11
253.6194156035099
 21
83.66950054874069
 31
0.0
 11
253.5716757894247
 21
83.58132825633797
 31
0.0
 11
253.5216482366926
 21
83.49442887748194
 31
0.0
 11
253.4694800899246
 21
83.40879635405273
 31
0.0
 11
253.4111697976602
 21
83.31816455814365
 31
0.0
 11
253.3506234353237
 21
83.2290111094096
 31
0.0
 11
253.2879138965634
 21
83.1413692704785
 31
0.0
 11
253.2231094086294
 21
83.05526493140495
 31
0.0
 11
253.1562871365755
 21
82.97073519049547
 31
0.0
 11
253.0875048400604
 21
82.8877924344808
 31
0.0
 11
253.0168278281915
 21
82.80645949747617
 31
0.0
 11
252.9443185759964
 21
82.72675602238706
 31
0.0
 11
252.8705333482384
 21
82.64920011690172
 31
0.0
 11
252.7950857070134
 21
82.5732602396451
 31
0.0
 11
252.7180589346199
 21
82.49892369255346
 31
0.0
 11
252.6395319786595
 21
82.42617367381031
 31
0.0
 11
252.5595597436004
 21
82.35497202703539
 31
0.0
 11
252.4782376918973
 21
82.28531636302924
 31
0.0
 11
252.3956346142454
 21
82.21717934485909
 31
0.0
 11
252.3118214489222
 21
82.15053508916881
 31
0.0
 11
252.2134901494775
 21
82.07532101531172
 31
0.0
 11
252.1136654792057
 21
82.00209998280798
 31
0.0
 11
252.0123827774124
 21
81.93090965430065
 31
0.0
 11
251.9096775006093
 21
81.86178765293536
 31
0.0
 11
251.8055926559661
 21
81.79477604605124
 31
0.0
 11
251.7001588437226
 21
81.7299075025229
 31
0.0
 11
251.5934140305555
 21
81.66721941992505
 31
0.0
 11
251.4853970567586
 21
81.60674969858876
 31
0.0
 11
251.3761352010027
 21
81.54853104417421
 31
0.0
 11
251.2656787864374
 21
81.49261197153993
 31
0.0
 11
251.1540664601009
 21
81.43903510848942
 31
0.0
 11
251.0413398053552
 21
81.38784441923728
 31
0.0
 11
250.9275537766617
 21
81.3390895480514
 31
0.0
 11
250.8127386056487
 21
81.29280990296681
 31
0.0
 11
250.6969414342687
 21
81.24905264422519
 31
0.0
 11
250.580206465849
 21
81.2078639539369
 31
0.0
 11
250.4662780701985
 21
81.17045054486164
 31
0.0
 11
250.3515737420599
 21
81.13548799023272
 31
0.0
 11
250.2361508997176
 21
81.10297158783042
 31
0.0
 11
250.1200678961935
 21
81.07289700803969
 31
0.0
 11
250.00337106483
 21
81.04525716631102
 31
0.0
 11
249.8861247329106
 21
81.02004983340977
 31
0.0
 11
249.7683831970641
 21
80.99727015330328
 31
0.0
 11
249.6501987560547
 21
80.97691281480132
 31
0.0
 11
249.5315149328885
 21
80.95895707131949
 31
0.0
 11
249.4124907586835
 21
80.94341659722403
 31
0.0
 11
249.2931769187537
 21
80.93028517637629
 31
0.0
 11
249.1736230749422
 21
80.91955647265644
 31
0.0
 11
249.0538795499452
 21
80.91122408910644
 31
0.0
 11
248.9339936999025
 21
80.90528106080187
 31
0.0
 11
248.8140130609715
 21
80.90172040268854
 31
0.0
 11
248.693985383956
 21
80.90053508915611
 31
0.0
 11
248.5739577069405
 21
80.90172040268848
 31
0.0
 11
248.4539770680097
 21
80.9052810608018
 31
0.0
 11
248.3340912179668
 21
80.91122408910637
 31
0.0
 11
248.2143476929695
 21
80.91955647265644
 31
0.0
 11
248.0947938491579
 21
80.93028517637637
 31
0.0
 11
247.975480009228
 21
80.94341659722411
 31
0.0
 11
247.8564558350231
 21
80.95895707131957
 31
0.0
 11
247.7377720118573
 21
80.97691281480141
 31
0.0
 11
247.6195875708486
 21
80.99727015330342
 31
0.0
 11
247.5018460350025
 21
81.02004983340994
 31
0.0
 11
247.3845997030832
 21
81.04525716631117
 31
0.0
 11
247.2679028717194
 21
81.07289700803976
 31
0.0
 11
247.151819868195
 21
81.10297158783047
 31
0.0
 11
247.0363970258528
 21
81.13548799023273
 31
0.0
 11
246.9216926977141
 21
81.17045054486164
 31
0.0
 11
246.8077643020636
 21
81.20786395393688
 31
0.0
 11
246.6910293336439
 21
81.24905264422522
 31
0.0
 11
246.5752321622637
 21
81.29280990296684
 31
0.0
 11
246.4604169912504
 21
81.33908954805143
 31
0.0
 11
246.3466309625566
 21
81.38784441923734
 31
0.0
 11
246.2339043078111
 21
81.43903510848952
 31
0.0
 11
246.122291981475
 21
81.49261197154009
 31
0.0
 11
246.0118355669099
 21
81.54853104417437
 31
0.0
 11
245.902573711154
 21
81.60674969858891
 31
0.0
 11
245.7945567373567
 21
81.66721941992517
 31
0.0
 11
245.6878119241892
 21
81.729907502523
 31
0.0
 11
245.582378111946
 21
81.79477604605131
 31
0.0
 11
245.4782932673029
 21
81.86178765293539
 31
0.0
 11
245.3755879904996
 21
81.93090965430059
 31
0.0
 11
245.2743052887062
 21
82.00209998280786
 31
0.0
 11
245.1744806184345
 21
82.07532101531157
 31
0.0
 11
245.0761493189901
 21
82.15053508916873
 31
0.0
 11
244.9923361536671
 21
82.21717934485898
 31
0.0
 11
244.9097330760153
 21
82.28531636302912
 31
0.0
 11
244.8284110243123
 21
82.35497202703529
 31
0.0
 11
244.7484387892532
 21
82.42617367381021
 31
0.0
 11
244.6699118332928
 21
82.49892369255348
 31
0.0
 11
244.5928850608992
 21
82.57326023964515
 31
0.0
 11
244.5174374196742
 21
82.64920011690178
 31
0.0
 11
244.4436521919161
 21
82.72675602238706
 31
0.0
 11
244.3711429397206
 21
82.8064594974762
 31
0.0
 11
244.3004659278513
 21
82.88779243448082
 31
0.0
 11
244.2316836313361
 21
82.97073519049555
 31
0.0
 11
244.1648613592822
 21
83.05526493140503
 31
0.0
 11
244.1000568713481
 21
83.14136927047855
 31
0.0
 11
244.037347332588
 21
83.22901110940961
 31
0.0
 11
243.9768009702515
 21
83.31816455814372
 31
0.0
 11
243.918490677987
 21
83.40879635405281
 31
0.0
 11
243.8663225312189
 21
83.494428877482
 31
0.0
 11
243.8162949784869
 21
83.58132825633798
 31
0.0
 11
243.7685551644016
 21
83.66950054874069
 31
0.0
 11
243.7232511195399
 21
83.7589489741575
 31
0.0
 11
243.6804913784944
 21
83.84975941609522
 31
0.0
 11
243.6404732813032
 21
83.9418109332882
 31
0.0
 11
243.6033453470241
 21
84.03506894868023
 31
0.0
 11
243.5692626845474
 21
84.12948272479929
 31
0.0
 11
243.53894072345
 21
84.22319856652382
 31
0.0
 11
243.5119162913643
 21
84.3179172984679
 31
0.0
 11
243.4884030254236
 21
84.41358355933599
 31
0.0
 11
243.4686244078454
 21
84.51009108168348
 31
0.0
 11
243.4528523489522
 21
84.6070124373209
 31
0.0
 11
243.4412644333024
 21
84.70452412408852
 31
0.0
 11
243.4341198459503
 21
84.80241792652762
 31
0.0
 11
243.4316783803683
 21
84.9005350891969
 31
0.0
 11
243.4341198459503
 21
84.9986522518662
 31
0.0
 11
243.4412644333024
 21
85.09654605430534
 31
0.0
 11
243.4528523489522
 21
85.1940577410729
 31
0.0
 11
243.4686244078454
 21
85.29097909671034
 31
0.0
 11
243.4884030254237
 21
85.38748661905787
 31
0.0
 11
243.5119162913643
 21
85.48315287992597
 31
0.0
 11
243.5389407234501
 21
85.57787161187008
 31
0.0
 11
243.5692626845475
 21
85.67158745359463
 31
0.0
 11
243.6033453470245
 21
85.76600122971362
 31
0.0
 11
243.6404732813039
 21
85.85925924510562
 31
0.0
 11
243.6804913784949
 21
85.95131076229855
 31
0.0
 11
243.72325111954
 21
86.04212120423621
 31
0.0
 11
243.7685551644016
 21
86.13156962965299
 31
0.0
 11
243.8162949784869
 21
86.21974192205573
 31
0.0
 11
243.8663225312189
 21
86.30664130091193
 31
0.0
 11
243.918490677987
 21
86.3922738243413
 31
0.0
 11
243.9768009702515
 21
86.48290562025029
 31
0.0
 11
244.037347332588
 21
86.5720590689842
 31
0.0
 11
244.1000568713481
 21
86.65970090791531
 31
0.0
 11
244.1648613592821
 21
86.74580524698891
 31
0.0
 11
244.2316836313361
 21
86.83033498789848
 31
0.0
 11
244.3004659278512
 21
86.91327774391327
 31
0.0
 11
244.3711429397201
 21
86.99461068091807
 31
0.0
 11
244.4436521919154
 21
87.07431415600732
 31
0.0
 11
244.5174374196737
 21
87.15187006149263
 31
0.0
 11
244.5928850608989
 21
87.2278099387492
 31
0.0
 11
244.6699118332922
 21
87.30214648584084
 31
0.0
 11
244.7484387892523
 21
87.37489650458402
 31
0.0
 11
244.8284110243112
 21
87.44609815135892
 31
0.0
 11
244.9097330760142
 21
87.5157538153651
 31
0.0
 11
244.9923361536662
 21
87.58389083353539
 31
0.0
 11
245.0761493189894
 21
87.65053508922577
 31
0.0
 11
245.174480618434
 21
87.72574916308291
 31
0.0
 11
245.2743052887059
 21
87.79897019558653
 31
0.0
 11
245.3755879904991
 21
87.87016052409363
 31
0.0
 11
245.4782932673023
 21
87.93928252545871
 31
0.0
 11
245.5823781119454
 21
88.0062941323427
 31
0.0
 11
245.687811924189
 21
88.07116267587098
 31
0.0
 11
245.7945567373561
 21
88.13385075846872
 31
0.0
 11
245.9025737111529
 21
88.19432047980486
 31
0.0
 11
246.0118355669089
 21
88.2525391342194
 31
0.0
 11
246.1222919814742
 21
88.30845820685373
 31
0.0
 11
246.2339043078106
 21
88.36203506990438
 31
0.0
 11
246.3466309625564
 21
88.41322575915669
 31
0.0
 11
246.46041699125
 21
88.46198063034275
 31
0.0
 11
246.5752321622629
 21
88.5082602754274
 31
0.0
 11
246.6910293336429
 21
88.55201753416898
 31
0.0
 11
246.8077643020625
 21
88.59320622445713
 31
0.0
 11
246.9216926977131
 21
88.63061963353223
 31
0.0
 11
247.0363970258516
 21
88.665582188161
 31
0.0
 11
247.1518198681939
 21
88.69809859056319
 31
0.0
 11
247.2679028717184
 21
88.72817317035388
 31
0.0
 11
247.3845997030821
 21
88.75581301208238
 31
0.0
 11
247.5018460350016
 21
88.78102034498347
 31
0.0
 11
247.6195875708481
 21
88.8038000250899
 31
0.0
 11
247.7377720118573
 21
88.82415736359188
 31
0.0
 11
247.8564558350231
 21
88.84211310707377
 31
0.0
 11
247.9754800092281
 21
88.8576535811693
 31
0.0
 11
248.0947938491579
 21
88.87078500201707
 31
0.0
 11
248.2143476929695
 21
88.88151370573698
 31
0.0
 11
248.3340912179668
 21
88.88984608928705
 31
0.0
 11
248.4539770680097
 21
88.89578911759159
 31
0.0
 11
248.5739577069405
 21
88.89934977570476
 31
0.0
 11
248.6939853839559
 21
88.90053508923708
 31
0.0
 11
248.8140130609711
 21
88.89934977570476
 31
0.0
 11
248.9339936999019
 21
88.89578911759159
 31
0.0
 11
249.0538795499447
 21
88.88984608928706
 31
0.0
 11
249.173623074942
 21
88.881513705737
 31
0.0
 11
249.2931769187537
 21
88.87078500201709
 31
0.0
 11
249.4124907586835
 21
88.85765358116929
 31
0.0
 11
249.5315149328885
 21
88.84211310707376
 31
0.0
 11
249.6501987560544
 21
88.8241573635919
 31
0.0
 11
249.7683831970635
 21
88.8038000250899
 31
0.0
 11
249.88612473291
 21
88.78102034498347
 31
0.0
 11
250.0033710648295
 21
88.75581301208237
 31
0.0
 11
250.1200678961932
 21
88.72817317035387
 31
0.0
 11
250.2361508997176
 21
88.69809859056318
 31
0.0
 11
250.3515737420598
 21
88.66558218816084
 31
0.0
 11
250.4662780701985
 21
88.63061963353172
 31
0.0
 11
250.5802064658491
 21
88.5932062244563
 31
0.0
 11
250.6969414342687
 21
88.55201753416797
 31
0.0
 11
250.8127386056487
 21
88.50826027542638
 31
0.0
 11
250.9275537766616
 21
88.46198063034174
 31
0.0
 11
251.0413398053552
 21
88.41322575915586
 31
0.0
 11
251.1540664601009
 21
88.36203506990388
 31
0.0
 11
251.2656787864375
 21
88.30845820685354
 31
0.0
 11
251.3761352010027
 21
88.25253913421938
 31
0.0
 11
251.4853970567586
 21
88.19432047980487
 31
0.0
 11
251.5934140305556
 21
88.13385075846872
 31
0.0
 11
251.7001588437226
 21
88.07116267587097
 31
0.0
 11
251.8055926559662
 21
88.00629413234273
 31
0.0
 11
251.9096775006093
 21
87.93928252545871
 31
0.0
 11
252.0123827774125
 21
87.87016052409363
 31
0.0
 11
252.1136654792057
 21
87.79897019558649
 31
0.0
 11
252.2134901494775
 21
87.72574916308288
 31
0.0
 11
252.3118214489222
 21
87.65053508922577
 31
0.0
 11
252.3956346142454
 21
87.58389083353539
 31
0.0
 11
252.4782376918973
 21
87.51575381536517
 31
0.0
 11
252.5595597436004
 21
87.44609815135894
 31
0.0
 11
252.6395319786595
 21
87.37489650458402
 31
0.0
 11
252.7180589346198
 21
87.30214648584085
 31
0.0
 11
252.7950857070133
 21
87.22780993874925
 31
0.0
 11
252.8705333482384
 21
87.15187006149266
 31
0.0
 11
252.9443185759964
 21
87.07431415600733
 31
0.0
 11
253.0168278281915
 21
86.99461068091803
 31
0.0
 11
253.0875048400605
 21
86.9132777439132
 31
0.0
 11
253.1562871365755
 21
86.83033498789848
 31
0.0
 11
253.2231094086295
 21
86.74580524698894
 31
0.0
 11
253.2879138965635
 21
86.65970090791534
 31
0.0
 11
253.3506234353237
 21
86.57205906898425
 31
0.0
 11
253.4111697976601
 21
86.48290562025026
 31
0.0
 11
253.4694800899246
 21
86.39227382434126
 31
0.0
 11
253.5216482366926
 21
86.30664130091193
 31
0.0
 11
253.5716757894247
 21
86.21974192205577
 31
0.0
 11
253.61941560351
 21
86.131569629653
 31
0.0
 11
253.6647196483715
 21
86.04212120423618
 31
0.0
 11
253.7074793894167
 21
85.95131076229852
 31
0.0
 11
253.7474974866077
 21
85.85925924510559
 31
0.0
 11
253.7846254208871
 21
85.76600122971362
 31
0.0
 11
253.8187080833641
 21
85.67158745359461
 31
0.0
 11
253.8490300444615
 21
85.57787161187012
 31
0.0
 11
253.8760544765472
 21
85.48315287992608
 31
0.0
 11
253.8995677424879
 21
85.38748661905792
 31
0.0
 11
253.9193463600662
 21
85.29097909671039
 31
0.0
 11
253.9351184189594
 21
85.1940577410729
 31
0.0
 11
253.9467063346092
 21
85.09654605430528
 31
0.0
  0
SPLINE
  5
1CF
330
1F
100
AcDbEntity
  8
1
  6
Continuous
 62
     3
100
AcDbSpline
210
0.0
220
0.0
230
1.0
 70
    11
 71
     3
 72
    79
 73
    75
 74
    73
 42
0.0000000001
 43
0.0000000001
 44
0.00000001
 40
0.0
 40
0.0
 40
0.0
 40
0.0
 40
0.3448270448573738
 40
0.6892389050689669
 40
1.060856423047055
 40
1.431935000710404
 40
1.841203106162927
 40
2.250037731191703
 40
2.701375240838196
 40
3.152419381621027
 40
3.644726594076465
 40
4.136846610618379
 40
4.664838046941359
 40
5.192714300182446
 40
5.748134769998264
 40
6.303489079004755
 40
6.87611203451527
 40
7.448704805889479
 40
8.02717502709065
 40
8.605645248291856
 40
9.178238019666148
 40
9.750860975176707
 40
10.30621528418319
 40
10.86163575399897
 40
11.38951200724
 40
11.91750344356299
 40
12.40962346010493
 40
12.90193067256038
 40
13.3529748133432
 40
13.80431232298969
 40
14.21314694801841
 40
14.62241505347091
 40
14.99349363113426
 40
15.36511114911234
 40
15.70952300932395
 40
16.05435005418134
 40
16.38920035530405
 40
16.72405065642699
 40
17.06887770128478
 40
17.41328956149651
 40
17.78490707947459
 40
18.15598565713793
 40
18.56525376259042
 40
18.97408838761918
 40
19.42542589726565
 40
19.87647003804848
 40
20.36877725050394
 40
20.86089726704588
 40
21.38888870336886
 40
21.91676495660988
 40
22.47218542642563
 40
23.02753973543205
 40
23.60016269094257
 40
24.17275546231687
 40
24.7512256835181
 40
25.32969590471927
 40
25.90228867609349
 40
26.47491163160397
 40
27.03026594061039
 40
27.58568641042618
 40
28.11356266366725
 40
28.64155409999024
 40
29.13367411653217
 40
29.6259813289876
 40
30.07702546977041
 40
30.52836297941693
 40
30.93719760444569
 40
31.34646570989816
 40
31.71754428756148
 40
32.08916180553958
 40
32.43357366575133
 40
32.77840071060912
 40
33.11325101173208
 40
33.44810131285476
 40
33.44810131285476
 40
33.44810131285476
 40
33.44810131285476
 10
116.3477189370329
 20
51.27460660222803
 30
0.0
 10
116.4606869854136
 20
51.29702517106685
 30
0.0
 10
116.686487064424
 20
51.34183531594997
 30
0.0
 10
117.0157874466238
 20
51.47560774317996
 30
0.0
 10
117.3331626237854
 20
51.65200743613477
 30
0.0
 10
117.6430803832343
 20
51.88033604936754
 30
0.0
 10
117.9349775967286
 20
52.14960506380122
 30
0.0
 10
118.2161835047004
 20
52.4666116578392
 30
0.0
 10
118.4756772230309
 20
52.81902151394963
 30
0.0
 10
118.720397046588
 20
53.21481094083047
 30
0.0
 10
118.9408686502
 20
53.63997042268013
 30
0.0
 10
119.1422796786785
 20
54.10250158941665
 30
0.0
 10
119.3175864952204
 20
54.58816954456927
 30
0.0
 10
119.469991265302
 20
55.10348571631526
 30
0.0
 10
119.594938330943
 20
55.63551390264451
 30
0.0
 10
119.6940153996833
 20
56.18808677475899
 30
0.0
 10
119.7647334580704
 20
56.75077027288218
 30
0.0
 10
119.8077244377739
 20
57.32396015466919
 30
0.0
 10
119.8219032448425
 20
57.90053508915268
 30
0.0
 10
119.8077244377757
 20
58.47711002365679
 30
0.0
 10
119.764733458063
 20
59.05029990538266
 30
0.0
 10
119.6940153997107
 20
59.61298340372768
 30
0.0
 10
119.5949383308441
 20
60.16555627503941
 30
0.0
 10
119.4699912656636
 20
60.69758446429603
 30
0.0
 10
119.3175864939452
 20
61.21290062563422
 30
0.0
 10
119.1422796833101
 20
61.69856861834664
 30
0.0
 10
118.9408686342124
 20
62.16109965397115
 30
0.0
 10
118.7203971043019
 20
62.58625960447024
 30
0.0
 10
118.4756770275526
 20
62.98204742136642
 30
0.0
 10
118.2161842077808
 20
63.33446299118214
 30
0.0
 10
117.9349752448383
 20
63.65145015944039
 30
0.0
 10
117.6430888526346
 20
63.92078798370319
 30
0.0
 10
117.333134257686
 20
64.14888236937894
 30
0.0
 10
117.0158905405926
 20
64.3261179834122
 30
0.0
 10
116.6861332891137
 20
64.45698529530353
 30
0.0
 10
116.3522966521701
 20
64.53414017084975
 30
0.0
 10
116.0138904120189
 20
64.561698069505
 30
0.0
 10
115.6754841718676
 20
64.53414017084972
 30
0.0
 10
115.3416475349236
 20
64.4569852953036
 30
0.0
 10
115.0118902834445
 20
64.3261179834122
 30
0.0
 10
114.6946465663511
 20
64.14888236937897
 30
0.0
 10
114.3846919714025
 20
63.92078798370319
 30
0.0
 10
114.0928055791988
 20
63.65145015944036
 30
0.0
 10
113.8115966162563
 20
63.33446299118218
 30
0.0
 10
113.5521037964845
 20
62.98204742136637
 30
0.0
 10
113.3073837197352
 20
62.58625960447026
 30
0.0
 10
113.0869121898247
 20
62.16109965397118
 30
0.0
 10
112.885501140727
 20
61.69856861834663
 30
0.0
 10
112.7101943300919
 20
61.21290062563424
 30
0.0
 10
112.5577895583735
 20
60.69758446429603
 30
0.0
 10
112.432842493193
 20
60.16555627503944
 30
0.0
 10
112.3337654243269
 20
59.6129834037276
 30
0.0
 10
112.2630473659751
 20
59.05029990538284
 30
0.0
 10
112.2200563862618
 20
58.47711002365596
 30
0.0
 10
112.2058775791954
 20
57.90053508915589
 30
0.0
 10
112.2200563862616
 20
57.3239601546573
 30
0.0
 10
112.2630473659756
 20
56.75077027292611
 30
0.0
 10
112.333765424325
 20
56.18808677459712
 30
0.0
 10
112.4328424932001
 20
55.63551390322847
 30
0.0
 10
112.5577895583479
 20
55.10348571417894
 30
0.0
 10
112.7101943301821
 20
54.58816955210447
 30
0.0
 10
112.8855011403993
 20
54.10250156204895
 30
0.0
 10
113.0869121909556
 20
53.63997051714991
 30
0.0
 10
113.3073837156526
 20
53.21481059980183
 30
0.0
 10
113.5521038103121
 20
52.81902266901978
 30
0.0
 10
113.8115965665223
 20
52.4666075033759
 30
0.0
 10
114.092805745565
 20
52.14961896099105
 30
0.0
 10
114.3846913723003
 20
51.88028600414772
 30
0.0
 10
114.6946485728915
 20
51.65217504985407
 30
0.0
 10
115.0118829908586
 20
51.47499856659574
 30
0.0
 10
115.3416725600232
 20
51.34392575477644
 30
0.0
 10
115.675391558706
 20
51.26751891095959
 30
0.0
 10
116.014224982237
 20
51.23724466203652
 30
0.0
 10
116.2365542854343
 20
51.26215262216419
 30
0.0
 10
116.3477189370329
 20
51.27460660222803
 30
0.0
 11
116.3477189370329
 21
51.27460660222803
 31
0.0
 11
116.6836561435653
 21
51.35240045887669
 31
0.0
 11
117.0042834986182
 21
51.47816861321694
 31
0.0
 11
117.3290599416654
 21
51.65877825224491
 31
0.0
 11
117.6286463265874
 21
51.87774699149787
 31
0.0
 11
117.9301822519558
 21
52.15447152574247
 31
0.0
 11
118.2021791944198
 21
52.45969834945343
 31
0.0
 11
118.470670185634
 21
52.82249048725513
 31
0.0
 11
118.7084388094699
 21
53.20577484442833
 31
0.0
 11
118.9358707718299
 21
53.64239950467181
 31
0.0
 11
119.1327726924096
 21
54.09341141621432
 31
0.0
 11
119.3126721748383
 21
54.58980957601379
 31
0.0
 11
119.4626695329614
 21
55.09592629307809
 31
0.0
 11
119.590112445912
 21
55.63652799694989
 31
0.0
 11
119.6882768413944
 21
56.18313769316067
 31
0.0
 11
119.7599693318986
 21
56.75125496625039
 31
0.0
 11
119.802808790144
 21
57.32224293691812
 31
0.0
 11
119.8171609146025
 21
57.90053508915612
 31
0.0
 11
119.802808790144
 21
58.47882724139415
 31
0.0
 11
119.7599693318986
 21
59.04981521206196
 31
0.0
 11
119.6882768413944
 21
59.61793248515172
 31
0.0
 11
119.5901124459119
 21
60.16454218136249
 31
0.0
 11
119.4626695329614
 21
60.70514388523425
 31
0.0
 11
119.3126721748383
 21
61.21126060229849
 31
0.0
 11
119.1327726924096
 21
61.70765876209798
 31
0.0
 11
118.9358707718299
 21
62.1586706736405
 31
0.0
 11
118.7084388094699
 21
62.59529533388401
 31
0.0
 11
118.470670185634
 21
62.97857969105722
 31
0.0
 11
118.2021791944198
 21
63.34137182885888
 31
0.0
 11
117.9301822519559
 21
63.64659865256979
 31
0.0
 11
117.6286463265874
 21
63.92332318681434
 31
0.0
 11
117.3290599416654
 21
64.14229192606729
 31
0.0
 11
117.0042834986182
 21
64.3229015650953
 31
0.0
 11
116.6836561435653
 21
64.44866971943557
 31
0.0
 11
116.3477189370329
 21
64.52646357608425
 31
0.0
 11
116.0138904120189
 21
64.55260243698146
 31
0.0
 11
115.6800618870048
 21
64.52646357608425
 31
0.0
 11
115.344124680472
 21
64.44866971943557
 31
0.0
 11
115.0234973254189
 21
64.32290156509528
 31
0.0
 11
114.6987208823717
 21
64.1422919260673
 31
0.0
 11
114.3991344974497
 21
63.92332318681434
 31
0.0
 11
114.0975985720813
 21
63.6465986525698
 31
0.0
 11
113.8256016296173
 21
63.34137182885888
 31
0.0
 11
113.5571106384031
 21
62.97857969105721
 31
0.0
 11
113.3193420145672
 21
62.59529533388401
 31
0.0
 11
113.0919100522072
 21
62.1586706736405
 31
0.0
 11
112.8950081316274
 21
61.70765876209797
 31
0.0
 11
112.7151086491988
 21
61.21126060229849
 31
0.0
 11
112.5651112910757
 21
60.70514388523426
 31
0.0
 11
112.4376683781253
 21
60.16454218136249
 31
0.0
 11
112.3395039826432
 21
59.61793248515171
 31
0.0
 11
112.2678114921393
 21
59.04981521206196
 31
0.0
 11
112.2249720338937
 21
58.47882724139416
 31
0.0
 11
112.210619909435
 21
57.90053508915611
 31
0.0
 11
112.2249720338937
 21
57.32224293691812
 31
0.0
 11
112.2678114921393
 21
56.75125496625039
 31
0.0
 11
112.3395039826432
 21
56.18313769316067
 31
0.0
 11
112.4376683781253
 21
55.63652799694989
 31
0.0
 11
112.5651112910757
 21
55.09592629307809
 31
0.0
 11
112.7151086491988
 21
54.5898095760138
 31
0.0
 11
112.8950081316274
 21
54.09341141621431
 31
0.0
 11
113.0919100522072
 21
53.64239950467181
 31
0.0
 11
113.3193420145672
 21
53.20577484442832
 31
0.0
 11
113.5571106384031
 21
52.82249048725512
 31
0.0
 11
113.8256016296173
 21
52.45969834945343
 31
0.0
 11
114.0975985720813
 21
52.15447152574249
 31
0.0
 11
114.3991344974497
 21
51.87774699149798
 31
0.0
 11
114.6987208823717
 21
51.65877825224506
 31
0.0
 11
115.0234973254189
 21
51.47816861321704
 31
0.0
 11
115.344124680472
 21
51.35240045887672
 31
0.0
 11
115.6800618870048
 21
51.27460660222803
 31
0.0
 11
116.013890412019
 21
51.24846774133082
 31
0.0
 11
116.3477189370329
 21
51.27460660222803
 31
0.0
  0
SPLINE
  5
1D0
330
1F
100
AcDbEntity
  8
1
  6
Continuous
 62
     3
100
AcDbSpline
210
0.0
220
0.0
230
1.0
 70
    11
 71
     3
 72
    79
 73
    75
 74
    73
 42
0.0000000001
 43
0.0000000001
 44
0.00000001
 40
0.0
 40
0.0
 40
0.0
 40
0.0
 40
0.2918981282653506
 40
0.5837699563059188
 40
0.8794256887949036
 40
1.175035163849505
 40
1.476350608574941
 40
1.777609580401929
 40
2.085725085421029
 40
2.393783410214517
 40
2.708976176978807
 40
3.024118128591879
 40
3.345821561490466
 40
3.667484804593118
 40
3.994400571582006
 40
4.32128889029266
 40
4.651560944975504
 40
4.981819146280353
 40
5.313244503752139
 40
5.644669861224222
 40
5.974928062529353
 40
6.305200117211944
 40
6.632088435922289
 40
6.959004202911074
 40
7.280667446013799
 40
7.602370878912645
 40
7.917512830525988
 40
8.232705597290385
 40
8.540763922083904
 40
8.848879427103023
 40
9.15013839893
 40
9.451453843655438
 40
9.747063318710026
 40
10.04271905119902
 40
10.33459087923958
 40
10.62648900750495
 40
10.91706157256144
 40
11.20763413761794
 40
11.49953226588329
 40
11.79140409392385
 40
12.08705982641287
 40
12.38266930146761
 40
12.68398474619317
 40
12.98524371802001
 40
13.29335922303891
 40
13.60141754783236
 40
13.91661031459675
 40
14.23175226621008
 40
14.55345569910893
 40
14.87511894221164
 40
15.2020347092004
 40
15.52892302791075
 40
15.85919508259337
 40
16.18945328389851
 40
16.52087864137058
 40
16.8523039988424
 40
17.18256220014725
 40
17.51283425483005
 40
17.83972257354072
 40
18.16663834052964
 40
18.4883015836323
 40
18.81000501653085
 40
19.12514696814393
 40
19.44033973490819
 40
19.74839805970169
 40
20.05651356472079
 40
20.35777253654777
 40
20.65908798127322
 40
20.95469745632782
 40
21.2503531888168
 40
21.54222501685737
 40
21.83412314512271
 40
22.1246957101792
 40
22.41526827523571
 40
22.41526827523571
 40
22.41526827523571
 40
22.41526827523571
 10
119.8025932525776
 20
46.06638660146569
 30
0.0
 10
119.7901253701645
 20
46.16296686198595
 30
0.0
 10
119.7651907287032
 20
46.3561186810777
 30
0.0
 10
119.6910599860023
 20
46.64047813848627
 30
0.0
 10
119.5913915038831
 20
46.91785350963393
 30
0.0
 10
119.4633136033636
 20
47.18694497488404
 30
0.0
 10
119.3097728480716
 20
47.44447116143046
 30
0.0
 10
119.1303857891506
 20
47.68988755396175
 30
0.0
 10
118.9281873956597
 20
47.91986356925204
 30
0.0
 10
118.7029965518188
 20
48.13414087288777
 30
0.0
 10
118.4583997268671
 20
48.32973286992605
 30
0.0
 10
118.1943602110283
 20
48.50643302914605
 30
0.0
 10
117.9147954603212
 20
48.66185570042732
 30
0.0
 10
117.6199945002602
 20
48.79572060495615
 30
0.0
 10
117.3138831479759
 20
48.90637271344818
 30
0.0
 10
116.9972870179547
 20
48.99345490069381
 30
0.0
 10
116.6738189298142
 20
49.05603992978915
 30
0.0
 10
116.345007018828
 20
49.0938017595666
 30
0.0
 10
116.0138904120199
 20
49.10642620381682
 30
0.0
 10
115.6827738052053
 20
49.09380175956694
 30
0.0
 10
115.3539618942386
 20
49.0560399297877
 30
0.0
 10
115.0304938060264
 20
48.99345490069949
 30
0.0
 10
114.7138976762702
 20
48.90637271342723
 30
0.0
 10
114.4077863230055
 20
48.79572060503357
 30
0.0
 10
114.1129853665476
 20
48.66185570014304
 30
0.0
 10
113.8334206025282
 20
48.50643303019797
 30
0.0
 10
113.5693811354034
 20
48.32973286608869
 30
0.0
 10
113.3247841307721
 20
48.13414088708455
 30
0.0
 10
113.0995939430408
 20
47.91986351759604
 30
0.0
 10
112.8973931303469
 20
47.68988774511757
 30
0.0
 10
112.7180149088329
 20
47.44447046558883
 30
0.0
 10
112.5644415292017
 20
47.1869475534989
 30
0.0
 10
112.4364831935969
 20
46.91784408769593
 30
0.0
 10
112.3363721083324
 20
46.6405131399684
 30
0.0
 10
112.263873143839
 20
46.35598990340552
 30
0.0
 10
112.2204624320191
 20
46.06730512821764
 30
0.0
 10
112.2057098477497
 20
45.776179436174
 30
0.0
 10
112.2204624320191
 20
45.48505374413035
 30
0.0
 10
112.263873143839
 20
45.19636896894245
 30
0.0
 10
112.3363721083324
 20
44.9118457323796
 30
0.0
 10
112.4364831935969
 20
44.634514784652
 30
0.0
 10
112.5644415292021
 20
44.36541131884909
 30
0.0
 10
112.7180149088336
 20
44.10788840675928
 30
0.0
 10
112.8973931303473
 20
43.86247112723044
 30
0.0
 10
113.0995939430409
 20
43.6324953547519
 30
0.0
 10
113.3247841307721
 20
43.4182179852634
 30
0.0
 10
113.5693811354034
 20
43.22262600625932
 30
0.0
 10
113.8334206025282
 20
43.04592584215001
 30
0.0
 10
114.1129853665476
 20
42.89050317220494
 30
0.0
 10
114.4077863230055
 20
42.75663826731445
 30
0.0
 10
114.7138976762702
 20
42.64598615892083
 30
0.0
 10
115.0304938060264
 20
42.55890397164853
 30
0.0
 10
115.3539618942385
 20
42.4963189425603
 30
0.0
 10
115.6827738052055
 20
42.45855711278097
 30
0.0
 10
116.0138904120189
 20
42.44593266853126
 30
0.0
 10
116.3450070188318
 20
42.45855711278094
 30
0.0
 10
116.6738189298001
 20
42.49631894256044
 30
0.0
 10
116.9972870180071
 20
42.55890397164809
 30
0.0
 10
117.3138831477825
 20
42.64598615892223
 30
0.0
 10
117.6199945009771
 20
42.75663826730882
 30
0.0
 10
117.914795457693
 20
42.89050317222524
 30
0.0
 10
118.1943602207587
 20
43.04592584207467
 30
0.0
 10
118.4583996913726
 20
43.22262600653423
 30
0.0
 10
118.702996683133
 20
43.41821798424655
 30
0.0
 10
118.9281869178627
 20
43.63249535845215
 30
0.0
 10
119.1303875572641
 20
43.86247111353756
 30
0.0
 10
119.3097664118198
 20
44.10788845660371
 30
0.0
 10
119.4633374545023
 20
44.36541113413763
 30
0.0
 10
119.5913043547885
 20
44.6345154595649
 30
0.0
 10
119.6913837354772
 20
44.9118432251513
 30
0.0
 10
119.7639995876075
 20
45.19637819355256
 30
0.0
 10
119.806975864807
 20
45.4850193651831
 30
0.0
 10
119.8233428799463
 20
45.77630709525448
 30
0.0
 10
119.8095097950338
 20
45.96969343272862
 30
0.0
 10
119.8025932525776
 20
46.06638660146569
 30
0.0
 11
119.8025932525776
 21
46.06638660146569
 31
0.0
 11
119.7591205707458
 21
46.35502936201785
 31
0.0
 11
119.6872374512936
 21
46.63791092935931
 31
0.0
 11
119.5868573170148
 21
46.91600469195707
 31
0.0
 11
119.4601133042196
 21
47.18306445486159
 31
0.0
 11
119.3058406781466
 21
47.44189056265331
 31
0.0
 11
119.1282488462365
 21
47.68523827549463
 31
0.0
 11
118.9248792636965
 21
47.91670312667221
 31
0.0
 11
118.7018483598033
 21
48.12920523815144
 31
0.0
 11
118.4557565639462
 21
48.32614509758164
 31
0.0
 11
118.1939460217494
 21
48.50155800948129
 31
0.0
 11
117.9128270709301
 21
48.65797167329942
 31
0.0
 11
117.619998289841
 21
48.79108270563401
 31
0.0
 11
117.3125816603927
 21
48.90229841785388
 31
0.0
 11
116.9974210734019
 21
48.98907270734712
 31
0.0
 11
116.6731721939772
 21
49.05186039958294
 31
0.0
 11
116.3450748227492
 21
49.08957769697226
 31
0.0
 11
116.013890412019
 21
49.10221311008662
 31
0.0
 11
115.6827060012884
 21
49.08957769697226
 31
0.0
 11
115.3546086300601
 21
49.05186039958294
 31
0.0
 11
115.0303597506357
 21
48.98907270734713
 31
0.0
 11
114.7151991636452
 21
48.90229841785387
 31
0.0
 11
114.407782534197
 21
48.79108270563395
 31
0.0
 11
114.1149537531078
 21
48.65797167329934
 31
0.0
 11
113.8338348022882
 21
48.50155800948124
 31
0.0
 11
113.5720242600911
 21
48.32614509758163
 31
0.0
 11
113.3259324642339
 21
48.12920523815144
 31
0.0
 11
113.1029015603406
 21
47.91670312667221
 31
0.0
 11
112.8995319778005
 21
47.68523827549463
 31
0.0
 11
112.7219401458906
 21
47.4418905626533
 31
0.0
 11
112.5676675198175
 21
47.18306445486159
 31
0.0
 11
112.4409235070223
 21
46.91600469195708
 31
0.0
 11
112.3405433727435
 21
46.63791092935931
 31
0.0
 11
112.2686602532913
 21
46.35502936201786
 31
0.0
 11
112.2251875714595
 21
46.06638660146569
 31
0.0
 11
112.2106199094348
 21
45.77617943617399
 31
0.0
 11
112.2251875714595
 21
45.48597227088229
 31
0.0
 11
112.2686602532913
 21
45.19732951033014
 31
0.0
 11
112.3405433727435
 21
44.91444794298869
 31
0.0
 11
112.4409235070224
 21
44.63635418039092
 31
0.0
 11
112.5676675198179
 21
44.3692944174864
 31
0.0
 11
112.7219401458912
 21
44.1104683096947
 31
0.0
 11
112.899531977801
 21
43.86712059685337
 31
0.0
 11
113.1029015603407
 21
43.63565574567578
 31
0.0
 11
113.3259324642339
 21
43.42315363419655
 31
0.0
 11
113.5720242600911
 21
43.22621377476637
 31
0.0
 11
113.8338348022882
 21
43.05080086286675
 31
0.0
 11
114.1149537531078
 21
42.89438719904865
 31
0.0
 11
114.407782534197
 21
42.76127616671407
 31
0.0
 11
114.7151991636452
 21
42.65006045449418
 31
0.0
 11
115.0303597506357
 21
42.5632861650009
 31
0.0
 11
115.3546086300601
 21
42.50049847276505
 31
0.0
 11
115.6827060012884
 21
42.46278117537571
 31
0.0
 11
116.013890412019
 21
42.45014576226134
 31
0.0
 11
116.3450748227492
 21
42.46278117537571
 31
0.0
 11
116.6731721939773
 21
42.50049847276503
 31
0.0
 11
116.9974210734019
 21
42.56328616500085
 31
0.0
 11
117.3125816603927
 21
42.65006045449412
 31
0.0
 11
117.619998289841
 21
42.76127616671403
 31
0.0
 11
117.9128270709302
 21
42.89438719904864
 31
0.0
 11
118.1939460217494
 21
43.05080086286675
 31
0.0
 11
118.4557565639462
 21
43.22621377476636
 31
0.0
 11
118.7018483598032
 21
43.42315363419655
 31
0.0
 11
118.9248792636965
 21
43.63565574567578
 31
0.0
 11
119.1282488462365
 21
43.86712059685337
 31
0.0
 11
119.3058406781465
 21
44.1104683096947
 31
0.0
 11
119.4601133042196
 21
44.36929441748642
 31
0.0
 11
119.5868573170149
 21
44.63635418039092
 31
0.0
 11
119.6872374512936
 21
44.91444794298869
 31
0.0
 11
119.7591205707458
 21
45.19732951033014
 31
0.0
 11
119.8025932525776
 21
45.48597227088229
 31
0.0
 11
119.8171609146024
 21
45.77617943617398
 31
0.0
 11
119.8025932525776
 21
46.06638660146569
 31
0.0
  0
SPLINE
  5
1D1
330
1F
100
AcDbEntity
  8
1
  6
Continuous
 62
     3
100
AcDbSpline
210
0.0
220
0.0
230
1.0
 70
    11
 71
     3
 72
    79
 73
    75
 74
    73
 42
0.0000000001
 43
0.0000000001
 44
0.00000001
 40
0.0
 40
0.0
 40
0.0
 40
0.0
 40
0.2918981282653506
 40
0.5837699563058636
 40
0.8794256887948216
 40
1.175035163849436
 40
1.476350608574903
 40
1.777609580401908
 40
2.085725085421013
 40
2.393783410214505
 40
2.708976176978791
 40
3.024118128591867
 40
3.34582156149045
 40
3.667484804593105
 40
3.994400571581996
 40
4.321288890292664
 40
4.651560944975516
 40
4.981819146280359
 40
5.313244503752142
 40
5.644669861224227
 40
5.974928062529356
 40
6.305200117211947
 40
6.632088435922288
 40
6.959004202911058
 40
7.280667446013778
 40
7.602370878912635
 40
7.917512830526006
 40
8.232705597290394
 40
8.540763922083908
 40
8.848879427103011
 40
9.150138398929975
 40
9.451453843655473
 40
9.74706331871012
 40
10.04271905119906
 40
10.33459087923956
 40
10.62648900750494
 40
10.91706157256146
 40
11.20763413761796
 40
11.4995322658833
 40
11.79140409392384
 40
12.08705982641284
 40
12.38266930146759
 40
12.6839847461932
 40
12.98524371802008
 40
13.293359223039
 40
13.60141754783243
 40
13.91661031459679
 40
14.23175226621013
 40
14.55345569910897
 40
14.87511894221169
 40
15.20203470920045
 40
15.52892302791081
 40
15.85919508259343
 40
16.18945328389857
 40
16.52087864137064
 40
16.85230399884245
 40
17.1825622001473
 40
17.51283425483011
 40
17.8397225735408
 40
18.1666383405297
 40
18.48830158363235
 40
18.8100050165309
 40
19.12514696814397
 40
19.4403397349082
 40
19.74839805970169
 40
20.05651356472081
 40
20.35777253654783
 40
20.65908798127332
 40
20.95469745632794
 40
21.2503531888169
 40
21.54222501685744
 40
21.83412314512278
 40
22.12469571017926
 40
22.41526827523578
 40
22.41526827523578
 40
22.41526827523578
 40
22.41526827523578
 10
119.8025932525776
 20
69.73468357684658
 30
0.0
 10
119.7901253701645
 20
69.63810331632632
 30
0.0
 10
119.7651907287032
 20
69.44495149723463
 30
0.0
 10
119.6910599860023
 20
69.16059203982601
 30
0.0
 10
119.5913915038831
 20
68.88321666867844
 30
0.0
 10
119.4633136033636
 20
68.61412520342829
 30
0.0
 10
119.3097728480716
 20
68.35659901688184
 30
0.0
 10
119.1303857891506
 20
68.11118262435053
 30
0.0
 10
118.9281873956597
 20
67.88120660906024
 30
0.0
 10
118.7029965518188
 20
67.66692930542453
 30
0.0
 10
118.4583997268671
 20
67.4713373083862
 30
0.0
 10
118.1943602110283
 20
67.29463714916623
 30
0.0
 10
117.9147954603212
 20
67.13921447788498
 30
0.0
 10
117.6199945002602
 20
67.00534957335611
 30
0.0
 10
117.3138831479759
 20
66.89469746486411
 30
0.0
 10
116.9972870179546
 20
66.80761527761842
 30
0.0
 10
116.6738189298142
 20
66.74503024852301
 30
0.0
 10
116.345007018828
 20
66.70726841874563
 30
0.0
 10
116.0138904120199
 20
66.69464397449543
 30
0.0
 10
115.6827738052053
 20
66.70726841874536
 30
0.0
 10
115.3539618942386
 20
66.74503024852459
 30
0.0
 10
115.0304938060265
 20
66.80761527761278
 30
0.0
 10
114.7138976762702
 20
66.89469746488504
 30
0.0
 10
114.4077863230055
 20
67.00534957327864
 30
0.0
 10
114.1129853665477
 20
67.13921447816918
 30
0.0
 10
113.8334206025282
 20
67.29463714811425
 30
0.0
 10
113.5693811354034
 20
67.47133731222357
 30
0.0
 10
113.3247841307721
 20
67.66692929122772
 30
0.0
 10
113.0995939430408
 20
67.8812066607162
 30
0.0
 10
112.8973931303469
 20
68.11118243319467
 30
0.0
 10
112.7180149088329
 20
68.3565997127234
 30
0.0
 10
112.5644415292017
 20
68.61412262481339
 30
0.0
 10
112.4364831935969
 20
68.88322609061638
 30
0.0
 10
112.3363721083324
 20
69.16055703834388
 30
0.0
 10
112.263873143839
 20
69.44508027490673
 30
0.0
 10
112.2204624320192
 20
69.7337650500946
 30
0.0
 10
112.2057098477497
 20
70.02489074213828
 30
0.0
 10
112.2204624320191
 20
70.31601643418192
 30
0.0
 10
112.263873143839
 20
70.60470120936981
 30
0.0
 10
112.3363721083324
 20
70.88922444593265
 30
0.0
 10
112.436483193597
 20
71.1665553936602
 30
0.0
 10
112.5644415292022
 20
71.43565885946315
 30
0.0
 10
112.7180149088336
 20
71.693181771553
 30
0.0
 10
112.8973931303474
 20
71.93859905108188
 30
0.0
 10
113.0995939430409
 20
72.16857482356046
 30
0.0
 10
113.3247841307721
 20
72.38285219304893
 30
0.0
 10
113.5693811354035
 20
72.57844417205298
 30
0.0
 10
113.8334206025282
 20
72.75514433616226
 30
0.0
 10
114.1129853665477
 20
72.91056700610733
 30
0.0
 10
114.4077863230055
 20
73.04443191099784
 30
0.0
 10
114.7138976762702
 20
73.15508401939144
 30
0.0
 10
115.0304938060265
 20
73.2421662066638
 30
0.0
 10
115.3539618942385
 20
73.30475123575206
 30
0.0
 10
115.6827738052055
 20
73.34251306553136
 30
0.0
 10
116.0138904120189
 20
73.355137509781
 30
0.0
 10
116.3450070188318
 20
73.3425130655314
 30
0.0
 10
116.6738189298001
 20
73.3047512357519
 30
0.0
 10
116.9972870180071
 20
73.2421662066642
 30
0.0
 10
117.3138831477825
 20
73.15508401938997
 30
0.0
 10
117.6199945009771
 20
73.04443191100341
 30
0.0
 10
117.9147954576931
 20
72.91056700608705
 30
0.0
 10
118.1943602207587
 20
72.7551443362376
 30
0.0
 10
118.4583996913726
 20
72.57844417177807
 30
0.0
 10
118.702996683133
 20
72.38285219406578
 30
0.0
 10
118.9281869178628
 20
72.16857481986023
 30
0.0
 10
119.1303875572641
 20
71.93859906477478
 30
0.0
 10
119.3097664118198
 20
71.69318172170858
 30
0.0
 10
119.4633374545023
 20
71.43565904417463
 30
0.0
 10
119.5913043547885
 20
71.16655471874734
 30
0.0
 10
119.6913837354772
 20
70.88922695316094
 30
0.0
 10
119.7639995876075
 20
70.6046919847597
 30
0.0
 10
119.806975864807
 20
70.31605081312918
 30
0.0
 10
119.8233428799463
 20
70.0247630830578
 30
0.0
 10
119.8095097950338
 20
69.83137674558364
 30
0.0
 10
119.8025932525776
 20
69.73468357684658
 30
0.0
 11
119.8025932525776
 21
69.73468357684658
 31
0.0
 11
119.7591205707458
 21
69.44604081629443
 31
0.0
 11
119.6872374512936
 21
69.16315924895302
 31
0.0
 11
119.5868573170148
 21
68.88506548635529
 31
0.0
 11
119.4601133042196
 21
68.61800572345075
 31
0.0
 11
119.3058406781466
 21
68.359179615659
 31
0.0
 11
119.1282488462365
 21
68.11583190281766
 31
0.0
 11
118.9248792636965
 21
67.88436705164007
 31
0.0
 11
118.7018483598033
 21
67.67186494016083
 31
0.0
 11
118.4557565639462
 21
67.47492508073064
 31
0.0
 11
118.1939460217494
 21
67.29951216883099
 31
0.0
 11
117.9128270709301
 21
67.14309850501286
 31
0.0
 11
117.619998289841
 21
67.00998747267826
 31
0.0
 11
117.3125816603927
 21
66.89877176045839
 31
0.0
 11
116.9974210734019
 21
66.8119974709651
 31
0.0
 11
116.6731721939772
 21
66.74920977872924
 31
0.0
 11
116.3450748227492
 21
66.71149248133996
 31
0.0
 11
116.013890412019
 21
66.69885706822565
 31
0.0
 11
115.6827060012884
 21
66.71149248134003
 31
0.0
 11
115.3546086300601
 21
66.74920977872934
 31
0.0
 11
115.0303597506357
 21
66.81199747096514
 31
0.0
 11
114.7151991636452
 21
66.89877176045839
 31
0.0
 11
114.407782534197
 21
67.00998747267826
 31
0.0
 11
114.1149537531078
 21
67.14309850501286
 31
0.0
 11
113.8338348022882
 21
67.29951216883099
 31
0.0
 11
113.5720242600911
 21
67.47492508073064
 31
0.0
 11
113.3259324642339
 21
67.67186494016082
 31
0.0
 11
113.1029015603406
 21
67.88436705164004
 31
0.0
 11
112.8995319778005
 21
68.1158319028176
 31
0.0
 11
112.7219401458906
 21
68.35917961565892
 31
0.0
 11
112.5676675198175
 21
68.6180057234507
 31
0.0
 11
112.4409235070223
 21
68.88506548635527
 31
0.0
 11
112.3405433727435
 21
69.16315924895298
 31
0.0
 11
112.2686602532913
 21
69.44604081629437
 31
0.0
 11
112.2251875714595
 21
69.73468357684655
 31
0.0
 11
112.2106199094348
 21
70.02489074213828
 31
0.0
 11
112.2251875714595
 21
70.31509790742999
 31
0.0
 11
112.2686602532913
 21
70.60374066798212
 31
0.0
 11
112.3405433727435
 21
70.88662223532356
 31
0.0
 11
112.4409235070224
 21
71.16471599792129
 31
0.0
 11
112.5676675198179
 21
71.43177576082583
 31
0.0
 11
112.7219401458912
 21
71.69060186861759
 31
0.0
 11
112.899531977801
 21
71.93394958145896
 31
0.0
 11
113.1029015603407
 21
72.16541443263658
 31
0.0
 11
113.3259324642339
 21
72.37791654411579
 31
0.0
 11
113.5720242600911
 21
72.57485640354592
 31
0.0
 11
113.8338348022882
 21
72.75026931544554
 31
0.0
 11
114.1149537531078
 21
72.90668297926364
 31
0.0
 11
114.407782534197
 21
73.03979401159822
 31
0.0
 11
114.7151991636452
 21
73.1510097238181
 31
0.0
 11
115.0303597506357
 21
73.23778401331143
 31
0.0
 11
115.3546086300601
 21
73.30057170554731
 31
0.0
 11
115.6827060012884
 21
73.33828900293662
 31
0.0
 11
116.013890412019
 21
73.35092441605094
 31
0.0
 11
116.3450748227492
 21
73.33828900293662
 31
0.0
 11
116.6731721939773
 21
73.3005717055473
 31
0.0
 11
116.9974210734019
 21
73.23778401331143
 31
0.0
 11
117.3125816603927
 21
73.1510097238181
 31
0.0
 11
117.619998289841
 21
73.03979401159822
 31
0.0
 11
117.9128270709302
 21
72.90668297926364
 31
0.0
 11
118.1939460217494
 21
72.75026931544554
 31
0.0
 11
118.4557565639462
 21
72.57485640354592
 31
0.0
 11
118.7018483598032
 21
72.37791654411579
 31
0.0
 11
118.9248792636965
 21
72.1654144326366
 31
0.0
 11
119.1282488462365
 21
71.93394958145896
 31
0.0
 11
119.3058406781465
 21
71.69060186861759
 31
0.0
 11
119.4601133042196
 21
71.43177576082583
 31
0.0
 11
119.5868573170149
 21
71.16471599792129
 31
0.0
 11
119.6872374512936
 21
70.88662223532356
 31
0.0
 11
119.7591205707458
 21
70.60374066798212
 31
0.0
 11
119.8025932525776
 21
70.31509790742999
 31
0.0
 11
119.8171609146024
 21
70.0248907421383
 31
0.0
 11
119.8025932525776
 21
69.73468357684658
 31
0.0
  0
XLINE
  5
1D2
330
1F
100
AcDbEntity
  8
1
  6
DOT_CENTER
 62
     3
 60
     1
100
AcDbXline
 10
252.77993678663
 20
72.3260236058599
 30
0.0
 11
-1.0
 21
0.0
 31
0.0
  0
XLINE
  5
1D3
330
1F
100
AcDbEntity
  8
1
  6
DOT_CENTER
 62
     3
 60
     1
100
AcDbXline
 10
252.77993678663
 20
72.3260236058599
 30
0.0
 11
-1.0
 21
0.0
 31
0.0
  0
XLINE
  5
1D4
330
1F
100
AcDbEntity
  8
1
  6
DOT_CENTER
 62
     3
 60
     1
100
AcDbXline
 10
264.99999999994
 20
90.72563427696
 30
0.0
 11
0.0
 21
1.0
 31
0.0
  0
XLINE
  5
1D5
330
1F
100
AcDbEntity
  8
1
  6
DOT_CENTER
 62
     3
 60
     1
100
AcDbXline
 10
252.0
 20
138.51093324516
 30
0.0
 11
0.0
 21
1.0
 31
0.0
  0
XLINE
  5
1D6
330
1F
100
AcDbEntity
  8
1
  6
DOT_CENTER
 62
     3
 60
     1
100
AcDbXline
 10
252.0
 20
138.51093324516
 30
0.0
 11
0.0
 21
1.0
 31
0.0
  0
XLINE
  5
1D7
330
1F
100
AcDbEntity
  8
1
  6
DOT_CENTER
 62
     3
 60
     1
100
AcDbXline
 10
252.0
 20
138.51093324516
 30
0.0
 11
0.0
 21
1.0
 31
0.0
  0
XLINE
  5
1D8
330
1F
100
AcDbEntity
  8
1
  6
DOT_CENTER
 62
     3
 60
     1
100
AcDbXline
 10
252.0
 20
138.51093324516
 30
0.0
 11
0.0
 21
1.0
 31
0.0
  0
ARC
  5
1D9
330
1F
100
AcDbEntity
  8
1
  6
DOTTED
 62
     6
100
AcDbCircle
 10
93.69398538396382
 20
103.0095682059394
 30
0.0
 40
6.0
100
AcDbArc
 50
0.0
 51
90.0
  0
ARC
  5
1DA
330
1F
100
AcDbEntity
  8
1
  6
Continuous
 62
     3
100
AcDbCircle
 10
93.69398538396382
 20
108.5095682059394
 30
0.0
 40
6.0
100
AcDbArc
 50
0.0
 51
90.0
  0
LINE
  5
1DB
330
1F
100
AcDbEntity
  8
1
 62
     4
100
AcDbLine
 10
31.34308208821081
 20
63.90053508915665
 30
0.0
 11
28.04599160827709
 21
67.61851732977894
 31
0.0
  0
LINE
  5
1DC
330
1F
100
AcDbEntity
  8
1
 62
     4
100
AcDbLine
 10
31.34308208821081
 20
63.90053508915665
 30
0.0
 11
30.34670909432353
 21
68.76894740032179
 31
0.0
  0
LEADER
  5
1DD
330
1F
100
AcDbEntity
  8
1
  6
Continuous
 62
     4
100
AcDbLeader
  3
Standard
 71
     0
 76
     3
 10
31.34308208821081
 20
63.90053508915665
 30
0.0
 10
26.37588222497786
 20
73.83431887545395
 30
0.0
 10
1.19491967034381
 20
73.83431887545395
 30
0.0
  0
ENDSEC
  0
SECTION
  2
OBJECTS
  0
DICTIONARY
  5
C
330
0
100
AcDbDictionary
281
     1
  3
ACAD_GROUP
350
D
  3
ACAD_LAYOUT
350
1A
  3
ACAD_MATERIAL
350
3B
  3
ACAD_MLEADERSTYLE
350
1E0
  3
ACAD_MLINESTYLE
350
17
  3
ACAD_PLOTSETTINGS
350
19
  3
ACAD_PLOTSTYLENAME
350
E
  3
ACAD_VISUALSTYLE
350
2A
  3
AcDbVariableDictionary
350
1DE
  0
DICTIONARY
  5
D
102
{ACAD_REACTORS
330
C
102
}
330
C
100
AcDbDictionary
281
     1
  0
DICTIONARY
  5
1A
102
{ACAD_REACTORS
330
C
102
}
330
C
100
AcDbDictionary
281
     1
  3
Layout1
350
1E
  3
Layout2
350
26
  3
Model
350
22
  0
DICTIONARY
  5
3B
102
{ACAD_REACTORS
330
C
102
}
330
C
100
AcDbDictionary
281
     1
  3
ByBlock
350
3D
  3
ByLayer
350
3C
  3
Global
350
3E
  0
DICTIONARY
  5
1E0
102
{ACAD_REACTORS
330
C
102
}
330
C
100
AcDbDictionary
281
     1
  0
DICTIONARY
  5
17
102
{ACAD_REACTORS
330
C
102
}
330
C
100
AcDbDictionary
281
     1
  3
Standard
350
18
  0
DICTIONARY
  5
19
102
{ACAD_REACTORS
330
C
102
}
330
C
100
AcDbDictionary
281
     1
  0
ACDBDICTIONARYWDFLT
  5
E
102
{ACAD_REACTORS
330
C
102
}
330
C
100
AcDbDictionary
281
     1
  3
Normal
350
F
100
AcDbDictionaryWithDefault
340
F
  0
DICTIONARY
  5
2A
102
{ACAD_REACTORS
330
C
102
}
330
C
100
AcDbDictionary
281
     1
  3
2dWireframe
350
2F
  3
3D Hidden
350
31
  3
3dWireframe
350
30
  3
Basic
350
32
  3
Brighten
350
36
  3
ColorChange
350
3A
  3
Conceptual
350
34
  3
Dim
350
35
  3
Facepattern
350
39
  3
Flat
350
2B
  3
FlatWithEdges
350
2C
  3
Gouraud
350
2D
  3
GouraudWithEdges
350
2E
  3
Linepattern
350
38
  3
Realistic
350
33
  3
Thicken
350
37
  0
DICTIONARY
  5
1DE
102
{ACAD_REACTORS
330
C
102
}
330
C
100
AcDbDictionary
281
     1
  3
DIMASSOC
350
1E1
  3
HIDETEXT
350
1E2
  0
LAYOUT
  5
1E
102
{ACAD_REACTORS
330
1A
102
}
330
1A
100
AcDbPlotSettings
  1

  2
none_device
  4

  6

 40
0.0
 41
0.0
 42
0.0
 43
0.0
 44
0.0
 45
0.0
 46
0.0
 47
0.0
 48
0.0
 49
0.0
140
0.0
141
0.0
142
1.0
143
1.0
 70
   688
 72
     0
 73
     0
 74
     5
  7

 75
    16
147
1.0
148
0.0
149
0.0
100
AcDbLayout
  1
Layout1
 70
     1
 71
     1
 10
0.0
 20
0.0
 11
12.0
 21
9.0
 12
0.0
 22
0.0
 32
0.0
 14
1.00000000000000E+20
 24
1.00000000000000E+20
 34
1.00000000000000E+20
 15
-1.00000000000000E+20
 25
-1.00000000000000E+20
 35
-1.00000000000000E+20
146
0.0
 13
0.0
 23
0.0
 33
0.0
 16
1.0
 26
0.0
 36
0.0
 17
0.0
 27
1.0
 37
0.0
 76
     0
330
1B
  0
LAYOUT
  5
26
102
{ACAD_REACTORS
330
1A
102
}
330
1A
100
AcDbPlotSettings
  1

  2
none_device
  4

  6

 40
0.0
 41
0.0
 42
0.0
 43
0.0
 44
0.0
 45
0.0
 46
0.0
 47
0.0
 48
0.0
 49
0.0
140
0.0
141
0.0
142
1.0
143
1.0
 70
   688
 72
     0
 73
     0
 74
     5
  7

 75
    16
147
1.0
148
0.0
149
0.0
100
AcDbLayout
  1
Layout2
 70
     1
 71
     2
 10
0.0
 20
0.0
 11
0.0
 21
0.0
 12
0.0
 22
0.0
 32
0.0
 14
0.0
 24
0.0
 34
0.0
 15
0.0
 25
0.0
 35
0.0
146
0.0
 13
0.0
 23
0.0
 33
0.0
 16
1.0
 26
0.0
 36
0.0
 17
0.0
 27
1.0
 37
0.0
 76
     0
330
23
  0
LAYOUT
  5
22
102
{ACAD_REACTORS
330
1A
102
}
330
1A
100
AcDbPlotSettings
  1

  2
none_device
  4

  6

 40
0.0
 41
0.0
 42
0.0
 43
0.0
 44
0.0
 45
0.0
 46
0.0
 47
0.0
 48
0.0
 49
0.0
140
0.0
141
0.0
142
1.0
143
1.0
 70
  1712
 72
     0
 73
     0
 74
     0
  7

 75
     0
147
1.0
148
0.0
149
0.0
100
AcDbLayout
  1
Model
 70
     1
 71
     0
 10
0.0
 20
0.0
 11
12.0
 21
9.0
 12
0.0
 22
0.0
 32
0.0
 14
1.19491967034381
 24
0.0
 34
0.0
 15
269.8446204785666
 25
212.0511701837758
 35
0.0
146
0.0
 13
0.0
 23
0.0
 33
0.0
 16
1.0
 26
0.0
 36
0.0
 17
0.0
 27
1.0
 37
0.0
 76
     0
330
1F
331
29
  0
MATERIAL
  5
3D
102
{ACAD_REACTORS
330
3B
102
}
102
{ACAD_XDICTIONARY
360
205
102
}
330
3B
100
AcDbMaterial
  1
ByBlock
  0
MATERIAL
  5
3C
102
{ACAD_REACTORS
330
3B
102
}
102
{ACAD_XDICTIONARY
360
203
102
}
330
3B
100
AcDbMaterial
  1
ByLayer
  0
MATERIAL
  5
3E
102
{ACAD_REACTORS
330
3B
102
}
102
{ACAD_XDICTIONARY
360
207
102
}
330
3B
100
AcDbMaterial
  1
Global
  0
MLINESTYLE
  5
18
102
{ACAD_REACTORS
330
17
102
}
330
17
100
AcDbMlineStyle
  2
Standard
 70
     0
  3

 62
   256
 51
90.0
 52
90.0
 71
     2
 49
0.5
 62
   256
  6
BYLAYER
 49
-0.5
 62
   256
  6
BYLAYER
  0
ACDBPLACEHOLDER
  5
F
102
{ACAD_REACTORS
330
E
102
}
330
E
  0
VISUALSTYLE
  5
2F
102
{ACAD_REACTORS
330
2A
102
}
102
{ACAD_XDICTIONARY
360
1EB
102
}
330
2A
100
AcDbVisualStyle
  2
2dWireframe
 70
     4
 71
     0
 72
     2
 73
     0
 90
        0
 40
-0.6
 41
-30.0
 62
     5
 63
     7
 74
     1
 91
        4
 64
     7
 65
   257
 75
     1
175
     1
 42
1.0
 92
        0
 66
   257
 43
1.0
 76
     1
 77
     6
 78
     2
 67
     7
 79
     5
170
     0
171
     0
290
     0
174
     0
 93
        1
 44
0.0
173
     0
291
     0
 45
0.0
1001
ACAD
1000
AcDbSavedByObjectVersion
1070
     0
  0
VISUALSTYLE
  5
31
102
{ACAD_REACTORS
330
2A
102
}
102
{ACAD_XDICTIONARY
360
1EF
102
}
330
2A
100
AcDbVisualStyle
  2
3D Hidden
 70
     6
 71
     1
 72
     2
 73
     2
 90
        0
 40
-0.6
 41
-30.0
 62
     5
 63
     7
 74
     2
 91
        2
 64
     7
 65
   257
 75
     2
175
     1
 42
40.0
 92
        0
 66
   257
 43
1.0
 76
     1
 77
     6
 78
     2
 67
     7
 79
     3
170
     0
171
     0
290
     0
174
     0
 93
        1
 44
0.0
173
     0
291
     0
 45
0.0
1001
ACAD
1000
AcDbSavedByObjectVersion
1070
     0
  0
VISUALSTYLE
  5
30
102
{ACAD_REACTORS
330
2A
102
}
102
{ACAD_XDICTIONARY
360
1ED
102
}
330
2A
100
AcDbVisualStyle
  2
3dWireframe
 70
     5
 71
     0
 72
     2
 73
     0
 90
        0
 40
-0.6
 41
-30.0
 62
     5
 63
     7
 74
     1
 91
        4
 64
     7
 65
   257
 75
     1
175
     1
 42
1.0
 92
        0
 66
   257
 43
1.0
 76
     1
 77
     6
 78
     2
 67
     7
 79
     5
170
     0
171
     0
290
     0
174
     0
 93
        1
 44
0.0
173
     0
291
     0
 45
0.0
1001
ACAD
1000
AcDbSavedByObjectVersion
1070
     0
  0
VISUALSTYLE
  5
32
102
{ACAD_REACTORS
330
2A
102
}
102
{ACAD_XDICTIONARY
360
1F1
102
}
330
2A
100
AcDbVisualStyle
  2
Basic
 70
     7
 71
     1
 72
     0
 73
     1
 90
        0
 40
-0.6
 41
-30.0
 62
     5
 63
     7
 74
     0
 91
        4
 64
     7
 65
   257
 75
     1
175
     1
 42
1.0
 92
        8
 66
     7
 43
1.0
 76
     1
 77
     6
 78
     2
 67
     7
 79
     5
170
     0
171
     0
290
     0
174
     0
 93
        1
 44
0.0
173
     0
291
     1
 45
0.0
1001
ACAD
1000
AcDbSavedByObjectVersion
1070
     0
  0
VISUALSTYLE
  5
36
102
{ACAD_REACTORS
330
2A
102
}
102
{ACAD_XDICTIONARY
360
1F9
102
}
330
2A
100
AcDbVisualStyle
  2
Brighten
 70
    12
 71
     2
 72
     2
 73
     0
 90
        0
 40
-0.6
 41
-30.0
 62
     5
 63
     7
 74
     1
 91
        4
 64
     7
 65
   257
 75
     1
175
     1
 42
1.0
 92
        8
 66
     7
 43
1.0
 76
     1
 77
     6
 78
     2
 67
     7
 79
     5
170
     0
171
     0
290
     0
174
     0
 93
        1
 44
50.0
173
     0
291
     1
 45
0.0
1001
ACAD
1000
AcDbSavedByObjectVersion
1070
     0
  0
VISUALSTYLE
  5
3A
102
{ACAD_REACTORS
330
2A
102
}
102
{ACAD_XDICTIONARY
360
201
102
}
330
2A
100
AcDbVisualStyle
  2
ColorChange
 70
    16
 71
     2
 72
     2
 73
     3
 90
        0
 40
-0.6
 41
-30.0
 62
     5
 63
     8
 74
     1
 91
        4
 64
     7
 65
   257
 75
     1
175
     1
 42
1.0
 92
        8
 66
     8
 43
1.0
 76
     1
 77
     6
 78
     2
 67
     7
 79
     5
170
     0
171
     0
290
     0
174
     0
 93
        1
 44
0.0
173
     0
291
     1
 45
0.0
1001
ACAD
1000
AcDbSavedByObjectVersion
1070
     0
  0
VISUALSTYLE
  5
34
102
{ACAD_REACTORS
330
2A
102
}
102
{ACAD_XDICTIONARY
360
1F5
102
}
330
2A
100
AcDbVisualStyle
  2
Conceptual
 70
     9
 71
     3
 72
     2
 73
     0
 90
        0
 40
-0.6
 41
-30.0
 62
     5
 63
     7
 74
     2
 91
        2
 64
     7
 65
   257
 75
     1
175
     1
 42
40.0
 92
        8
 66
     7
 43
1.0
 76
     1
 77
     6
 78
     2
 67
     7
 79
     3
170
     0
171
     0
290
     0
174
     0
 93
        1
 44
0.0
173
     0
291
     0
 45
0.0
1001
ACAD
1000
AcDbSavedByObjectVersion
1070
     0
  0
VISUALSTYLE
  5
35
102
{ACAD_REACTORS
330
2A
102
}
102
{ACAD_XDICTIONARY
360
1F7
102
}
330
2A
100
AcDbVisualStyle
  2
Dim
 70
    11
 71
     2
 72
     2
 73
     0
 90
        0
 40
-0.6
 41
-30.0
 62
     5
 63
     7
 74
     1
 91
        4
 64
     7
 65
   257
 75
     1
175
     1
 42
1.0
 92
        8
 66
     7
 43
1.0
 76
     1
 77
     6
 78
     2
 67
     7
 79
     5
170
     0
171
     0
290
     0
174
     0
 93
        1
 44
-50.0
173
     0
291
     1
 45
0.0
1001
ACAD
1000
AcDbSavedByObjectVersion
1070
     0
  0
VISUALSTYLE
  5
39
102
{ACAD_REACTORS
330
2A
102
}
102
{ACAD_XDICTIONARY
360
1FF
102
}
330
2A
100
AcDbVisualStyle
  2
Facepattern
 70
    15
 71
     2
 72
     2
 73
     0
 90
        0
 40
-0.6
 41
-30.0
 62
     5
 63
     7
 74
     1
 91
        4
 64
     7
 65
   257
 75
     1
175
     1
 42
1.0
 92
        8
 66
     7
 43
1.0
 76
     1
 77
     6
 78
     2
 67
     7
 79
     5
170
     0
171
     0
290
     0
174
     0
 93
        1
 44
0.0
173
     0
291
     1
 45
0.0
1001
ACAD
1000
AcDbSavedByObjectVersion
1070
     0
  0
VISUALSTYLE
  5
2B
102
{ACAD_REACTORS
330
2A
102
}
102
{ACAD_XDICTIONARY
360
1E3
102
}
330
2A
100
AcDbVisualStyle
  2
Flat
 70
     0
 71
     2
 72
     1
 73
     1
 90
        2
 40
-0.6
 41
30.0
 62
     5
 63
     7
 74
     0
 91
        4
 64
     7
 65
   257
 75
     1
175
     1
 42
1.0
 92
        8
 66
     7
 43
1.0
 76
     1
 77
     6
 78
     2
 67
     7
 79
     5
170
     0
171
     0
290
     0
174
     0
 93
       13
 44
0.0
173
     0
291
     1
 45
0.0
1001
ACAD
1000
AcDbSavedByObjectVersion
1070
     0
  0
VISUALSTYLE
  5
2C
102
{ACAD_REACTORS
330
2A
102
}
102
{ACAD_XDICTIONARY
360
1E5
102
}
330
2A
100
AcDbVisualStyle
  2
FlatWithEdges
 70
     1
 71
     2
 72
     1
 73
     1
 90
        2
 40
-0.6
 41
30.0
 62
     5
 63
     7
 74
     1
 91
        4
 64
     7
 65
   257
 75
     1
175
     1
 42
1.0
 92
        0
 66
   257
 43
1.0
 76
     1
 77
     6
 78
     2
 67
     7
 79
     5
170
     0
171
     0
290
     0
174
     0
 93
       13
 44
0.0
173
     0
291
     1
 45
0.0
1001
ACAD
1000
AcDbSavedByObjectVersion
1070
     0
  0
VISUALSTYLE
  5
2D
102
{ACAD_REACTORS
330
2A
102
}
102
{ACAD_XDICTIONARY
360
1E7
102
}
330
2A
100
AcDbVisualStyle
  2
Gouraud
 70
     2
 71
     2
 72
     2
 73
     1
 90
        2
 40
-0.6
 41
30.0
 62
     5
 63
     7
 74
     0
 91
        4
 64
     7
 65
   257
 75
     1
175
     1
 42
1.0
 92
        0
 66
     7
 43
1.0
 76
     1
 77
     6
 78
     2
 67
     7
 79
     5
170
     0
171
     0
290
     0
174
     0
 93
       13
 44
0.0
173
     0
291
     1
 45
0.0
1001
ACAD
1000
AcDbSavedByObjectVersion
1070
     0
  0
VISUALSTYLE
  5
2E
102
{ACAD_REACTORS
330
2A
102
}
102
{ACAD_XDICTIONARY
360
1E9
102
}
330
2A
100
AcDbVisualStyle
  2
GouraudWithEdges
 70
     3
 71
     2
 72
     2
 73
     1
 90
        2
 40
-0.6
 41
30.0
 62
     5
 63
     7
 74
     1
 91
        4
 64
     7
 65
   257
 75
     1
175
     1
 42
1.0
 92
        0
 66
   257
 43
1.0
 76
     1
 77
     6
 78
     2
 67
     7
 79
     5
170
     0
171
     0
290
     0
174
     0
 93
       13
 44
0.0
173
     0
291
     1
 45
0.0
1001
ACAD
1000
AcDbSavedByObjectVersion
1070
     0
  0
VISUALSTYLE
  5
38
102
{ACAD_REACTORS
330
2A
102
}
102
{ACAD_XDICTIONARY
360
1FD
102
}
330
2A
100
AcDbVisualStyle
  2
Linepattern
 70
    14
 71
     2
 72
     2
 73
     0
 90
        0
 40
-0.6
 41
-30.0
 62
     5
 63
     7
 74
     1
 91
        4
 64
     7
 65
   257
 75
     7
175
     7
 42
1.0
 92
        8
 66
     7
 43
1.0
 76
     1
 77
     6
 78
     2
 67
     7
 79
     5
170
     0
171
     0
290
     0
174
     0
 93
        1
 44
0.0
173
     0
291
     1
 45
0.0
1001
ACAD
1000
AcDbSavedByObjectVersion
1070
     0
  0
VISUALSTYLE
  5
33
102
{ACAD_REACTORS
330
2A
102
}
102
{ACAD_XDICTIONARY
360
1F3
102
}
330
2A
100
AcDbVisualStyle
  2
Realistic
 70
     8
 71
     2
 72
     2
 73
     0
 90
        0
 40
-0.6
 41
-30.0
 62
     5
 63
     7
 74
     1
 91
        0
 64
     7
 65
   257
 75
     1
175
     1
 42
1.0
 92
        8
 66
     8
 43
1.0
 76
     1
 77
     6
 78
     2
 67
     7
 79
     5
170
     0
171
     0
290
     0
174
     0
 93
       13
 44
0.0
173
     0
291
     0
 45
0.0
1001
ACAD
1000
AcDbSavedByObjectVersion
1070
     0
  0
VISUALSTYLE
  5
37
102
{ACAD_REACTORS
330
2A
102
}
102
{ACAD_XDICTIONARY
360
1FB
102
}
330
2A
100
AcDbVisualStyle
  2
Thicken
 70
    13
 71
     2
 72
     2
 73
     0
 90
        0
 40
-0.6
 41
-30.0
 62
     5
 63
     7
 74
     1
 91
        4
 64
     7
 65
   257
 75
     1
175
     1
 42
1.0
 92
       12
 66
     7
 43
1.0
 76
     1
 77
     6
 78
     2
 67
     7
 79
     5
170
     0
171
     0
290
     0
174
     0
 93
        1
 44
0.0
173
     0
291
     1
 45
0.0
1001
ACAD
1000
AcDbSavedByObjectVersion
1070
     0
  0
DICTIONARYVAR
  5
1E1
102
{ACAD_REACTORS
330
1DE
102
}
330
1DE
100
DictionaryVariables
280
     0
  1
2
  0
DICTIONARYVAR
  5
1E2
102
{ACAD_REACTORS
330
1DE
102
}
330
1DE
100
DictionaryVariables
280
     0
  1
1
  0
DICTIONARY
  5
205
330
3D
100
AcDbDictionary
280
     1
281
     1
  3
ACAD_XREC_ROUNDTRIP
360
206
  0
DICTIONARY
  5
203
330
3C
100
AcDbDictionary
280
     1
281
     1
  3
ACAD_XREC_ROUNDTRIP
360
204
  0
DICTIONARY
  5
207
330
3E
100
AcDbDictionary
280
     1
281
     1
  3
ACAD_XREC_ROUNDTRIP
360
208
  0
DICTIONARY
  5
1EB
330
2F
100
AcDbDictionary
280
     1
281
     1
  3
ACAD_XREC_ROUNDTRIP
360
1EC
  0
DICTIONARY
  5
1EF
330
31
100
AcDbDictionary
280
     1
281
     1
  3
ACAD_XREC_ROUNDTRIP
360
1F0
  0
DICTIONARY
  5
1ED
330
30
100
AcDbDictionary
280
     1
281
     1
  3
ACAD_XREC_ROUNDTRIP
360
1EE
  0
DICTIONARY
  5
1F1
330
32
100
AcDbDictionary
280
     1
281
     1
  3
ACAD_XREC_ROUNDTRIP
360
1F2
  0
DICTIONARY
  5
1F9
330
36
100
AcDbDictionary
280
     1
281
     1
  3
ACAD_XREC_ROUNDTRIP
360
1FA
  0
DICTIONARY
  5
201
330
3A
100
AcDbDictionary
280
     1
281
     1
  3
ACAD_XREC_ROUNDTRIP
360
202
  0
DICTIONARY
  5
1F5
330
34
100
AcDbDictionary
280
     1
281
     1
  3
ACAD_XREC_ROUNDTRIP
360
1F6
  0
DICTIONARY
  5
1F7
330
35
100
AcDbDictionary
280
     1
281
     1
  3
ACAD_XREC_ROUNDTRIP
360
1F8
  0
DICTIONARY
  5
1FF
330
39
100
AcDbDictionary
280
     1
281
     1
  3
ACAD_XREC_ROUNDTRIP
360
200
  0
DICTIONARY
  5
1E3
330
2B
100
AcDbDictionary
280
     1
281
     1
  3
ACAD_XREC_ROUNDTRIP
360
1E4
  0
DICTIONARY
  5
1E5
330
2C
100
AcDbDictionary
280
     1
281
     1
  3
ACAD_XREC_ROUNDTRIP
360
1E6
  0
DICTIONARY
  5
1E7
330
2D
100
AcDbDictionary
280
     1
281
     1
  3
ACAD_XREC_ROUNDTRIP
360
1E8
  0
DICTIONARY
  5
1E9
330
2E
100
AcDbDictionary
280
     1
281
     1
  3
ACAD_XREC_ROUNDTRIP
360
1EA
  0
DICTIONARY
  5
1FD
330
38
100
AcDbDictionary
280
     1
281
     1
  3
ACAD_XREC_ROUNDTRIP
360
1FE
  0
DICTIONARY
  5
1F3
330
33
100
AcDbDictionary
280
     1
281
     1
  3
ACAD_XREC_ROUNDTRIP
360
1F4
  0
DICTIONARY
  5
1FB
330
37
100
AcDbDictionary
280
     1
281
     1
  3
ACAD_XREC_ROUNDTRIP
360
1FC
  0
XRECORD
  5
206
102
{ACAD_REACTORS
330
205
102
}
330
205
100
AcDbXrecord
280
     1
102
MATERIAL
148
0.0
149
0.0
149
0.0
 93
        0
 94
      127
282
     0
 72
     1
 77
     1
171
     1
175
     1
179
     1
273
     0
  0
XRECORD
  5
204
102
{ACAD_REACTORS
330
203
102
}
330
203
100
AcDbXrecord
280
     1
102
MATERIAL
148
0.0
149
0.0
149
0.0
 93
        0
 94
      127
282
     0
 72
     1
 77
     1
171
     1
175
     1
179
     1
273
     0
  0
XRECORD
  5
208
102
{ACAD_REACTORS
330
207
102
}
330
207
100
AcDbXrecord
280
     1
102
MATERIAL
148
0.0
149
0.0
149
0.0
 93
        0
 94
      127
282
     0
 72
     1
 77
     1
171
     1
175
     1
179
     1
273
     0
  0
XRECORD
  5
1EC
102
{ACAD_REACTORS
330
1EB
102
}
330
1EB
100
AcDbXrecord
280
     1
102
RTVSPropertyOp0
 70
     1
102
RTVSPropertyOp1
 70
     1
102
RTVSPropertyOp2
 70
     1
102
RTVSPropertyOp3
 70
     1
102
RTVSPropertyOp4
 70
     1
102
RTVSPropertyOp5
 70
     1
102
RTVSPropertyOp6
 70
     1
102
RTVSPropertyOp7
 70
     1
102
RTVSPropertyOp8
 70
     1
102
RTVSPropertyOp9
 70
     1
102
RTVSPropertyOp10
 70
     1
102
RTVSPropertyOp11
 70
     1
102
RTVSPropertyOp12
 70
     1
102
RTVSPropertyOp13
 70
     1
102
RTVSPropertyOp14
 70
     1
102
RTVSPropertyOp15
 70
     1
102
RTVSPropertyOp16
 70
     1
102
RTVSPropertyOp17
 70
     1
102
RTVSPropertyOp18
 70
     1
102
RTVSPropertyOp19
 70
     1
102
RTVSPropertyOp20
 70
     1
102
RTVSPropertyOp21
 70
     1
102
RTVSPropertyOp22
 70
     1
102
RTVSPropertyOp23
 70
     1
102
RTVSPropertyOp24
 70
     1
102
RTVSPropertyOp25
 70
     1
102
RTVSPropertyOp26
 70
     1
102
RTVSPropertyOp27
 70
     1
  0
XRECORD
  5
1F0
102
{ACAD_REACTORS
330
1EF
102
}
330
1EF
100
AcDbXrecord
280
     1
102
RTVSPropertyOp0
 70
     1
102
RTVSPropertyOp1
 70
     1
102
RTVSPropertyOp2
 70
     1
102
RTVSPropertyOp3
 70
     1
102
RTVSPropertyOp4
 70
     1
102
RTVSPropertyOp5
 70
     1
102
RTVSPropertyOp6
 70
     1
102
RTVSPropertyOp7
 70
     1
102
RTVSPropertyOp8
 70
     1
102
RTVSPropertyOp9
 70
     1
102
RTVSPropertyOp10
 70
     1
102
RTVSPropertyOp11
 70
     1
102
RTVSPropertyOp12
 70
     1
102
RTVSPropertyOp13
 70
     1
102
RTVSPropertyOp14
 70
     1
102
RTVSPropertyOp15
 70
     1
102
RTVSPropertyOp16
 70
     1
102
RTVSPropertyOp17
 70
     1
102
RTVSPropertyOp18
 70
     1
102
RTVSPropertyOp19
 70
     1
102
RTVSPropertyOp20
 70
     1
102
RTVSPropertyOp21
 70
     1
102
RTVSPropertyOp22
 70
     1
102
RTVSPropertyOp23
 70
     1
102
RTVSPropertyOp24
 70
     1
102
RTVSPropertyOp25
 70
     1
102
RTVSPropertyOp26
 70
     1
102
RTVSPropertyOp27
 70
     1
  0
XRECORD
  5
1EE
102
{ACAD_REACTORS
330
1ED
102
}
330
1ED
100
AcDbXrecord
280
     1
102
RTVSPropertyOp0
 70
     1
102
RTVSPropertyOp1
 70
     1
102
RTVSPropertyOp2
 70
     1
102
RTVSPropertyOp3
 70
     1
102
RTVSPropertyOp4
 70
     1
102
RTVSPropertyOp5
 70
     1
102
RTVSPropertyOp6
 70
     1
102
RTVSPropertyOp7
 70
     1
102
RTVSPropertyOp8
 70
     1
102
RTVSPropertyOp9
 70
     1
102
RTVSPropertyOp10
 70
     1
102
RTVSPropertyOp11
 70
     1
102
RTVSPropertyOp12
 70
     1
102
RTVSPropertyOp13
 70
     1
102
RTVSPropertyOp14
 70
     1
102
RTVSPropertyOp15
 70
     1
102
RTVSPropertyOp16
 70
     1
102
RTVSPropertyOp17
 70
     1
102
RTVSPropertyOp18
 70
     1
102
RTVSPropertyOp19
 70
     1
102
RTVSPropertyOp20
 70
     1
102
RTVSPropertyOp21
 70
     1
102
RTVSPropertyOp22
 70
     1
102
RTVSPropertyOp23
 70
     1
102
RTVSPropertyOp24
 70
     1
102
RTVSPropertyOp25
 70
     1
102
RTVSPropertyOp26
 70
     1
102
RTVSPropertyOp27
 70
     1
  0
XRECORD
  5
1F2
102
{ACAD_REACTORS
330
1F1
102
}
330
1F1
100
AcDbXrecord
280
     1
102
RTVSPropertyOp0
 70
     1
102
RTVSPropertyOp1
 70
     1
102
RTVSPropertyOp2
 70
     1
102
RTVSPropertyOp3
 70
     1
102
RTVSPropertyOp4
 70
     1
102
RTVSPropertyOp5
 70
     1
102
RTVSPropertyOp6
 70
     1
102
RTVSPropertyOp7
 70
     1
102
RTVSPropertyOp8
 70
     1
102
RTVSPropertyOp9
 70
     1
102
RTVSPropertyOp10
 70
     1
102
RTVSPropertyOp11
 70
     1
102
RTVSPropertyOp12
 70
     1
102
RTVSPropertyOp13
 70
     1
102
RTVSPropertyOp14
 70
     1
102
RTVSPropertyOp15
 70
     1
102
RTVSPropertyOp16
 70
     1
102
RTVSPropertyOp17
 70
     1
102
RTVSPropertyOp18
 70
     1
102
RTVSPropertyOp19
 70
     1
102
RTVSPropertyOp20
 70
     1
102
RTVSPropertyOp21
 70
     1
102
RTVSPropertyOp22
 70
     1
102
RTVSPropertyOp23
 70
     1
102
RTVSPropertyOp24
 70
     1
102
RTVSPropertyOp25
 70
     1
102
RTVSPropertyOp26
 70
     1
102
RTVSPropertyOp27
 70
     1
  0
XRECORD
  5
1FA
102
{ACAD_REACTORS
330
1F9
102
}
330
1F9
100
AcDbXrecord
280
     1
102
RTVSPropertyOp0
 70
     1
102
RTVSPropertyOp1
 70
     1
102
RTVSPropertyOp2
 70
     1
102
RTVSPropertyOp3
 70
     1
102
RTVSPropertyOp4
 70
     1
102
RTVSPropertyOp5
 70
     1
102
RTVSPropertyOp6
 70
     1
102
RTVSPropertyOp7
 70
     1
102
RTVSPropertyOp8
 70
     1
102
RTVSPropertyOp9
 70
     1
102
RTVSPropertyOp10
 70
     1
102
RTVSPropertyOp11
 70
     1
102
RTVSPropertyOp12
 70
     1
102
RTVSPropertyOp13
 70
     1
102
RTVSPropertyOp14
 70
     1
102
RTVSPropertyOp15
 70
     1
102
RTVSPropertyOp16
 70
     1
102
RTVSPropertyOp17
 70
     1
102
RTVSPropertyOp18
 70
     1
102
RTVSPropertyOp19
 70
     1
102
RTVSPropertyOp20
 70
     1
102
RTVSPropertyOp21
 70
     1
102
RTVSPropertyOp22
 70
     1
102
RTVSPropertyOp23
 70
     1
102
RTVSPropertyOp24
 70
     1
102
RTVSPropertyOp25
 70
     1
102
RTVSPropertyOp26
 70
     1
102
RTVSPropertyOp27
 70
     1
  0
XRECORD
  5
202
102
{ACAD_REACTORS
330
201
102
}
330
201
100
AcDbXrecord
280
     1
102
RTVSPropertyOp0
 70
     1
102
RTVSPropertyOp1
 70
     1
102
RTVSPropertyOp2
 70
     1
102
RTVSPropertyOp3
 70
     1
102
RTVSPropertyOp4
 70
     1
102
RTVSPropertyOp5
 70
     1
102
RTVSPropertyOp6
 70
     1
102
RTVSPropertyOp7
 70
     1
102
RTVSPropertyOp8
 70
     1
102
RTVSPropertyOp9
 70
     1
102
RTVSPropertyOp10
 70
     1
102
RTVSPropertyOp11
 70
     1
102
RTVSPropertyOp12
 70
     1
102
RTVSPropertyOp13
 70
     1
102
RTVSPropertyOp14
 70
     1
102
RTVSPropertyOp15
 70
     1
102
RTVSPropertyOp16
 70
     1
102
RTVSPropertyOp17
 70
     1
102
RTVSPropertyOp18
 70
     1
102
RTVSPropertyOp19
 70
     1
102
RTVSPropertyOp20
 70
     1
102
RTVSPropertyOp21
 70
     1
102
RTVSPropertyOp22
 70
     1
102
RTVSPropertyOp23
 70
     1
102
RTVSPropertyOp24
 70
     1
102
RTVSPropertyOp25
 70
     1
102
RTVSPropertyOp26
 70
     1
102
RTVSPropertyOp27
 70
     1
  0
XRECORD
  5
1F6
102
{ACAD_REACTORS
330
1F5
102
}
330
1F5
100
AcDbXrecord
280
     1
102
RTVSPropertyOp0
 70
     1
102
RTVSPropertyOp1
 70
     1
102
RTVSPropertyOp2
 70
     1
102
RTVSPropertyOp3
 70
     1
102
RTVSPropertyOp4
 70
     1
102
RTVSPropertyOp5
 70
     1
102
RTVSPropertyOp6
 70
     1
102
RTVSPropertyOp7
 70
     1
102
RTVSPropertyOp8
 70
     1
102
RTVSPropertyOp9
 70
     1
102
RTVSPropertyOp10
 70
     1
102
RTVSPropertyOp11
 70
     1
102
RTVSPropertyOp12
 70
     1
102
RTVSPropertyOp13
 70
     1
102
RTVSPropertyOp14
 70
     1
102
RTVSPropertyOp15
 70
     1
102
RTVSPropertyOp16
 70
     1
102
RTVSPropertyOp17
 70
     1
102
RTVSPropertyOp18
 70
     1
102
RTVSPropertyOp19
 70
     1
102
RTVSPropertyOp20
 70
     1
102
RTVSPropertyOp21
 70
     1
102
RTVSPropertyOp22
 70
     1
102
RTVSPropertyOp23
 70
     1
102
RTVSPropertyOp24
 70
     1
102
RTVSPropertyOp25
 70
     1
102
RTVSPropertyOp26
 70
     1
102
RTVSPropertyOp27
 70
     1
  0
XRECORD
  5
1F8
102
{ACAD_REACTORS
330
1F7
102
}
330
1F7
100
AcDbXrecord
280
     1
102
RTVSPropertyOp0
 70
     1
102
RTVSPropertyOp1
 70
     1
102
RTVSPropertyOp2
 70
     1
102
RTVSPropertyOp3
 70
     1
102
RTVSPropertyOp4
 70
     1
102
RTVSPropertyOp5
 70
     1
102
RTVSPropertyOp6
 70
     1
102
RTVSPropertyOp7
 70
     1
102
RTVSPropertyOp8
 70
     1
102
RTVSPropertyOp9
 70
     1
102
RTVSPropertyOp10
 70
     1
102
RTVSPropertyOp11
 70
     1
102
RTVSPropertyOp12
 70
     1
102
RTVSPropertyOp13
 70
     1
102
RTVSPropertyOp14
 70
     1
102
RTVSPropertyOp15
 70
     1
102
RTVSPropertyOp16
 70
     1
102
RTVSPropertyOp17
 70
     1
102
RTVSPropertyOp18
 70
     1
102
RTVSPropertyOp19
 70
     1
102
RTVSPropertyOp20
 70
     1
102
RTVSPropertyOp21
 70
     1
102
RTVSPropertyOp22
 70
     1
102
RTVSPropertyOp23
 70
     1
102
RTVSPropertyOp24
 70
     1
102
RTVSPropertyOp25
 70
     1
102
RTVSPropertyOp26
 70
     1
102
RTVSPropertyOp27
 70
     1
  0
XRECORD
  5
200
102
{ACAD_REACTORS
330
1FF
102
}
330
1FF
100
AcDbXrecord
280
     1
102
RTVSPropertyOp0
 70
     1
102
RTVSPropertyOp1
 70
     1
102
RTVSPropertyOp2
 70
     1
102
RTVSPropertyOp3
 70
     1
102
RTVSPropertyOp4
 70
     1
102
RTVSPropertyOp5
 70
     1
102
RTVSPropertyOp6
 70
     1
102
RTVSPropertyOp7
 70
     1
102
RTVSPropertyOp8
 70
     1
102
RTVSPropertyOp9
 70
     1
102
RTVSPropertyOp10
 70
     1
102
RTVSPropertyOp11
 70
     1
102
RTVSPropertyOp12
 70
     1
102
RTVSPropertyOp13
 70
     1
102
RTVSPropertyOp14
 70
     1
102
RTVSPropertyOp15
 70
     1
102
RTVSPropertyOp16
 70
     1
102
RTVSPropertyOp17
 70
     1
102
RTVSPropertyOp18
 70
     1
102
RTVSPropertyOp19
 70
     1
102
RTVSPropertyOp20
 70
     1
102
RTVSPropertyOp21
 70
     1
102
RTVSPropertyOp22
 70
     1
102
RTVSPropertyOp23
 70
     1
102
RTVSPropertyOp24
 70
     1
102
RTVSPropertyOp25
 70
     1
102
RTVSPropertyOp26
 70
     1
102
RTVSPropertyOp27
 70
     1
  0
XRECORD
  5
1E4
102
{ACAD_REACTORS
330
1E3
102
}
330
1E3
100
AcDbXrecord
280
     1
102
RTVSPropertyOp0
 70
     1
102
RTVSPropertyOp1
 70
     1
102
RTVSPropertyOp2
 70
     1
102
RTVSPropertyOp3
 70
     1
102
RTVSPropertyOp4
 70
     1
102
RTVSPropertyOp5
 70
     1
102
RTVSPropertyOp6
 70
     1
102
RTVSPropertyOp7
 70
     1
102
RTVSPropertyOp8
 70
     1
102
RTVSPropertyOp9
 70
     1
102
RTVSPropertyOp10
 70
     1
102
RTVSPropertyOp11
 70
     1
102
RTVSPropertyOp12
 70
     1
102
RTVSPropertyOp13
 70
     1
102
RTVSPropertyOp14
 70
     1
102
RTVSPropertyOp15
 70
     1
102
RTVSPropertyOp16
 70
     1
102
RTVSPropertyOp17
 70
     1
102
RTVSPropertyOp18
 70
     1
102
RTVSPropertyOp19
 70
     1
102
RTVSPropertyOp20
 70
     1
102
RTVSPropertyOp21
 70
     1
102
RTVSPropertyOp22
 70
     1
102
RTVSPropertyOp23
 70
     1
102
RTVSPropertyOp24
 70
     1
102
RTVSPropertyOp25
 70
     1
102
RTVSPropertyOp26
 70
     1
102
RTVSPropertyOp27
 70
     1
  0
XRECORD
  5
1E6
102
{ACAD_REACTORS
330
1E5
102
}
330
1E5
100
AcDbXrecord
280
     1
102
RTVSPropertyOp0
 70
     1
102
RTVSPropertyOp1
 70
     1
102
RTVSPropertyOp2
 70
     1
102
RTVSPropertyOp3
 70
     1
102
RTVSPropertyOp4
 70
     1
102
RTVSPropertyOp5
 70
     1
102
RTVSPropertyOp6
 70
     1
102
RTVSPropertyOp7
 70
     1
102
RTVSPropertyOp8
 70
     1
102
RTVSPropertyOp9
 70
     1
102
RTVSPropertyOp10
 70
     1
102
RTVSPropertyOp11
 70
     1
102
RTVSPropertyOp12
 70
     1
102
RTVSPropertyOp13
 70
     1
102
RTVSPropertyOp14
 70
     1
102
RTVSPropertyOp15
 70
     1
102
RTVSPropertyOp16
 70
     1
102
RTVSPropertyOp17
 70
     1
102
RTVSPropertyOp18
 70
     1
102
RTVSPropertyOp19
 70
     1
102
RTVSPropertyOp20
 70
     1
102
RTVSPropertyOp21
 70
     1
102
RTVSPropertyOp22
 70
     1
102
RTVSPropertyOp23
 70
     1
102
RTVSPropertyOp24
 70
     1
102
RTVSPropertyOp25
 70
     1
102
RTVSPropertyOp26
 70
     1
102
RTVSPropertyOp27
 70
     1
  0
XRECORD
  5
1E8
102
{ACAD_REACTORS
330
1E7
102
}
330
1E7
100
AcDbXrecord
280
     1
102
RTVSPropertyOp0
 70
     1
102
RTVSPropertyOp1
 70
     1
102
RTVSPropertyOp2
 70
     1
102
RTVSPropertyOp3
 70
     1
102
RTVSPropertyOp4
 70
     1
102
RTVSPropertyOp5
 70
     1
102
RTVSPropertyOp6
 70
     1
102
RTVSPropertyOp7
 70
     1
102
RTVSPropertyOp8
 70
     1
102
RTVSPropertyOp9
 70
     1
102
RTVSPropertyOp10
 70
     1
102
RTVSPropertyOp11
 70
     1
102
RTVSPropertyOp12
 70
     1
102
RTVSPropertyOp13
 70
     1
102
RTVSPropertyOp14
 70
     1
102
RTVSPropertyOp15
 70
     1
102
RTVSPropertyOp16
 70
     1
102
RTVSPropertyOp17
 70
     1
102
RTVSPropertyOp18
 70
     1
102
RTVSPropertyOp19
 70
     1
102
RTVSPropertyOp20
 70
     1
102
RTVSPropertyOp21
 70
     1
102
RTVSPropertyOp22
 70
     1
102
RTVSPropertyOp23
 70
     1
102
RTVSPropertyOp24
 70
     1
102
RTVSPropertyOp25
 70
     1
102
RTVSPropertyOp26
 70
     1
102
RTVSPropertyOp27
 70
     1
  0
XRECORD
  5
1EA
102
{ACAD_REACTORS
330
1E9
102
}
330
1E9
100
AcDbXrecord
280
     1
102
RTVSPropertyOp0
 70
     1
102
RTVSPropertyOp1
 70
     1
102
RTVSPropertyOp2
 70
     1
102
RTVSPropertyOp3
 70
     1
102
RTVSPropertyOp4
 70
     1
102
RTVSPropertyOp5
 70
     1
102
RTVSPropertyOp6
 70
     1
102
RTVSPropertyOp7
 70
     1
102
RTVSPropertyOp8
 70
     1
102
RTVSPropertyOp9
 70
     1
102
RTVSPropertyOp10
 70
     1
102
RTVSPropertyOp11
 70
     1
102
RTVSPropertyOp12
 70
     1
102
RTVSPropertyOp13
 70
     1
102
RTVSPropertyOp14
 70
     1
102
RTVSPropertyOp15
 70
     1
102
RTVSPropertyOp16
 70
     1
102
RTVSPropertyOp17
 70
     1
102
RTVSPropertyOp18
 70
     1
102
RTVSPropertyOp19
 70
     1
102
RTVSPropertyOp20
 70
     1
102
RTVSPropertyOp21
 70
     1
102
RTVSPropertyOp22
 70
     1
102
RTVSPropertyOp23
 70
     1
102
RTVSPropertyOp24
 70
     1
102
RTVSPropertyOp25
 70
     1
102
RTVSPropertyOp26
 70
     1
102
RTVSPropertyOp27
 70
     1
  0
XRECORD
  5
1FE
102
{ACAD_REACTORS
330
1FD
102
}
330
1FD
100
AcDbXrecord
280
     1
102
RTVSPropertyOp0
 70
     1
102
RTVSPropertyOp1
 70
     1
102
RTVSPropertyOp2
 70
     1
102
RTVSPropertyOp3
 70
     1
102
RTVSPropertyOp4
 70
     1
102
RTVSPropertyOp5
 70
     1
102
RTVSPropertyOp6
 70
     1
102
RTVSPropertyOp7
 70
     1
102
RTVSPropertyOp8
 70
     1
102
RTVSPropertyOp9
 70
     1
102
RTVSPropertyOp10
 70
     1
102
RTVSPropertyOp11
 70
     1
102
RTVSPropertyOp12
 70
     1
102
RTVSPropertyOp13
 70
     1
102
RTVSPropertyOp14
 70
     1
102
RTVSPropertyOp15
 70
     1
102
RTVSPropertyOp16
 70
     1
102
RTVSPropertyOp17
 70
     1
102
RTVSPropertyOp18
 70
     1
102
RTVSPropertyOp19
 70
     1
102
RTVSPropertyOp20
 70
     1
102
RTVSPropertyOp21
 70
     1
102
RTVSPropertyOp22
 70
     1
102
RTVSPropertyOp23
 70
     1
102
RTVSPropertyOp24
 70
     1
102
RTVSPropertyOp25
 70
     1
102
RTVSPropertyOp26
 70
     1
102
RTVSPropertyOp27
 70
     1
  0
XRECORD
  5
1F4
102
{ACAD_REACTORS
330
1F3
102
}
330
1F3
100
AcDbXrecord
280
     1
102
RTVSPropertyOp0
 70
     1
102
RTVSPropertyOp1
 70
     1
102
RTVSPropertyOp2
 70
     1
102
RTVSPropertyOp3
 70
     1
102
RTVSPropertyOp4
 70
     1
102
RTVSPropertyOp5
 70
     1
102
RTVSPropertyOp6
 70
     1
102
RTVSPropertyOp7
 70
     1
102
RTVSPropertyOp8
 70
     1
102
RTVSPropertyOp9
 70
     1
102
RTVSPropertyOp10
 70
     1
102
RTVSPropertyOp11
 70
     1
102
RTVSPropertyOp12
 70
     1
102
RTVSPropertyOp13
 70
     1
102
RTVSPropertyOp14
 70
     1
102
RTVSPropertyOp15
 70
     1
102
RTVSPropertyOp16
 70
     1
102
RTVSPropertyOp17
 70
     1
102
RTVSPropertyOp18
 70
     1
102
RTVSPropertyOp19
 70
     1
102
RTVSPropertyOp20
 70
     1
102
RTVSPropertyOp21
 70
     1
102
RTVSPropertyOp22
 70
     1
102
RTVSPropertyOp23
 70
     1
102
RTVSPropertyOp24
 70
     1
102
RTVSPropertyOp25
 70
     1
102
RTVSPropertyOp26
 70
     1
102
RTVSPropertyOp27
 70
     1
  0
XRECORD
  5
1FC
102
{ACAD_REACTORS
330
1FB
102
}
330
1FB
100
AcDbXrecord
280
     1
102
RTVSPropertyOp0
 70
     1
102
RTVSPropertyOp1
 70
     1
102
RTVSPropertyOp2
 70
     1
102
RTVSPropertyOp3
 70
     1
102
RTVSPropertyOp4
 70
     1
102
RTVSPropertyOp5
 70
     1
102
RTVSPropertyOp6
 70
     1
102
RTVSPropertyOp7
 70
     1
102
RTVSPropertyOp8
 70
     1
102
RTVSPropertyOp9
 70
     1
102
RTVSPropertyOp10
 70
     1
102
RTVSPropertyOp11
 70
     1
102
RTVSPropertyOp12
 70
     1
102
RTVSPropertyOp13
 70
     1
102
RTVSPropertyOp14
 70
     1
102
RTVSPropertyOp15
 70
     1
102
RTVSPropertyOp16
 70
     1
102
RTVSPropertyOp17
 70
     1
102
RTVSPropertyOp18
 70
     1
102
RTVSPropertyOp19
 70
     1
102
RTVSPropertyOp20
 70
     1
102
RTVSPropertyOp21
 70
     1
102
RTVSPropertyOp22
 70
     1
102
RTVSPropertyOp23
 70
     1
102
RTVSPropertyOp24
 70
     1
102
RTVSPropertyOp25
 70
     1
102
RTVSPropertyOp26
 70
     1
102
RTVSPropertyOp27
 70
     1
  0
ENDSEC
  0
EOF
