  0
SECTION
  2
HEADER
  9
$ACADVER
  1
AC1009
  9
$INSBASE
 10
0
 20
0
 30
0
  9
$EXTMIN
 10
0
 20
0
  9
$EXTMAX
 10
2100
 20
1485
  9
$LIMMIN
 10
0
 20
0
  9
$LIMMAX
 10
2100
 20
1485
  9
$LTSCALE
 40
5
  0
ENDSEC
  0
SECTION
  2
TABLES
  0
TABLE
  2
LTYPE
 70
     9
  0
LTYPE
  2
CONTINUOUS
 70
    64
  3
実線
 72
    65
 73
     0
 40
0.0
  0
LTYPE
  2
DASHED1
 70
    64
  3
--  --  --  --  --  --  --  --  
 72
    65
 73
     2
 40
2.5
 49
1.25
 49
-1.25
  0
LTYPE
  2
DASHED2
 70
    64
  3
----    ----    ----    ----    
 72
    65
 73
     2
 40
5.0
 49
2.5
 49
-2.5
  0
LTYPE
  2
DASHED3
 70
    64
  3
------  ------  ------  ------  
 72
    65
 73
     2
 40
5.0
 49
3.75
 49
-1.25
  0
LTYPE
  2
CENTER1
 70
    64
  3
----- - ----- - ----- - ----- - 
 72
    65
 73
     4
 40
10.0
 49
6.25
 49
-1.25
 49
1.25
 49
-1.25
  0
LTYPE
  2
CENTER2
 70
    64
  3
----------  --  ----------  --  
 72
    65
 73
     4
 40
20.0
 49
12.5
 49
-2.5
 49
2.5
 49
-2.5
  0
LTYPE
  2
PHANTOM1
 70
    64
  3
--- - - --- - - --- - - --- - - 
 72
    65
 73
     6
 40
10.0
 49
3.25
 49
-1.25
 49
1.25
 49
-1.25
 49
1.25
 49
-1.25
  0
LTYPE
  2
PHANTOM2
 70
    64
  3
--------  -  -  --------  -  -  
 72
    65
 73
     6
 40
20.0
 49
10.0
 49
-2.5
 49
1.25
 49
-2.5
 49
1.25
 49
-2.5
  0
LTYPE
  2
DOT
 70
    64
  3
-   -   -   -   -   -   -   -   
 72
    65
 73
     2
 40
2.5
 49
0.625
 49
-1.875
  0
LTYPE
  2
DUMMY
 70
    64
  3
ダミー
 72
    65
 73
     0
 40
0.0
  0
LTYPE
  2
RAND1
 70
    64
  3
ランダム線1
 72
    65
 73
     4
 40
10.0
 49
1.0
 49
-2.0
 49
3.0
 49
-4.0
  0
LTYPE
  2
RAND2
 70
    64
  3
ランダム線2
 72
    65
 73
     4
 40
14.0
 49
2.0
 49
-3.0
 49
4.0
 49
-5.0
  0
LTYPE
  2
RAND3
 70
    64
  3
ランダム線3
 72
    65
 73
     4
 40
18.0
 49
3.0
 49
-4.0
 49
5.0
 49
-6.0
  0
LTYPE
  2
RAND4
 70
    64
  3
ランダム線4
 72
    65
 73
     4
 40
22.0
 49
4.0
 49
-5.0
 49
6.0
 49
-7.0
  0
LTYPE
  2
RAND5
 70
    64
  3
ランダム線5
 72
    65
 73
     4
 40
26.0
 49
5.0
 49
-6.0
 49
7.0
 49
-8.0
  0
LTYPE
  2
LONG1
 70
    64
  3
----------  --  ----------  --  
 72
    65
 73
     4
 40
40.0
 49
32.5
 49
-2.5
 49
2.5
 49
-2.5
  0
LTYPE
  2
LONG2
 70
    64
  3
--------  -  -  --------  -  -  
 72
    65
 73
     6
 40
40.0
 49
30.0
 49
-2.5
 49
1.25
 49
-2.5
 49
1.25
 49
-2.5
  0
LTYPE
  2
LONG3
 70
    64
  3
+++++++++++++++..+++++++++++++++
 72
    65
 73
     2
 40
40.0
 49
37.5
 49
-2.5
  0
LTYPE
  2
LONG4
 70
    64
  3
+++++++++++++++..+++++++++++++++
 72
    65
 73
     2
 40
80.0
 49
75.0
 49
-5.0
  0
LTYPE
  2
LONG5
 70
    64
  3
----------  --  ----------  --  
 72
    65
 73
     4
 40
60.0
 49
37.5
 49
-7.5
 49
7.5
 49
-7.5
  0
LTYPE
  2
dashed
 70
   64
  3
-------   -------------   ------
 72
   65
 73
    2
 40
7.5
 49
6
 49
-1.5
  0
LTYPE
  2
dashed_spaced
 70
   64
  3
----        --------        ----
 72
   65
 73
    2
 40
12
 49
6
 49
-6
  0
LTYPE
  2
long_dashed_dotted
 70
   64
  3
------------- --- --------------
 72
   65
 73
    4
 40
15.25
 49
12
 49
-1.5
 49
0.25
 49
-1.5
  0
LTYPE
  2
long_dashed_double-dotted
 70
   64
  3
----------- --- --- ------------
 72
   65
 73
    6
 40
17
 49
12
 49
-1.5
 49
0.25
 49
-1.5
 49
0.25
 49
-1.5
  0
LTYPE
  2
long_dashed_triplicate-dotted
 70
   64
  3
--------- --- --- --- ----------
 72
   65
 73
    8
 40
18.75
 49
12
 49
-1.5
 49
0.25
 49
-1.5
 49
0.25
 49
-1.5
 49
0.25
 49
-1.5
  0
LTYPE
  2
dotted
 70
   64
  3
   -       -       -       -    
 72
   65
 73
    2
 40
1.75
 49
0.25
 49
-1.5
  0
LTYPE
  2
chain
 70
   64
  3
-------------- -- --------------
 72
   65
 73
    4
 40
18.5
 49
12
 49
-1.5
 49
3.5
 49
-1.5
  0
LTYPE
  2
chain_double_dash
 70
   64
  3
------------ -- -- -------------
 72
   65
 73
    6
 40
23.5
 49
12
 49
-1.5
 49
3.5
 49
-1.5
 49
3.5
 49
-1.5
  0
LTYPE
  2
dashed_dotted
 70
   64
  3
-----------     -     ----------
 72
   65
 73
    4
 40
9.25
 49
6
 49
-1.5
 49
0.25
 49
-1.5
  0
LTYPE
  2
double-dashed_dotted
 70
   64
  3
------   -----------   -   -----
 72
   65
 73
    6
 40
16.75
 49
6
 49
-1.5
 49
6
 49
-1.5
 49
0.25
 49
-1.5
  0
LTYPE
  2
dashed_double-dotted
 70
   64
  3
---------    -    -    ---------
 72
   65
 73
    6
 40
11
 49
6
 49
-1.5
 49
0.25
 49
-1.5
 49
0.25
 49
-1.5
  0
LTYPE
  2
double-dashed_double-dotted
 70
   64
  3
-----   ---------   -   -   ----
 72
   65
 73
    8
 40
18.5
 49
6
 49
-1.5
 49
6
 49
-1.5
 49
0.25
 49
-1.5
 49
0.25
 49
-1.5
  0
LTYPE
  2
dashed_triplicate-dotted
 70
   64
  3
-------    -    -    -    ------
 72
   65
 73
    8
 40
12.75
 49
6
 49
-1.5
 49
0.25
 49
-1.5
 49
0.25
 49
-1.5
 49
0.25
 49
-1.5
  0
LTYPE
  2
double-dashed_triplicate-dotted
 70
   64
  3
-----  ---------  -  -  -  -----
 72
   65
 73
   10
 40
20.25
 49
6
 49
-1.5
 49
6
 49
-1.5
 49
0.25
 49
-1.5
 49
0.25
 49
-1.5
 49
0.25
 49
-1.5
  0
LTYPE
  2
undefined
 70
   64
  3
--------------------------------
 72
   65
 73
    0
 40
0
  0
ENDTAB
  0
TABLE
  2
STYLE
  5
3
100
AcDbSymbolTable
 70
     1
  0
STYLE
  5
10
100
AcDbSymbolTableRecord
100
AcDbTextStyleTableRecord
  2
STANDARD
 70
     0
 40
0.0
 41
1.0
 50
0.0
 71
     0
 42
0.2
  3
txt
  4
bigfont.shx
  0
STYLE
  5
26
100
AcDbSymbolTableRecord
100
AcDbTextStyleTableRecord
  2
TATEGAKI
 70
    68
 40
0.0
 41
1.0
 50
0.0
 71
     0
 42
1.0
  3
txt
  4
bigfont.shx
  0
ENDTAB
  0
TABLE
  2
LAYER
 70
   18
  0
LAYER
  2
_0-0_containe
 70
   64
 62
    7
  6
CONTINUOUS
  0
LAYER
  2
_0-2_free
 70
   64
 62
    7
  6
CONTINUOUS
  0
LAYER
  2
_0-3_free
 70
   64
 62
    7
  6
CONTINUOUS
  0
LAYER
  2
_0-4_free
 70
   64
 62
    7
  6
CONTINUOUS
  0
LAYER
  2
_0-7_word
 70
   64
 62
    7
  6
CONTINUOUS
  0
LAYER
  2
_0-8_free
 70
   64
 62
    7
  6
CONTINUOUS
  0
LAYER
  2
_0-9_measure
 70
   64
 62
    7
  6
CONTINUOUS
  0
LAYER
  2
_0-a_hatch
 70
   64
 62
    7
  6
CONTINUOUS
  0
LAYER
  2
_0-b_free
 70
   64
 62
    7
  6
CONTINUOUS
  0
LAYER
  2
_0-d_free
 70
   64
 62
    7
  6
CONTINUOUS
  0
LAYER
  2
_0-e_free
 70
   64
 62
    7
  6
CONTINUOUS
  0
LAYER
  2
_0-f_add_line
 70
   64
 62
    7
  6
CONTINUOUS
  0
LAYER
  2
_1-0_containe
 70
   64
 62
    7
  6
CONTINUOUS
  0
LAYER
  2
_7-0_free
 70
   64
 62
    7
  6
CONTINUOUS
  0
LAYER
  2
_8-0_free
 70
   64
 62
    7
  6
CONTINUOUS
  0
LAYER
  2
_f-0_line
 70
   64
 62
    7
  6
CONTINUOUS
  0
LAYER
  2
_f-7_word
 70
   64
 62
    7
  6
CONTINUOUS
  0
LAYER
  2
ADD_LINE
 70
   64
 62
    7
  6
CONTINUOUS
  0
ENDTAB
  0
ENDSEC
  0
SECTION
  2
BLOCKS
  0
ENDSEC
  0
SECTION
  2
ENTITIES
  0
LINE
  8
_7-0_free
  6
CONTINUOUS
 62
    7
 10
1555.4994017594288
 20
36.492117051459871
 11
1555.4994017594288
 21
256.49217208104562
  0
POINT
  8
_0-a_hatch
 62
    7
 10
-601.3385086354142
 20
131.79295086952706
  0
LINE
  8
_f-0_line
  6
CONTINUOUS
 62
    5
 10
55.499424735983496
 20
36.492117051459871
 11
55.499424735983496
 21
1451.4918900843372
  0
LINE
  8
_f-0_line
  6
CONTINUOUS
 62
    5
 10
55.499424735983496
 20
1451.4918900843372
 11
2055.4993192794877
 21
1451.4918900843372
  0
LINE
  8
_f-0_line
  6
CONTINUOUS
 62
    5
 10
2055.4993192794877
 20
1451.4918900843372
 11
2055.4993192794877
 21
36.492117051459871
  0
LINE
  8
_f-0_line
  6
CONTINUOUS
 62
    5
 10
2055.4993192794877
 20
36.492117051459871
 11
55.499424735983496
 21
36.492117051459871
  0
LINE
  8
_7-0_free
  6
CONTINUOUS
 62
    5
 10
2055.4993192794877
 20
36.492117051459871
 11
55.499162052100246
 21
36.492117051459871
  0
LINE
  8
_7-0_free
  6
CONTINUOUS
 62
    5
 10
2055.4993192794877
 20
1451.4917998903127
 11
2055.4993192794877
 21
36.492117051459871
  0
LINE
  8
_7-0_free
  6
CONTINUOUS
 62
    5
 10
55.499162052100246
 20
36.492117051459871
 11
55.499162052100246
 21
1451.4917998903127
  0
LINE
  8
_7-0_free
  6
CONTINUOUS
 62
    5
 10
55.499162052100246
 20
1451.4917998903127
 11
2055.4993192794877
 21
1451.4917998903127
  0
LINE
  8
_7-0_free
  6
CONTINUOUS
 62
    7
 10
1435.937929699345
 20
86.49209836459832
 11
2055.4993192794877
 21
86.49209836459832
  0
LINE
  8
_7-0_free
  6
CONTINUOUS
 62
    7
 10
2055.4993192794877
 20
1426.4918411302829
 11
1555.4994017594288
 21
1426.4918411302829
  0
LINE
  8
ADD_LINE
  6
DOT
 62
    7
 10
1680.499442999399
 20
1426.4917638053385
 11
1940.4998059111385
 21
1426.4917638053385
  0
LINE
  8
ADD_LINE
  6
DOT
 62
    7
 10
1680.499442999399
 20
1426.4917638053385
 11
1940.4998059111385
 21
1426.4917638053385
  0
LINE
  8
_7-0_free
  6
CONTINUOUS
 62
    7
 10
1555.4994017594288
 20
1426.4918411302829
 11
2055.4993192794877
 21
1426.4918411302829
  0
LINE
  8
_7-0_free
  6
CONTINUOUS
 62
    7
 10
2055.4993192794877
 20
1426.4918411302829
 11
1555.4994017594288
 21
1426.4918411302829
  0
LINE
  8
_7-0_free
  6
CONTINUOUS
 62
    7
 10
910.4995007353574
 20
36.492117051459871
 11
910.4995007353574
 21
183.35940871045167
  0
LINE
  8
_7-0_free
  6
CONTINUOUS
 62
    7
 10
910.4995007353574
 20
183.35940871045167
 11
910.4995007353574
 21
186.49206485712241
  0
LINE
  8
_7-0_free
  6
CONTINUOUS
 62
    7
 10
1427.2345824772988
 20
136.49208547710757
 11
1425.5379092099724
 21
136.49208547710757
  0
LINE
  8
_7-0_free
  6
CONTINUOUS
 62
    7
 10
2055.4993192794877
 20
1376.4918627812674
 11
1555.4994017594288
 21
1376.4918627812674
  0
LINE
  8
_7-0_free
  6
CONTINUOUS
 62
    7
 10
2055.4993192794877
 20
1376.4918627812674
 11
1555.4994017594288
 21
1376.4918627812674
  0
LINE
  8
_7-0_free
  6
CONTINUOUS
 62
    7
 10
2055.4993192794877
 20
1401.4918524712748
 11
1555.4994017594288
 21
1401.4918524712748
  0
LINE
  8
_7-0_free
  6
CONTINUOUS
 62
    7
 10
2055.4993192794877
 20
1401.4918627812676
 11
1555.4994017594288
 21
1401.4918627812676
  0
LINE
  8
_7-0_free
  6
CONTINUOUS
 62
    7
 10
785.49933577547563
 20
36.492117051459871
 11
785.49933577547563
 21
186.49206485712241
  0
TEXT
  8
_7-0_free
 62
    3
 10
816.39985589398293
 20
153.4952376542482
 40
15
 41
1
 50
0
  1
品　　名
  0
TEXT
  8
_7-0_free
 62
    3
 10
815.94134990282646
 20
104.18952028912699
 40
15
 41
1
 50
-0.0001903428782353
  1
品　　番
  0
TEXT
  8
_7-0_free
 62
    3
 10
815.94134990282646
 20
53.53111127357451
 40
15
 41
1
 50
-0.0001903428782353
  1
重　　量
  0
TEXT
  8
_7-0_free
 62
    3
 10
1456.3811522659125
 20
153.99229786295521
 40
15
 41
1
 50
0
  1
作成年月日
  0
TEXT
  8
_7-0_free
 62
    3
 10
1464.0084559306611
 20
103.99230301795157
 40
15
 41
1
 50
0
  1
縮　　尺
  0
TEXT
  8
_7-0_free
 62
    3
 10
1564.5205628130607
 20
1432.386708279842
 40
12.5
 41
1
 50
0
  1
部 品 No.
  0
TEXT
  8
_7-0_free
 62
    3
 10
1661.38991293711
 20
1432.7756991460137
 40
12.5
 41
1
 50
0
  1
名  称
  0
TEXT
  8
_7-0_free
 62
    3
 10
1864.2878250398867
 20
1432.7756991460137
 40
12.5
 41
1
 50
0
  1
材質・仕様
  0
TEXT
  8
_7-0_free
 62
    3
 10
1583.9569196410798
 20
1407.4241593279971
 40
12.5
 41
1
 50
0
  1
①
  0
TEXT
  8
_7-0_free
 62
    3
 10
1583.9569196410798
 20
1382.4241696379897
 40
12.5
 41
1
 50
0
  1
②
  0
TEXT
  8
_7-0_free
 62
    3
 10
1583.9569196410798
 20
1357.4241809789817
 40
12.5
 41
1
 50
0
  1
③
  0
TEXT
  8
_7-0_free
 62
    3
 10
1642.9997110592069
 20
51.345668632559267
 40
20
 41
1
 50
0
  1
株式会社 トーシンコーポレーション
  0
LINE
  8
_7-0_free
  6
CONTINUOUS
 62
    7
 10
2055.4993192794877
 20
186.49206485712241
 11
785.49933577547563
 21
186.49206485712241
  0
LINE
  8
_7-0_free
  6
CONTINUOUS
 62
    7
 10
2055.4993192794877
 20
136.49208547710757
 11
785.49933577547563
 21
136.49208547710757
  0
LINE
  8
_7-0_free
  6
CONTINUOUS
 62
    7
 10
785.49933577547563
 20
86.49209836459832
 11
1435.937929699345
 21
86.49209836459832
  0
TEXT
  8
_f-7_word
 62
    3
 10
930.83219761250859
 20
156.77085315914093
 40
15
 41
1
 50
0
  1
ガーデンパン
  0
TEXT
  8
_f-7_word
 62
    3
 10
930.83219761250859
 20
101.61758610888739
 40
20
 41
1
 50
0
  1
ＮＧＰ－５７１４Ｆ
  0
TEXT
  8
_f-7_word
 62
    3
 10
1130.8952816432181
 20
101.61758610888739
 40
15
 41
1
 50
0
  1
不凍栓仕様
  0
TEXT
  8
_f-7_word
 62
    3
 10
1076.2301572742638
 20
54.278715521339223
 40
15
 41
1
 50
0
  1
２１．５　Ｋｇ
  0
TEXT
  8
_f-7_word
 62
    3
 10
1802.0928396166696
 20
103.87181804162779
 40
15
 41
1
 50
0
  1
１／５
  0
LINE
  8
_7-0_free
  6
CONTINUOUS
 62
    7
 10
1325.83268670453
 20
186.49206485712241
 11
2055.4993192794877
 21
186.49206485712241
  0
LINE
  8
_7-0_free
  6
CONTINUOUS
 62
    7
 10
1427.2345824772988
 20
86.49209836459832
 11
1427.2345824772988
 21
186.49206485712241
  0
LINE
  8
_7-0_free
  6
CONTINUOUS
 62
    7
 10
1555.4994017594288
 20
216.49216383305131
 11
2055.4993192794877
 21
216.49216383305131
  0
LINE
  8
_7-0_free
  6
CONTINUOUS
 62
    7
 10
1555.4994017594288
 20
256.49217208104562
 11
2055.4993192794877
 21
256.49217208104562
  0
LINE
  8
_7-0_free
  6
CONTINUOUS
 62
    7
 10
1805.4993605194582
 20
256.49217208104562
 11
1805.4993605194582
 21
186.49206485712241
  0
TEXT
  8
_7-0_free
 62
    3
 10
1905.4992285523351
 20
227.23859904985048
 40
15
 41
1
 50
-0.0004253173678881
  1
仕上材
  0
TEXT
  8
_7-0_free
 62
    3
 10
1664.2492697920648
 20
227.23853409695167
 40
15
 41
1
 50
-0.0004253173678881
  1
材質
  0
TEXT
  8
_f-7_word
 62
    3
 10
1593.9479035870427
 20
195.24211434508686
 40
12.5
 41
1
 50
0
  1
ＧＲＣ(ガラス繊維強化セメント)
  0
TEXT
  8
_f-7_word
 62
    3
 10
1858.9442421727401
 20
195.24211434508686
 40
12.5
 41
1
 50
0
  1
アクリルシリコン樹脂塗装
  0
LINE
  8
_0-0_containe
  6
CONTINUOUS
 62
    4
 10
257.59148159954037
 20
540.92248400893641
 11
239.63371085795615
 21
540.92248400893641
  0
LINE
  8
_0-0_containe
  6
CONTINUOUS
 62
    4
 10
262.53328728811113
 20
536.68275759254379
 11
270.83536229489795
 21
412.9224890240115
  0
LINE
  8
_0-0_containe
  6
CONTINUOUS
 62
    4
 10
271.77947806987021
 20
548.25715620772917
 11
279.56106311517289
 21
432.2531418427281
  0
LINE
  8
_0-0_containe
  6
CONTINUOUS
 62
    4
 10
270.80489096445405
 20
412.9224890240115
 11
720.80475575626542
 21
412.9224890240115
  0
LINE
  8
_0-3_free
  6
CONTINUOUS
 62
    7
 10
266.79060284646738
 20
552.9224903127606
 11
724.81904387425197
 21
552.9224903127606
  0
LINE
  8
_0-0_containe
  6
CONTINUOUS
 62
    4
 10
220.86386677332342
 20
543.68955332107271
 11
210.80485944533365
 21
412.9224890240115
  0
LINE
  8
_0-0_containe
  6
CONTINUOUS
 62
    4
 10
266.79060284646738
 20
552.9224903127606
 11
230.83418518831337
 21
552.9224903127606
  0
LINE
  8
_0-0_containe
  6
CONTINUOUS
 62
    4
 10
210.80485944533365
 20
412.9224890240115
 11
225.83540058915645
 21
412.9224890240115
  0
LINE
  8
_0-0_containe
  6
CONTINUOUS
 62
    4
 10
234.64656977531007
 20
536.27870279617036
 11
225.83540058915645
 21
412.9224890240115
  0
LINE
  8
_0-3_free
  6
CONTINUOUS
 62
    7
 10
225.83540058915645
 20
412.9224890240115
 11
270.80489096445405
 21
412.9224890240115
  0
LINE
  8
_0-0_containe
  6
CONTINUOUS
 62
    4
 10
734.01816512117898
 20
540.92248400893641
 11
751.97568812836971
 21
540.92248400893641
  0
LINE
  8
_0-0_containe
  6
CONTINUOUS
 62
    4
 10
729.07611169821485
 20
536.68275759254379
 11
720.77428442582141
 21
412.9224890240115
  0
LINE
  8
_0-0_containe
  6
CONTINUOUS
 62
    4
 10
719.83016865084915
 20
548.25715620772917
 11
712.04833587115309
 21
432.2531418427281
  0
LINE
  8
_0-0_containe
  6
CONTINUOUS
 62
    4
 10
770.74577994739661
 20
543.68955332107271
 11
780.80478727538571
 21
412.9224890240115
  0
LINE
  8
_0-0_containe
  6
CONTINUOUS
 62
    4
 10
724.81904387425197
 20
552.9224903127606
 11
760.7752137980126
 21
552.9224903127606
  0
LINE
  8
_0-0_containe
  6
CONTINUOUS
 62
    4
 10
780.80478727538571
 20
412.9224890240115
 11
765.77424613156359
 21
412.9224890240115
  0
LINE
  8
_0-0_containe
  6
CONTINUOUS
 62
    4
 10
756.96307694540928
 20
536.27870279617036
 11
765.77424613156359
 21
412.9224890240115
  0
LINE
  8
_0-3_free
  6
CONTINUOUS
 62
    7
 10
765.77424613156359
 20
412.9224890240115
 11
720.80475575626542
 21
412.9224890240115
  0
LINE
  8
_0-0_containe
  6
CONTINUOUS
 62
    4
 10
289.53881356197854
 20
422.92247363266534
 11
702.07083315874092
 21
422.92247363266534
  0
LINE
  8
_0-9_measure
  6
CONTINUOUS
 62
    3
 10
160.80487446846604
 20
412.9224890240115
 11
160.80487446846604
 21
552.9224903127606
  0
LINE
  8
_0-9_measure
  6
CONTINUOUS
 62
    3
 10
185.80474308970309
 20
412.9224890240115
 11
160.80487446846604
 21
412.9224890240115
  0
LINE
  8
_0-9_measure
  6
CONTINUOUS
 62
    3
 10
185.80474308970309
 20
552.9224903127606
 11
160.80487446846604
 21
552.9224903127606
  0
LINE
  8
_0-9_measure
  6
CONTINUOUS
 62
    3
 10
210.80485944533365
 20
602.92247528962855
 11
220.80465825319237
 21
602.92247528962855
  0
LINE
  8
_0-9_measure
  6
CONTINUOUS
 62
    3
 10
210.80485944533365
 20
577.92248280119441
 11
210.80485944533365
 21
602.92247528962855
  0
LINE
  8
_0-9_measure
  6
CONTINUOUS
 62
    3
 10
220.80465825319237
 20
577.92248280119441
 11
220.80465825319237
 21
602.92247528962855
  0
LINE
  8
_0-9_measure
  6
CONTINUOUS
 62
    3
 10
220.80465825319237
 20
602.92247528962855
 11
770.80474073313349
 21
602.92247528962855
  0
LINE
  8
_0-9_measure
  6
CONTINUOUS
 62
    3
 10
770.80474073313349
 20
577.92248280119441
 11
770.80474073313349
 21
602.92247528962855
  0
LINE
  8
_0-9_measure
  6
CONTINUOUS
 62
    3
 10
770.80474073313349
 20
602.92247528962855
 11
780.80478727538571
 21
602.92247528962855
  0
LINE
  8
_0-9_measure
  6
CONTINUOUS
 62
    3
 10
780.80478727538571
 20
577.92248280119441
 11
780.80478727538571
 21
602.92247528962855
  0
LINE
  8
_0-9_measure
  6
CONTINUOUS
 62
    3
 10
210.80485944533365
 20
362.9225040471436
 11
225.83540058915645
 21
362.9225040471436
  0
LINE
  8
_0-9_measure
  6
CONTINUOUS
 62
    3
 10
210.80485944533365
 20
387.92249653557752
 11
210.80485944533365
 21
362.9225040471436
  0
LINE
  8
_0-9_measure
  6
CONTINUOUS
 62
    3
 10
225.83540058915645
 20
387.92249653557752
 11
225.83540058915645
 21
362.9225040471436
  0
LINE
  8
_0-9_measure
  6
CONTINUOUS
 62
    3
 10
225.83540058915645
 20
362.9225040471436
 11
270.80489096445405
 21
362.9225040471436
  0
LINE
  8
_0-9_measure
  6
CONTINUOUS
 62
    3
 10
270.80489096445405
 20
387.92249653557752
 11
270.80489096445405
 21
362.9225040471436
  0
LINE
  8
_0-9_measure
  6
CONTINUOUS
 62
    3
 10
270.80489096445405
 20
362.9225040471436
 11
720.80475575626542
 21
362.9225040471436
  0
LINE
  8
_0-9_measure
  6
CONTINUOUS
 62
    3
 10
720.80475575626542
 20
387.92249653557752
 11
720.80475575626542
 21
362.9225040471436
  0
LINE
  8
_0-9_measure
  6
CONTINUOUS
 62
    3
 10
720.80475575626542
 20
362.9225040471436
 11
765.77424613156359
 21
362.9225040471436
  0
LINE
  8
_0-9_measure
  6
CONTINUOUS
 62
    3
 10
765.77424613156359
 20
387.92249653557752
 11
765.77424613156359
 21
362.9225040471436
  0
LINE
  8
_0-9_measure
  6
CONTINUOUS
 62
    3
 10
765.77424613156359
 20
362.9225040471436
 11
780.80478727538571
 21
362.9225040471436
  0
LINE
  8
_0-9_measure
  6
CONTINUOUS
 62
    3
 10
780.80478727538571
 20
387.92249653557752
 11
780.80478727538571
 21
362.9225040471436
  0
LINE
  8
_0-9_measure
  6
CONTINUOUS
 62
    3
 10
210.80485944533365
 20
337.92251155870963
 11
780.80478727538571
 21
337.92251155870963
  0
LINE
  8
_0-9_measure
  6
CONTINUOUS
 62
    3
 10
210.80485944533365
 20
362.9225040471436
 11
210.80485944533365
 21
337.92251155870963
  0
LINE
  8
_0-9_measure
  6
CONTINUOUS
 62
    3
 10
780.80478727538571
 20
362.9225040471436
 11
780.80478727538571
 21
337.92251155870963
  0
LINE
  8
_0-9_measure
  6
CONTINUOUS
 62
    3
 10
830.80477225225331
 20
412.9224890240115
 11
830.80477225225331
 21
422.92247363266534
  0
LINE
  8
_0-9_measure
  6
CONTINUOUS
 62
    3
 10
805.80490363101626
 20
412.9224890240115
 11
830.80477225225331
 21
412.9224890240115
  0
LINE
  8
_0-9_measure
  6
CONTINUOUS
 62
    3
 10
805.80490363101626
 20
422.92247363266534
 11
830.80477225225331
 21
422.92247363266534
  0
LINE
  8
_0-7_word
  6
CONTINUOUS
 62
    3
 10
604.80857599147021
 20
271.99983195215788
 11
604.80857599147021
 21
307.9224957991496
  0
LINE
  8
_0-7_word
  6
CONTINUOUS
 62
    3
 10
604.80857599147021
 20
307.9224957991496
 11
386.80082299485576
 21
307.9224957991496
  0
LINE
  8
_0-7_word
  6
CONTINUOUS
 62
    3
 10
386.80082299485576
 20
307.9224957991496
 11
386.80082299485576
 21
271.99983195215788
  0
LINE
  8
_0-7_word
  6
CONTINUOUS
 62
    3
 10
386.80082299485576
 20
271.99983195215788
 11
604.80857599147021
 21
271.99983195215788
  0
LINE
  8
_0-7_word
  6
CONTINUOUS
 62
    3
 10
210.80485944533365
 20
362.9225040471436
 11
186.91335450219327
 21
362.9225040471436
  0
LINE
  8
_0-7_word
  6
CONTINUOUS
 62
    3
 10
780.80478727538571
 20
362.9225040471436
 11
805.43503618099498
 21
362.9225040471436
  0
LINE
  8
_0-a_hatch
  6
CONTINUOUS
 62
    3
 10
777.74501977691239
 20
412.9224890240115
 11
780.58628554000757
 21
415.7638476875041
  0
LINE
  8
_0-a_hatch
  6
CONTINUOUS
 62
    3
 10
767.13827170411514
 20
412.9224890240115
 11
779.8287137636064
 21
425.61290011670332
  0
LINE
  8
_0-a_hatch
  6
CONTINUOUS
 62
    3
 10
765.15813069405203
 20
421.54881738555213
 11
779.07114198720569
 21
435.46185964550483
  0
LINE
  8
_0-a_hatch
  6
CONTINUOUS
 62
    3
 10
764.45084899960284
 20
431.44843859789654
 11
778.31332247641035
 21
445.31097400830271
  0
LINE
  8
_0-a_hatch
  6
CONTINUOUS
 62
    3
 10
763.7438150395476
 20
441.34796690984325
 11
777.55575070000964
 21
455.1599954707026
  0
LINE
  8
_0-a_hatch
  6
CONTINUOUS
 62
    3
 10
763.03678107949258
 20
451.24746425499063
 11
776.79817892360825
 21
465.00895499950411
  0
LINE
  8
_0-a_hatch
  6
CONTINUOUS
 62
    3
 10
714.10502680891659
 20
412.9224890240115
 11
721.25365047792593
 21
420.07123656021781
  0
LINE
  8
_0-a_hatch
  6
CONTINUOUS
 62
    3
 10
762.32949938504339
 20
461.14702353373667
 11
776.04060714720708
 21
474.85803839550266
  0
LINE
  8
_0-a_hatch
  6
CONTINUOUS
 62
    3
 10
703.4985264705133
 20
412.9224890240115
 11
722.01642467659804
 21
431.44044916369489
  0
LINE
  8
_0-a_hatch
  6
CONTINUOUS
 62
    3
 10
761.62246542498815
 20
471.04652087888405
 11
775.28303537080569
 21
484.70699792430418
  0
LINE
  8
_0-a_hatch
  6
CONTINUOUS
 62
    3
 10
692.89177839771605
 20
412.9224890240115
 11
702.92848963025881
 21
422.95929315695167
  0
LINE
  8
_0-a_hatch
  6
CONTINUOUS
 62
    3
 10
712.03396727630911
 20
432.06483273660092
 11
722.77919887527014
 21
442.80987853476637
  0
LINE
  8
_0-a_hatch
  6
CONTINUOUS
 62
    3
 10
760.91543146493314
 20
480.94611112442914
 11
774.52521586001103
 21
494.55611228710177
  0
LINE
  8
_0-a_hatch
  6
CONTINUOUS
 62
    3
 10
682.28527805931299
 20
412.9224890240115
 11
692.28507686717103
 21
422.92247363266534
  0
LINE
  8
_0-a_hatch
  6
CONTINUOUS
 62
    3
 10
712.79847561573865
 20
443.43584141443336
 11
723.54172533954829
 21
454.17902920464491
  0
LINE
  8
_0-a_hatch
  6
CONTINUOUS
 62
    3
 10
760.20814977048394
 20
490.84551556917893
 11
773.76764408360964
 21
504.40500988230491
  0
LINE
  8
_0-a_hatch
  6
CONTINUOUS
 62
    3
 10
671.67852998651574
 20
412.9224890240115
 11
681.67857652876796
 21
422.92247363266534
  0
LINE
  8
_0-a_hatch
  6
CONTINUOUS
 62
    3
 10
713.56124981441076
 20
454.80520885190651
 11
724.3044995382204
 21
465.54833470851969
  0
LINE
  8
_0-a_hatch
  6
CONTINUOUS
 62
    3
 10
759.5011158104287
 20
500.74510581472401
 11
773.01007230720893
 21
514.25406231150407
  0
LINE
  8
_0-a_hatch
  6
CONTINUOUS
 62
    3
 10
661.07202964811199
 20
412.9224890240115
 11
671.07207619036421
 21
422.92247363266534
  0
LINE
  8
_0-a_hatch
  6
CONTINUOUS
 62
    3
 10
714.32402401308218
 20
466.17439048858421
 11
725.06702600249832
 21
476.9175473119966
  0
LINE
  8
_0-a_hatch
  6
CONTINUOUS
 62
    3
 10
758.79408185037369
 20
510.64451025947386
 11
772.25250053080777
 21
524.10299087350631
  0
LINE
  8
_0-a_hatch
  6
CONTINUOUS
 62
    3
 10
650.4655293097087
 20
412.9224890240115
 11
660.46557585196092
 21
422.92247363266534
  0
LINE
  8
_0-a_hatch
  6
CONTINUOUS
 62
    3
 10
715.08655047736079
 20
477.54363405886045
 11
725.82980020117043
 21
488.28675991547351
  0
LINE
  8
_0-a_hatch
  6
CONTINUOUS
 62
    3
 10
758.08704789031844
 20
520.54397663782208
 11
771.49492875440637
 21
533.95191943550867
  0
LINE
  8
_0-a_hatch
  6
CONTINUOUS
 62
    3
 10
639.85902897130495
 20
412.9224890240115
 11
649.85882777916368
 21
422.92247363266534
  0
LINE
  8
_0-a_hatch
  6
CONTINUOUS
 62
    3
 10
715.84932467603244
 20
488.91278472873887
 11
726.59232666544904
 21
499.65594155215138
  0
LINE
  8
_0-a_hatch
  6
CONTINUOUS
 62
    3
 10
757.37976619586925
 20
530.44338108257182
 11
770.73661377482404
 21
543.80022866152638
  0
LINE
  8
_0-a_hatch
  6
CONTINUOUS
 62
    3
 10
629.25228089850771
 20
412.9224890240115
 11
639.25232744076061
 21
422.92247363266534
  0
LINE
  8
_0-a_hatch
  6
CONTINUOUS
 62
    3
 10
716.61185114031105
 20
500.28215216621214
 11
727.35510086412069
 21
511.02521608922666
  0
LINE
  8
_0-a_hatch
  6
CONTINUOUS
 62
    3
 10
755.64686411087087
 20
539.31704126957493
 11
767.04363716566354
 21
550.71400012516358
  0
LINE
  8
_0-a_hatch
  6
CONTINUOUS
 62
    3
 10
618.64578056010464
 20
412.9224890240115
 11
628.64582710235686
 21
422.92247363266534
  0
LINE
  8
_0-a_hatch
  6
CONTINUOUS
 62
    3
 10
717.37462533898315
 20
511.65136476968905
 11
728.11762732839929
 21
522.39442869270374
  0
LINE
  8
_0-a_hatch
  6
CONTINUOUS
 62
    3
 10
746.64568264463151
 20
540.92248400893641
 11
758.6456889484557
 21
552.9224903127606
  0
LINE
  8
_0-a_hatch
  6
CONTINUOUS
 62
    3
 10
608.03928022170089
 20
412.9224890240115
 11
618.03932676395357
 21
422.92247363266534
  0
LINE
  8
_0-a_hatch
  6
CONTINUOUS
 62
    3
 10
718.13739953765457
 20
523.02063930676456
 11
728.8804015270714
 21
533.76364129618071
  0
LINE
  8
_0-a_hatch
  6
CONTINUOUS
 62
    3
 10
736.03918230622844
 20
540.92248400893641
 11
748.03918861005263
 21
552.9224903127606
  0
LINE
  8
_0-a_hatch
  6
CONTINUOUS
 62
    3
 10
597.4327798832976
 20
412.9224890240115
 11
607.43257869115632
 21
422.92247363266534
  0
LINE
  8
_0-a_hatch
  6
CONTINUOUS
 62
    3
 10
718.89992600193318
 20
534.38978997664299
 11
737.43268827164889
 21
552.9224903127606
  0
LINE
  8
_0-a_hatch
  6
CONTINUOUS
 62
    3
 10
586.82603181050035
 20
412.9224890240115
 11
596.82607835275257
 21
422.92247363266534
  0
LINE
  8
_0-a_hatch
  6
CONTINUOUS
 62
    3
 10
719.66270020060529
 20
545.75912644731693
 11
726.82594019885164
 21
552.9224903127606
  0
LINE
  8
_0-a_hatch
  6
CONTINUOUS
 62
    3
 10
576.21953147209729
 20
412.9224890240115
 11
586.21957801434951
 21
422.92247363266534
  0
LINE
  8
_0-a_hatch
  6
CONTINUOUS
 62
    3
 10
565.61303113369354
 20
412.9224890240115
 11
575.61282994155226
 21
422.92247363266534
  0
LINE
  8
_0-a_hatch
  6
CONTINUOUS
 62
    3
 10
555.00653079529025
 20
412.9224890240115
 11
565.00632960314852
 21
422.92247363266534
  0
LINE
  8
_0-a_hatch
  6
CONTINUOUS
 62
    3
 10
544.399782722493
 20
412.9224890240115
 11
554.39982926474522
 21
422.92247363266534
  0
LINE
  8
_0-a_hatch
  6
CONTINUOUS
 62
    3
 10
533.79328238408925
 20
412.9224890240115
 11
543.79332892634216
 21
422.92247363266534
  0
LINE
  8
_0-a_hatch
  6
CONTINUOUS
 62
    3
 10
523.18678204568619
 20
412.9224890240115
 11
533.18658085354491
 21
422.92247363266534
  0
LINE
  8
_0-a_hatch
  6
CONTINUOUS
 62
    3
 10
512.58028170728289
 20
412.9224890240115
 11
522.58008051514116
 21
422.92247363266534
  0
LINE
  8
_0-a_hatch
  6
CONTINUOUS
 62
    3
 10
501.97353363448514
 20
412.9224890240115
 11
511.97358017673793
 21
422.92247363266534
  0
LINE
  8
_0-a_hatch
  6
CONTINUOUS
 62
    3
 10
491.36703329608196
 20
412.9224890240115
 11
501.36707983833418
 21
422.92247363266534
  0
LINE
  8
_0-a_hatch
  6
CONTINUOUS
 62
    3
 10
480.76053295767878
 20
412.9224890240115
 11
490.760579499931
 21
422.92247363266534
  0
LINE
  8
_0-a_hatch
  6
CONTINUOUS
 62
    3
 10
470.15403261927503
 20
412.9224890240115
 11
480.15383142713375
 21
422.92247363266534
  0
LINE
  8
_0-a_hatch
  6
CONTINUOUS
 62
    3
 10
459.54728454647778
 20
412.9224890240115
 11
469.54733108873
 21
422.92247363266534
  0
LINE
  8
_0-a_hatch
  6
CONTINUOUS
 62
    3
 10
448.9407842080746
 20
412.9224890240115
 11
458.94083075032682
 21
422.92247363266534
  0
LINE
  8
_0-a_hatch
  6
CONTINUOUS
 62
    3
 10
438.33428386967086
 20
412.9224890240115
 11
448.33408267752958
 21
422.92247363266534
  0
LINE
  8
_0-a_hatch
  6
CONTINUOUS
 62
    3
 10
427.72778353126768
 20
412.9224890240115
 11
437.7275823391264
 21
422.92247363266534
  0
LINE
  8
_0-a_hatch
  6
CONTINUOUS
 62
    3
 10
417.12103545847043
 20
412.9224890240115
 11
427.12108200072265
 21
422.92247363266534
  0
LINE
  8
_0-a_hatch
  6
CONTINUOUS
 62
    3
 10
406.51453512006668
 20
412.9224890240115
 11
416.51458166231947
 21
422.92247363266534
  0
LINE
  8
_0-a_hatch
  6
CONTINUOUS
 62
    3
 10
395.9080347816635
 20
412.9224890240115
 11
405.90783358952223
 21
422.92247363266534
  0
LINE
  8
_0-a_hatch
  6
CONTINUOUS
 62
    3
 10
385.30153444326032
 20
412.9224890240115
 11
395.30133325111848
 21
422.92247363266534
  0
LINE
  8
_0-a_hatch
  6
CONTINUOUS
 62
    3
 10
374.69478637046308
 20
412.9224890240115
 11
384.6948329127153
 21
422.92247363266534
  0
LINE
  8
_0-a_hatch
  6
CONTINUOUS
 62
    3
 10
364.08828603205933
 20
412.9224890240115
 11
374.08833257431155
 21
422.92247363266534
  0
LINE
  8
_0-a_hatch
  6
CONTINUOUS
 62
    3
 10
353.48178569365615
 20
412.9224890240115
 11
363.48158450151431
 21
422.92247363266534
  0
LINE
  8
_0-a_hatch
  6
CONTINUOUS
 62
    3
 10
342.8752853552524
 20
412.9224890240115
 11
352.87508416311113
 21
422.92247363266534
  0
LINE
  8
_0-a_hatch
  6
CONTINUOUS
 62
    3
 10
332.26853728245516
 20
412.9224890240115
 11
342.26858382470795
 21
422.92247363266534
  0
LINE
  8
_0-a_hatch
  6
CONTINUOUS
 62
    3
 10
321.66203694405198
 20
412.9224890240115
 11
331.6620834863042
 21
422.92247363266534
  0
LINE
  8
_0-a_hatch
  6
CONTINUOUS
 62
    3
 10
311.0555366056488
 20
412.9224890240115
 11
321.05533541350695
 21
422.92247363266534
  0
LINE
  8
_0-a_hatch
  6
CONTINUOUS
 62
    3
 10
300.44903626724505
 20
412.9224890240115
 11
310.44883507510377
 21
422.92247363266534
  0
LINE
  8
_0-a_hatch
  6
CONTINUOUS
 62
    3
 10
289.8422881944478
 20
412.9224890240115
 11
299.84233473670002
 21
422.92247363266534
  0
LINE
  8
_0-a_hatch
  6
CONTINUOUS
 62
    3
 10
279.23578785604462
 20
412.9224890240115
 11
289.24004588299255
 21
422.92693285175483
  0
LINE
  8
_0-a_hatch
  6
CONTINUOUS
 62
    3
 10
270.69663103434067
 20
414.99001834150641
 11
282.02750674036878
 21
426.32083211393626
  0
LINE
  8
_0-a_hatch
  6
CONTINUOUS
 62
    3
 10
270.02997778048353
 20
424.9298034924542
 11
279.42233185461561
 21
434.32218853338549
  0
LINE
  8
_0-a_hatch
  6
CONTINUOUS
 62
    3
 10
269.36307679223233
 20
434.86955767660271
 11
278.7556786007579
 21
444.26194271753394
  0
LINE
  8
_0-a_hatch
  6
CONTINUOUS
 62
    3
 10
268.6964235383752
 20
444.80940476114887
 11
278.08877761250727
 21
454.20178980208016
  0
LINE
  8
_0-a_hatch
  6
CONTINUOUS
 62
    3
 10
268.029522550124
 20
454.74915894529738
 11
277.42212435865014
 21
464.14154398622861
  0
LINE
  8
_0-a_hatch
  6
CONTINUOUS
 62
    3
 10
215.59629035683628
 20
412.9224890240115
 11
226.62319596160756
 21
423.94917786118805
  0
LINE
  8
_0-a_hatch
  6
CONTINUOUS
 62
    3
 10
267.36286929626687
 20
464.68894409624505
 11
276.75522337039894
 21
474.0813601039755
  0
LINE
  8
_0-a_hatch
  6
CONTINUOUS
 62
    3
 10
211.28942791970957
 20
419.22200305809122
 11
227.4389853205642
 21
435.3715914257449
  0
LINE
  8
_0-a_hatch
  6
CONTINUOUS
 62
    3
 10
266.69596830801567
 20
474.62869828039351
 11
276.0885701165418
 21
484.0210833213248
  0
LINE
  8
_0-a_hatch
  6
CONTINUOUS
 62
    3
 10
212.17334423697565
 20
430.7125126141583
 11
228.25477467952027
 21
446.79412885749861
  0
LINE
  8
_0-a_hatch
  6
CONTINUOUS
 62
    3
 10
266.02931505415853
 20
484.56854536493972
 11
275.4216691282906
 21
493.96093040587095
  0
LINE
  8
_0-a_hatch
  6
CONTINUOUS
 62
    3
 10
213.05726055424117
 20
442.20296023662678
 11
229.07081177287097
 21
458.21657338885467
  0
LINE
  8
_0-a_hatch
  6
CONTINUOUS
 62
    3
 10
265.36241406590733
 20
494.50833051588739
 11
274.75501587443347
 21
503.90074652361795
  0
LINE
  8
_0-a_hatch
  6
CONTINUOUS
 62
    3
 10
213.94092913711319
 20
453.69340785909537
 11
229.88660113182704
 21
469.63904888700989
  0
LINE
  8
_0-a_hatch
  6
CONTINUOUS
 62
    3
 10
264.6957608120502
 20
504.44811566683518
 11
274.08811488618227
 21
513.84053167456568
  0
LINE
  8
_0-a_hatch
  6
CONTINUOUS
 62
    3
 10
214.82484545437927
 20
465.18379354796559
 11
230.70263822517774
 21
481.06143148476752
  0
LINE
  8
_0-a_hatch
  6
CONTINUOUS
 62
    3
 10
264.028859823799
 20
514.38790081778291
 11
273.42146163232513
 21
523.78025489191498
  0
LINE
  8
_0-a_hatch
  6
CONTINUOUS
 62
    3
 10
215.70876177164536
 20
476.67433407083189
 11
231.5184275841338
 21
492.48396891652129
  0
LINE
  8
_0-a_hatch
  6
CONTINUOUS
 62
    3
 10
263.36220656994186
 20
524.32774790232907
 11
272.75456064407393
 21
533.72010197646114
  0
LINE
  8
_0-a_hatch
  6
CONTINUOUS
 62
    3
 10
216.59267808891144
 20
488.16471975970194
 11
232.33421694309044
 21
503.90638248107814
  0
LINE
  8
_0-a_hatch
  6
CONTINUOUS
 62
    3
 10
262.69530558169066
 20
534.26747111967836
 11
272.0879073902168
 21
543.65988712740875
  0
LINE
  8
_0-a_hatch
  6
CONTINUOUS
 62
    3
 10
217.47659440617696
 20
499.65519834896975
 11
233.15025403644057
 21
515.32885797923336
  0
LINE
  8
_0-a_hatch
  6
CONTINUOUS
 62
    3
 10
258.63394792887192
 20
540.81255187166437
 11
269.76391104148576
 21
551.94245305067989
  0
LINE
  8
_0-a_hatch
  6
CONTINUOUS
 62
    3
 10
218.36051072344304
 20
511.14561500463901
 11
233.96604339539721
 21
526.75127154379015
  0
LINE
  8
_0-a_hatch
  6
CONTINUOUS
 62
    3
 10
248.13719392694537
 20
540.92248400893641
 11
260.137200230769
 21
552.9224903127606
  0
LINE
  8
_0-a_hatch
  6
CONTINUOUS
 62
    3
 10
219.24442704070913
 20
522.63609359390693
 11
249.53069989236582
 21
552.9224903127606
  0
LINE
  8
_0-a_hatch
  6
CONTINUOUS
 62
    3
 10
220.12809562358115
 20
534.1265102495762
 11
238.92419955396264
 21
552.9224903127606
  0
LINE
  8
_0-a_hatch
  6
CONTINUOUS
 62
    3
 10
221.28451977408503
 20
545.88937280488483
 11
227.86731808753501
 21
552.47235691913056
  0
ARC
  8
_0-0_containe
  6
CONTINUOUS
 62
    4
 10
239.63371085795615
 20
535.9224607378103
 40
5.0000000460267522
 50
90
 51
175.914306640625
  0
ARC
  8
_0-0_containe
  6
CONTINUOUS
 62
    4
 10
257.59148159954037
 20
535.9224607378103
 40
5.0000000460267522
 50
8.74627685546875
 51
90
  0
ARC
  8
_0-0_containe
  6
CONTINUOUS
 62
    4
 10
289.53881356197854
 20
432.92245824131919
 40
10.000000092053504
 50
183.83776855468747
 51
270
  0
ARC
  8
_0-0_containe
  6
CONTINUOUS
 62
    4
 10
266.79060284646738
 20
547.92246704163438
 40
5.0000000460267522
 50
3.8381195068359379
 51
90
  0
ARC
  8
_0-0_containe
  6
CONTINUOUS
 62
    4
 10
230.83418518831337
 20
542.92256763770513
 40
10.000000092053504
 50
90
 51
175.60116577148437
  0
ARC
  8
_0-0_containe
  6
CONTINUOUS
 62
    4
 10
751.97568812836971
 20
535.9224607378103
 40
5.0000000460267522
 50
4.0856933593750133
 51
90.000000000000014
  0
ARC
  8
_0-0_containe
  6
CONTINUOUS
 62
    4
 10
734.01816512117898
 20
535.9224607378103
 40
5.0000000460267522
 50
90
 51
171.25372314453125
  0
ARC
  8
_0-0_containe
  6
CONTINUOUS
 62
    4
 10
724.81904387425197
 20
547.92246704163438
 40
5.0000000460267522
 50
90
 51
176.16188049316406
  0
ARC
  8
_0-0_containe
  6
CONTINUOUS
 62
    4
 10
760.7752137980126
 20
542.92256763770513
 40
10.000000092053504
 50
4.3988342285156286
 51
90.000000000000014
  0
ARC
  8
_0-0_containe
  6
CONTINUOUS
 62
    4
 10
702.07083315874092
 20
432.92245824131919
 40
10.000000092053504
 50
270.00015258789062
 51
356.1622314453125
  0
TEXT
  8
_0-9_measure
 62
    3
 10
159.8047715400719
 20
464.17248966838594
 40
12.5
 41
1
 50
90.00000250447826
  1
１４０
  0
TEXT
  8
_0-9_measure
 62
    3
 10
203.30475884926329
 20
603.9224551704142
 40
12.5
 41
1
 50
0
  1
１０
  0
TEXT
  8
_0-9_measure
 62
    3
 10
477.05469949316296
 20
603.9224551704142
 40
12.5
 41
1
 50
0
  1
５５０
  0
TEXT
  8
_0-9_measure
 62
    3
 10
763.3047640042596
 20
603.9224551704142
 40
12.5
 41
1
 50
0
  1
１０
  0
TEXT
  8
_0-9_measure
 62
    3
 10
186.23424883926162
 20
363.92251489472864
 40
12.5
 41
1
 50
0
  1
１５
  0
TEXT
  8
_0-9_measure
 62
    3
 10
235.82014577680525
 20
363.92251489472864
 40
12.5
 41
1
 50
0
  1
４５
  0
TEXT
  8
_0-9_measure
 62
    3
 10
477.05494722755674
 20
363.92251489472864
 40
12.5
 41
1
 50
0
  1
４５０
  0
TEXT
  8
_0-9_measure
 62
    3
 10
730.78950094391416
 20
363.92251489472864
 40
12.5
 41
1
 50
0
  1
４５
  0
TEXT
  8
_0-9_measure
 62
    3
 10
781.33759826718097
 20
363.92251489472864
 40
12.5
 41
1
 50
0
  1
１５
  0
TEXT
  8
_0-9_measure
 62
    3
 10
477.05494722755674
 20
338.92252240629466
 40
12.5
 41
1
 50
0
  1
５７０
  0
TEXT
  8
_0-9_measure
 62
    3
 10
844.39820672372946
 20
405.42248132833839
 40
12.5
 41
1
 50
90.000002504478488
  1
１０
  0
TEXT
  8
_0-7_word
 62
    3
 10
403.35819848667199
 20
280.57138004585789
 40
20
 41
1
 50
0
  1
Ｃ－Ｃ’断　面　図
  0
POINT
  8
_0-9_measure
 62
    5
 10
160.80487446846604
 20
412.9224890240115
  0
POINT
  8
_0-9_measure
 62
    5
 10
160.80487446846604
 20
552.9224903127606
  0
POINT
  8
_0-9_measure
 62
    5
 10
210.80485944533365
 20
602.92247528962855
  0
POINT
  8
_0-9_measure
 62
    5
 10
220.80465825319237
 20
602.92247528962855
  0
POINT
  8
_0-9_measure
 62
    5
 10
770.80474073313349
 20
602.92247528962855
  0
POINT
  8
_0-9_measure
 62
    5
 10
780.80478727538571
 20
602.92247528962855
  0
POINT
  8
_0-9_measure
 62
    5
 10
210.80485944533365
 20
362.9225040471436
  0
POINT
  8
_0-9_measure
 62
    5
 10
225.83540058915645
 20
362.9225040471436
  0
POINT
  8
_0-9_measure
 62
    5
 10
270.80489096445405
 20
362.9225040471436
  0
POINT
  8
_0-9_measure
 62
    5
 10
720.80475575626542
 20
362.9225040471436
  0
POINT
  8
_0-9_measure
 62
    5
 10
765.77424613156359
 20
362.9225040471436
  0
POINT
  8
_0-9_measure
 62
    5
 10
780.80478727538571
 20
362.9225040471436
  0
POINT
  8
_0-9_measure
 62
    5
 10
210.80485944533365
 20
337.92251155870963
  0
POINT
  8
_0-9_measure
 62
    5
 10
780.80478727538571
 20
337.92251155870963
  0
POINT
  8
_0-9_measure
 62
    5
 10
830.80477225225331
 20
412.9224890240115
  0
POINT
  8
_0-9_measure
 62
    5
 10
830.80477225225331
 20
422.92247363266534
  0
LINE
  8
_0-0_containe
  6
CONTINUOUS
 62
    4
 10
1159.5068732430971
 20
412.9224890240115
 11
1169.5069197853495
 21
412.9224890240115
  0
LINE
  8
_0-0_containe
  6
CONTINUOUS
 62
    4
 10
1159.5068732430971
 20
552.92255224635903
 11
1157.5069134815253
 21
546.92254909444694
  0
LINE
  8
_0-0_containe
  6
CONTINUOUS
 62
    4
 10
988.50672148000581
 20
552.92255224635903
 11
990.50668124157755
 21
546.92254909444694
  0
LINE
  8
_0-0_containe
  6
CONTINUOUS
 62
    4
 10
990.50668124157755
 20
546.92254909444694
 11
1157.5069134815253
 21
546.92254909444694
  0
LINE
  8
_0-3_free
  6
CONTINUOUS
 62
    7
 10
988.50672148000581
 20
552.92255224635903
 11
1159.5068732430971
 21
552.92255224635903
  0
LINE
  8
_0-0_containe
  6
CONTINUOUS
 62
    4
 10
1164.5068965142234
 20
552.92255224635903
 11
1159.5068732430971
 21
552.92255224635903
  0
LINE
  8
_0-0_containe
  6
CONTINUOUS
 62
    4
 10
1169.5066720509558
 20
547.92252897523292
 11
1169.5066720509558
 21
412.9224890240115
  0
LINE
  8
_0-0_containe
  6
CONTINUOUS
 62
    4
 10
1159.5068732430971
 20
535.92252267140873
 11
1159.5068732430971
 21
412.9224890240115
  0
LINE
  8
_0-0_containe
  6
CONTINUOUS
 62
    4
 10
1267.5066822431195
 20
412.9224890240115
 11
1257.5066357008673
 21
412.9224890240115
  0
LINE
  8
_0-0_containe
  6
CONTINUOUS
 62
    4
 10
1267.5066822431195
 20
552.92255224635903
 11
1269.5066420046915
 21
546.92254909444694
  0
LINE
  8
_0-0_containe
  6
CONTINUOUS
 62
    4
 10
1438.5068340062112
 20
552.92255224635903
 11
1436.5068742446392
 21
546.92254909444694
  0
LINE
  8
_0-0_containe
  6
CONTINUOUS
 62
    4
 10
1436.5068742446392
 20
546.92254909444694
 11
1269.5066420046915
 21
546.92254909444694
  0
LINE
  8
_0-3_free
  6
CONTINUOUS
 62
    7
 10
1438.5068340062112
 20
552.92255224635903
 11
1267.5066822431195
 21
552.92255224635903
  0
LINE
  8
_0-0_containe
  6
CONTINUOUS
 62
    4
 10
1479.1954740557367
 20
552.92255224635903
 11
1438.5068340062112
 21
552.92255224635903
  0
LINE
  8
_0-0_containe
  6
CONTINUOUS
 62
    4
 10
1262.5066589719934
 20
552.92255224635903
 11
1267.5066822431195
 21
552.92255224635903
  0
LINE
  8
_0-0_containe
  6
CONTINUOUS
 62
    4
 10
1257.5066357008673
 20
547.92252897523292
 11
1257.5066357008673
 21
412.9224890240115
  0
LINE
  8
_0-0_containe
  6
CONTINUOUS
 62
    4
 10
1267.5066822431195
 20
535.92252267140873
 11
1267.5066822431195
 21
412.9224890240115
  0
LINE
  8
_0-3_free
  6
CONTINUOUS
 62
    7
 10
1169.5069197853495
 20
412.9224890240115
 11
1257.5066357008673
 21
412.9224890240115
  0
LINE
  8
ADD_LINE
  6
DOT
 62
    4
 10
924.64129021360418
 20
542.92256763770513
 11
946.6009623534826
 21
542.92256763770513
  0
LINE
  8
_0-0_containe
  6
CONTINUOUS
 62
    4
 10
958.01359040948216
 20
540.92254594253495
 11
1154.506849971971
 21
540.92254594253495
  0
LINE
  8
_0-0_containe
  6
CONTINUOUS
 62
    4
 10
948.53626343825863
 20
552.92255224635903
 11
988.50672148000581
 21
552.92255224635903
  0
LINE
  8
_0-0_containe
  6
CONTINUOUS
 62
    4
 10
938.56569728887496
 20
543.68955332107271
 11
928.50668996088575
 21
412.9224890240115
  0
LINE
  8
_0-0_containe
  6
CONTINUOUS
 62
    4
 10
928.50668996088575
 20
412.9224890240115
 11
943.53747883910205
 21
412.9224890240115
  0
LINE
  8
_0-0_containe
  6
CONTINUOUS
 62
    4
 10
953.02843120198713
 20
536.30601551309258
 11
943.53747883910205
 21
412.9224890240115
  0
LINE
  8
_0-3_free
  6
CONTINUOUS
 62
    7
 10
943.53747883910205
 20
412.9224890240115
 11
1159.5068732430971
 21
412.9224890240115
  0
LINE
  8
_0-0_containe
  6
CONTINUOUS
 62
    4
 10
1488.4478581973417
 20
543.68949138747416
 11
1498.5068655253308
 21
412.9224890240115
  0
LINE
  8
_0-0_containe
  6
CONTINUOUS
 62
    4
 10
1468.9999650767345
 20
540.92254594253495
 11
1272.5067055142463
 21
540.92254594253495
  0
LINE
  8
_0-3_free
  6
CONTINUOUS
 62
    7
 10
1483.4760766471145
 20
412.9224890240115
 11
1267.5066822431195
 21
412.9224890240115
  0
LINE
  8
_0-0_containe
  6
CONTINUOUS
 62
    4
 10
1473.9851242842296
 20
536.30601551309258
 11
1483.4760766471145
 21
412.9224890240115
  0
LINE
  8
_0-0_containe
  6
CONTINUOUS
 62
    4
 10
1498.5068655253308
 20
412.9224890240115
 11
1483.4760766471145
 21
412.9224890240115
  0
LINE
  8
_0-9_measure
  6
CONTINUOUS
 62
    3
 10
1169.5069197853495
 20
362.9225040471436
 11
1257.5066357008673
 21
362.9225040471436
  0
LINE
  8
_0-9_measure
  6
CONTINUOUS
 62
    3
 10
1169.5069197853495
 20
387.92249653557752
 11
1169.5069197853495
 21
362.9225040471436
  0
LINE
  8
_0-9_measure
  6
CONTINUOUS
 62
    3
 10
1257.5066357008673
 20
387.92249653557752
 11
1257.5066357008673
 21
362.9225040471436
  0
LINE
  8
_0-9_measure
  6
CONTINUOUS
 62
    3
 10
928.50668996088575
 20
337.92251155870963
 11
1498.5068655253308
 21
337.92251155870963
  0
LINE
  8
_0-9_measure
  6
CONTINUOUS
 62
    3
 10
928.50668996088575
 20
362.9225040471436
 11
928.50668996088575
 21
337.92251155870963
  0
LINE
  8
_0-9_measure
  6
CONTINUOUS
 62
    3
 10
1498.5068655253308
 20
362.9225040471436
 11
1498.5068655253308
 21
337.92251155870963
  0
LINE
  8
_0-9_measure
  6
CONTINUOUS
 62
    3
 10
928.50668996088575
 20
602.92253722322687
 11
938.50723197192576
 21
602.92253722322687
  0
LINE
  8
_0-9_measure
  6
CONTINUOUS
 62
    3
 10
928.50668996088575
 20
577.92254473479295
 11
928.50668996088575
 21
602.92253722322687
  0
LINE
  8
_0-9_measure
  6
CONTINUOUS
 62
    3
 10
938.50723197192576
 20
577.92254473479295
 11
938.50723197192576
 21
602.92253722322687
  0
LINE
  8
_0-9_measure
  6
CONTINUOUS
 62
    3
 10
938.50723197192576
 20
602.92253722322687
 11
1488.5068189830786
 21
602.92253722322687
  0
LINE
  8
_0-9_measure
  6
CONTINUOUS
 62
    3
 10
1488.5068189830786
 20
577.92254473479295
 11
1488.5068189830786
 21
602.92253722322687
  0
LINE
  8
_0-9_measure
  6
CONTINUOUS
 62
    3
 10
1488.5068189830786
 20
602.92253722322687
 11
1498.5068655253308
 21
602.92253722322687
  0
LINE
  8
_0-9_measure
  6
CONTINUOUS
 62
    3
 10
1498.5068655253308
 20
577.92254473479295
 11
1498.5068655253308
 21
602.92253722322687
  0
LINE
  8
_0-9_measure
  6
CONTINUOUS
 62
    3
 10
878.5067049840178
 20
412.9224890240115
 11
878.5067049840178
 21
552.92261417995735
  0
LINE
  8
_0-9_measure
  6
CONTINUOUS
 62
    3
 10
903.5068213396487
 20
412.9224890240115
 11
878.5067049840178
 21
412.9224890240115
  0
LINE
  8
_0-9_measure
  6
CONTINUOUS
 62
    3
 10
903.5068213396487
 20
552.92261417995735
 11
878.5067049840178
 21
552.92261417995735
  0
LINE
  8
_0-7_word
  6
CONTINUOUS
 62
    3
 10
1322.5106542414153
 20
271.99983195215788
 11
1322.5106542414153
 21
307.9224957991496
  0
LINE
  8
_0-7_word
  6
CONTINUOUS
 62
    3
 10
1322.5106542414153
 20
307.9224957991496
 11
1104.5029012448013
 21
307.9224957991496
  0
LINE
  8
_0-7_word
  6
CONTINUOUS
 62
    3
 10
1104.5029012448013
 20
307.9224957991496
 11
1104.5029012448013
 21
271.99983195215788
  0
LINE
  8
_0-7_word
  6
CONTINUOUS
 62
    3
 10
1104.5029012448013
 20
271.99983195215788
 11
1322.5106542414153
 21
271.99983195215788
  0
LINE
  8
_0-a_hatch
  6
CONTINUOUS
 62
    3
 10
1159.5068732430971
 20
413.06078674937959
 11
1169.5066720509558
 21
423.06070942443506
  0
LINE
  8
_0-a_hatch
  6
CONTINUOUS
 62
    3
 10
1159.5068732430971
 20
423.66741095498008
 11
1169.5066720509558
 21
433.66733363003556
  0
LINE
  8
_0-a_hatch
  6
CONTINUOUS
 62
    3
 10
1159.5068732430971
 20
434.2740351605803
 11
1169.5066720509558
 21
444.27395783563577
  0
LINE
  8
_0-a_hatch
  6
CONTINUOUS
 62
    3
 10
1159.5068732430971
 20
444.88062839938146
 11
1169.5066720509558
 21
454.88055107443694
  0
LINE
  8
_0-a_hatch
  6
CONTINUOUS
 62
    3
 10
1159.5068732430971
 20
455.48725260498179
 11
1169.5066720509558
 21
465.48717528003715
  0
LINE
  8
_0-a_hatch
  6
CONTINUOUS
 62
    3
 10
1159.5068732430971
 20
466.09378391018447
 11
1169.5066720509558
 21
476.09370658523994
  0
LINE
  8
_0-a_hatch
  6
CONTINUOUS
 62
    3
 10
1159.5068732430971
 20
476.7004081157848
 11
1169.5066720509558
 21
486.70033079084016
  0
LINE
  8
_0-a_hatch
  6
CONTINUOUS
 62
    3
 10
1159.5068732430971
 20
487.30703232138518
 11
1169.5066720509558
 21
497.30698596323981
  0
LINE
  8
_0-a_hatch
  6
CONTINUOUS
 62
    3
 10
1159.5068732430971
 20
497.91362556018635
 11
1169.5066720509558
 21
507.91354823524165
  0
LINE
  8
_0-a_hatch
  6
CONTINUOUS
 62
    3
 10
1159.5068732430971
 20
508.52024976578656
 11
1169.5066720509558
 21
518.52017244084198
  0
LINE
  8
_0-a_hatch
  6
CONTINUOUS
 62
    3
 10
1159.5068732430971
 20
519.12681203778834
 11
1169.5066720509558
 21
529.12673471284381
  0
LINE
  8
_0-a_hatch
  6
CONTINUOUS
 62
    3
 10
1159.5068732430971
 20
529.73343624338884
 11
1169.5066720509558
 21
539.7333589184442
  0
LINE
  8
_0-a_hatch
  6
CONTINUOUS
 62
    3
 10
1158.3214641685126
 20
539.15477524160156
 11
1169.0894873317079
 21
549.92261260400153
  0
LINE
  8
_0-a_hatch
  6
CONTINUOUS
 62
    3
 10
1149.4827964646411
 20
540.92254594253495
 11
1155.4826757493563
 21
546.92254909444694
  0
LINE
  8
_0-a_hatch
  6
CONTINUOUS
 62
    3
 10
1158.5189084804133
 20
549.95878182550393
 11
1161.482802768465
 21
552.92255224635903
  0
LINE
  8
_0-a_hatch
  6
CONTINUOUS
 62
    3
 10
1138.8760483918438
 20
540.92254594253495
 11
1144.8761754109528
 21
546.92254909444694
  0
LINE
  8
_0-a_hatch
  6
CONTINUOUS
 62
    3
 10
1128.2695480534405
 20
540.92254594253495
 11
1134.2694273381555
 21
546.92254909444694
  0
LINE
  8
_0-a_hatch
  6
CONTINUOUS
 62
    3
 10
1117.6627999806433
 20
540.92254594253495
 11
1123.662926999752
 21
546.92254909444694
  0
LINE
  8
_0-a_hatch
  6
CONTINUOUS
 62
    3
 10
1107.0562996422398
 20
540.92254594253495
 11
1113.0561789269548
 21
546.92254909444694
  0
LINE
  8
_0-a_hatch
  6
CONTINUOUS
 62
    3
 10
1096.4497993038362
 20
540.92254594253495
 11
1102.4496785885513
 21
546.92254909444694
  0
LINE
  8
_0-a_hatch
  6
CONTINUOUS
 62
    3
 10
1085.843051231039
 20
540.92254594253495
 11
1091.843178250148
 21
546.92254909444694
  0
LINE
  8
_0-a_hatch
  6
CONTINUOUS
 62
    3
 10
1075.2365508926355
 20
540.92254594253495
 11
1081.2364301773507
 21
546.92254909444694
  0
LINE
  8
_0-a_hatch
  6
CONTINUOUS
 62
    3
 10
936.62990073531103
 20
412.9224890240115
 11
944.11296583602154
 21
420.4057399255172
  0
LINE
  8
_0-a_hatch
  6
CONTINUOUS
 62
    3
 10
1064.6298028198382
 20
540.92254594253495
 11
1070.6299298389472
 21
546.92254909444694
  0
LINE
  8
_0-a_hatch
  6
CONTINUOUS
 62
    3
 10
928.71379591414654
 20
415.6130393752465
 11
944.99688215328729
 21
431.89621851478501
  0
LINE
  8
_0-a_hatch
  6
CONTINUOUS
 62
    3
 10
1054.0233024814349
 20
540.92254594253495
 11
1060.0231817661499
 21
546.92254909444694
  0
LINE
  8
_0-a_hatch
  6
CONTINUOUS
 62
    3
 10
929.59771223141229
 20
427.10351796451414
 11
945.88079847055315
 21
443.38669710405293
  0
LINE
  8
_0-a_hatch
  6
CONTINUOUS
 62
    3
 10
1043.4165544086377
 20
540.92254594253495
 11
1049.4166814277467
 21
546.92254909444694
  0
LINE
  8
_0-a_hatch
  6
CONTINUOUS
 62
    3
 10
930.48138081428431
 20
438.59399655378206
 11
946.76471478781923
 21
454.8772066601199
  0
LINE
  8
_0-a_hatch
  6
CONTINUOUS
 62
    3
 10
1032.8100540702342
 20
540.92254594253495
 11
1038.8099333549492
 21
546.92254909444694
  0
LINE
  8
_0-a_hatch
  6
CONTINUOUS
 62
    3
 10
931.36529713155039
 20
450.08450610984903
 11
947.64863110508497
 21
466.36768524938765
  0
LINE
  8
_0-a_hatch
  6
CONTINUOUS
 62
    3
 10
1022.2033059974369
 20
540.92254594253495
 11
1028.2034330165461
 21
546.92254909444694
  0
LINE
  8
_0-a_hatch
  6
CONTINUOUS
 62
    3
 10
932.24921344881625
 20
461.57498469911695
 11
948.53254742235106
 21
477.85813287185624
  0
LINE
  8
_0-a_hatch
  6
CONTINUOUS
 62
    3
 10
1011.5968056590334
 20
540.92254594253495
 11
1017.5969326781426
 21
546.92254909444694
  0
LINE
  8
_0-a_hatch
  6
CONTINUOUS
 62
    3
 10
933.13312976608199
 20
473.06546328838459
 11
949.41621600522308
 21
489.34864242792338
  0
LINE
  8
_0-a_hatch
  6
CONTINUOUS
 62
    3
 10
1000.9903053206302
 20
540.92254594253495
 11
1006.9901846053453
 21
546.92254909444694
  0
LINE
  8
_0-a_hatch
  6
CONTINUOUS
 62
    3
 10
934.01704608334808
 20
484.55597284445167
 11
950.30013232248893
 21
500.83912101719102
  0
LINE
  8
_0-a_hatch
  6
CONTINUOUS
 62
    3
 10
990.38355724783298
 20
540.92254594253495
 11
996.38368426694183
 21
546.92254909444694
  0
LINE
  8
_0-a_hatch
  6
CONTINUOUS
 62
    3
 10
934.90096240061393
 20
496.04648240051881
 11
951.18404863975502
 21
512.32959960645894
  0
LINE
  8
_0-a_hatch
  6
CONTINUOUS
 62
    3
 10
979.77705690942958
 20
540.92254594253495
 11
989.3242449797192
 21
550.46985788002178
  0
LINE
  8
_0-a_hatch
  6
CONTINUOUS
 62
    3
 10
935.78487871788002
 20
507.53699195658578
 11
952.06796495702076
 21
523.82007819572675
  0
LINE
  8
_0-a_hatch
  6
CONTINUOUS
 62
    3
 10
969.17030883663233
 20
540.92254594253495
 11
981.17031514045618
 21
552.92255224635903
  0
LINE
  8
_0-a_hatch
  6
CONTINUOUS
 62
    3
 10
936.66879503514576
 20
519.0274705458537
 11
952.95188127428685
 21
535.31061871859299
  0
LINE
  8
_0-a_hatch
  6
CONTINUOUS
 62
    3
 10
958.56380849822881
 20
540.92254594253495
 11
970.56381480205278
 21
552.92255224635903
  0
LINE
  8
_0-a_hatch
  6
CONTINUOUS
 62
    3
 10
937.55246361801778
 20
530.51794913512128
 11
959.95706672925553
 21
552.92255224635903
  0
LINE
  8
_0-a_hatch
  6
CONTINUOUS
 62
    3
 10
938.43637993528387
 20
542.00842772438921
 11
949.35056639085201
 21
552.92255224635903
  0
LINE
  8
_0-a_hatch
  6
CONTINUOUS
 62
    3
 10
1488.1731207545595
 20
412.9224890240115
 11
1497.7686170316501
 21
422.5180472347011
  0
LINE
  8
_0-a_hatch
  6
CONTINUOUS
 62
    3
 10
1483.0539372399903
 20
418.4099916486411
 11
1497.0110452552494
 21
432.36703773030194
  0
LINE
  8
_0-a_hatch
  6
CONTINUOUS
 62
    3
 10
1482.2963654635892
 20
428.25898214424177
 11
1496.2534734788483
 21
442.21602822590251
  0
LINE
  8
_0-a_hatch
  6
CONTINUOUS
 62
    3
 10
1481.5387936871878
 20
438.10794167304329
 11
1495.4959017024471
 21
452.06501872150335
  0
LINE
  8
_0-a_hatch
  6
CONTINUOUS
 62
    3
 10
1480.7812219107864
 20
447.95693216864402
 11
1494.7383299260457
 21
461.91397825030487
  0
LINE
  8
_0-a_hatch
  6
CONTINUOUS
 62
    3
 10
1480.0236501343857
 20
457.80595363104402
 11
1493.980758149645
 21
471.76299971270487
  0
LINE
  8
_0-a_hatch
  6
CONTINUOUS
 62
    3
 10
1479.2660783579845
 20
467.65491315984553
 11
1493.2229386388497
 21
481.6119902083056
  0
LINE
  8
_0-a_hatch
  6
CONTINUOUS
 62
    3
 10
1478.5082588471896
 20
477.50393462224559
 11
1492.4653668624489
 21
491.46098070390644
  0
LINE
  8
_0-a_hatch
  6
CONTINUOUS
 62
    3
 10
1477.7506870707884
 20
487.35292511784644
 11
1491.7077950860476
 21
501.31000216630633
  0
LINE
  8
_0-a_hatch
  6
CONTINUOUS
 62
    3
 10
1476.9931152943873
 20
497.20188464664795
 11
1490.9502233096464
 21
511.15899266190718
  0
LINE
  8
_0-a_hatch
  6
CONTINUOUS
 62
    3
 10
1476.2355435179859
 20
507.05087514224851
 11
1490.1926515332452
 21
521.00798315750785
  0
LINE
  8
_0-a_hatch
  6
CONTINUOUS
 62
    3
 10
1475.4779717415852
 20
516.8998656378493
 11
1489.4348320224503
 21
530.85691171951021
  0
LINE
  8
_0-a_hatch
  6
CONTINUOUS
 62
    3
 10
1474.7201522307898
 20
526.7488561334502
 11
1488.6772602460492
 21
540.70590221511088
  0
LINE
  8
_0-a_hatch
  6
CONTINUOUS
 62
    3
 10
1473.9551484225735
 20
536.59035266363685
 11
1486.3951310098792
 21
549.03045911814002
  0
LINE
  8
_0-a_hatch
  6
CONTINUOUS
 62
    3
 10
1467.6807794294696
 20
540.92254594253495
 11
1479.6156315877101
 21
552.85758390157116
  0
LINE
  8
_0-a_hatch
  6
CONTINUOUS
 62
    3
 10
1457.0740313566721
 20
540.92254594253495
 11
1469.0740376604963
 21
552.92255224635903
  0
LINE
  8
_0-a_hatch
  6
CONTINUOUS
 62
    3
 10
1446.467531018269
 20
540.92254594253495
 11
1458.4675373220932
 21
552.92255224635903
  0
LINE
  8
_0-a_hatch
  6
CONTINUOUS
 62
    3
 10
1435.8607829454718
 20
540.92254594253495
 11
1447.8607892492955
 21
552.92255224635903
  0
LINE
  8
_0-a_hatch
  6
CONTINUOUS
 62
    3
 10
1425.254282607068
 20
540.92254594253495
 11
1431.2544096261774
 21
546.92254909444694
  0
LINE
  8
_0-a_hatch
  6
CONTINUOUS
 62
    3
 10
1414.6477822686647
 20
540.92254594253495
 11
1420.6476615533797
 21
546.92254909444694
  0
LINE
  8
_0-a_hatch
  6
CONTINUOUS
 62
    3
 10
1404.0410341958677
 20
540.92254594253495
 11
1410.0411612149765
 21
546.92254909444694
  0
LINE
  8
_0-a_hatch
  6
CONTINUOUS
 62
    3
 10
1265.4343840385429
 20
412.9224890240115
 11
1267.5066822431195
 21
414.99484916218671
  0
LINE
  8
_0-a_hatch
  6
CONTINUOUS
 62
    3
 10
1393.434533857464
 20
540.92254594253495
 11
1399.4344131421792
 21
546.92254909444694
  0
LINE
  8
_0-a_hatch
  6
CONTINUOUS
 62
    3
 10
1257.5066357008673
 20
415.6014268255347
 11
1267.5066822431195
 21
425.60147336778692
  0
LINE
  8
_0-a_hatch
  6
CONTINUOUS
 62
    3
 10
1382.8277857846665
 20
540.92254594253495
 11
1388.8279128037761
 21
546.92254909444694
  0
LINE
  8
_0-a_hatch
  6
CONTINUOUS
 62
    3
 10
1257.5066357008673
 20
426.20798909753654
 11
1267.5066822431195
 21
436.20803563978876
  0
LINE
  8
_0-a_hatch
  6
CONTINUOUS
 62
    3
 10
1372.2212854462634
 20
540.92254594253495
 11
1378.2211647309787
 21
546.92254909444694
  0
LINE
  8
_0-a_hatch
  6
CONTINUOUS
 62
    3
 10
1257.5066357008673
 20
436.81461330313675
 11
1267.5066822431195
 21
446.81465984538926
  0
LINE
  8
_0-a_hatch
  6
CONTINUOUS
 62
    3
 10
1361.6145373734662
 20
540.92254594253495
 11
1367.6146643925749
 21
546.92254909444694
  0
LINE
  8
_0-a_hatch
  6
CONTINUOUS
 62
    3
 10
1257.5066357008673
 20
447.42123750873725
 11
1267.5066822431195
 21
457.42128405098947
  0
LINE
  8
_0-a_hatch
  6
CONTINUOUS
 62
    3
 10
1351.0080370350629
 20
540.92254594253495
 11
1357.0079163197779
 21
546.92254909444694
  0
LINE
  8
_0-a_hatch
  6
CONTINUOUS
 62
    3
 10
1257.5066357008673
 20
458.02779978073909
 11
1267.5066822431195
 21
468.02784632299131
  0
LINE
  8
_0-a_hatch
  6
CONTINUOUS
 62
    3
 10
1340.4015366966592
 20
540.92254594253495
 11
1346.4014159813746
 21
546.92254909444694
  0
LINE
  8
_0-a_hatch
  6
CONTINUOUS
 62
    3
 10
1257.5066357008673
 20
468.6344239863393
 11
1267.5066822431195
 21
478.63447052859181
  0
LINE
  8
_0-a_hatch
  6
CONTINUOUS
 62
    3
 10
1329.7947886238621
 20
540.92254594253495
 11
1335.7949156429709
 21
546.92254909444694
  0
LINE
  8
_0-a_hatch
  6
CONTINUOUS
 62
    3
 10
1257.5066357008673
 20
479.2410481919398
 11
1267.5066822431195
 21
489.2410637673928
  0
LINE
  8
_0-a_hatch
  6
CONTINUOUS
 62
    3
 10
1319.1882882854588
 20
540.92254594253495
 11
1325.1881675701736
 21
546.92254909444694
  0
LINE
  8
_0-a_hatch
  6
CONTINUOUS
 62
    3
 10
1257.5066357008673
 20
489.84761046394163
 11
1267.5066822431195
 21
499.84768797299319
  0
LINE
  8
_0-a_hatch
  6
CONTINUOUS
 62
    3
 10
1308.5815402126616
 20
540.92254594253495
 11
1314.5816672317706
 21
546.92254909444694
  0
LINE
  8
_0-a_hatch
  6
CONTINUOUS
 62
    3
 10
1257.5066357008673
 20
500.4542037027428
 11
1267.5066822431195
 21
510.45425024499502
  0
LINE
  8
_0-a_hatch
  6
CONTINUOUS
 62
    3
 10
1297.9750398742578
 20
540.92254594253495
 11
1303.9749191589731
 21
546.92254909444694
  0
LINE
  8
_0-a_hatch
  6
CONTINUOUS
 62
    3
 10
1257.5066357008673
 20
511.06082790834301
 11
1267.5066822431195
 21
521.06087445059541
  0
LINE
  8
_0-a_hatch
  6
CONTINUOUS
 62
    3
 10
1287.3685395358548
 20
540.92254594253495
 11
1293.3684188205693
 21
546.92254909444694
  0
LINE
  8
_0-a_hatch
  6
CONTINUOUS
 62
    3
 10
1257.5066357008673
 20
521.66745211394334
 11
1267.5066822431195
 21
531.66749865619568
  0
LINE
  8
_0-a_hatch
  6
CONTINUOUS
 62
    3
 10
1276.7617914630575
 20
540.92254594253495
 11
1282.7619184821663
 21
546.92254909444694
  0
LINE
  8
_0-a_hatch
  6
CONTINUOUS
 62
    3
 10
1257.5066357008673
 20
532.27407631954372
 11
1272.1551704093692
 21
546.92254909444694
  0
LINE
  8
_0-a_hatch
  6
CONTINUOUS
 62
    3
 10
1257.5066357008673
 20
542.88063859154556
 11
1267.5173348220553
 21
552.89115191193821
  0
LINE
  8
_0-4_free
  6
CONTINUOUS
 62
    4
 10
1192.5325930219756
 20
549.88278930018953
 11
1178.6790379833467
 21
573.09302466023576
  0
ARC
  8
_0-0_containe
  6
CONTINUOUS
 62
    4
 10
1164.5068965142234
 20
547.92252897523292
 40
5.0000000460267522
 50
0
 51
90
  0
ARC
  8
_0-0_containe
  6
CONTINUOUS
 62
    4
 10
1154.506849971971
 20
535.92252267140873
 40
5.0000000460267522
 50
0
 51
90
  0
ARC
  8
_0-0_containe
  6
CONTINUOUS
 62
    4
 10
1262.5066589719934
 20
547.92252897523292
 40
5.0000000460267522
 50
90
 51
180
  0
ARC
  8
_0-0_containe
  6
CONTINUOUS
 62
    4
 10
1272.5067055142463
 20
535.92252267140873
 40
5.0000000460267522
 50
90
 51
180
  0
ARC
  8
_0-0_containe
  6
CONTINUOUS
 62
    4
 10
958.01359040948216
 20
535.92258460500727
 40
5.0000000460267522
 50
90
 51
175.60153198242187
  0
ARC
  8
_0-0_containe
  6
CONTINUOUS
 62
    4
 10
948.53626343825863
 20
542.92256763770513
 40
10.000000092053504
 50
90
 51
175.60116577148437
  0
ARC
  8
_0-0_containe
  6
CONTINUOUS
 62
    4
 10
1478.4772920479577
 20
542.92256763770513
 40
10.000000092053504
 50
4.3986663818359437
 51
90.000000000000014
  0
ARC
  8
_0-0_containe
  6
CONTINUOUS
 62
    4
 10
1468.9999650767345
 20
535.92258460500727
 40
5.0000000460267522
 50
4.3984680175781161
 51
89.999999999999986
  0
TEXT
  8
_0-9_measure
 62
    3
 10
1201.0067777431086
 20
363.92251489472864
 40
12.5
 41
1
 50
0
  1
８８
  0
TEXT
  8
_0-9_measure
 62
    3
 10
1194.7567777431086
 20
338.92252240629466
 40
12.5
 41
1
 50
0
  1
５７０
  0
TEXT
  8
_0-9_measure
 62
    3
 10
921.00683709920861
 20
603.92251710401274
 40
12.5
 41
1
 50
0
  1
１０
  0
TEXT
  8
_0-9_measure
 62
    3
 10
1194.7570254775023
 20
603.92251710401274
 40
12.5
 41
1
 50
0
  1
５５０
  0
TEXT
  8
_0-9_measure
 62
    3
 10
1481.006718387008
 20
603.92251710401274
 40
12.5
 41
1
 50
0
  1
１０
  0
TEXT
  8
_0-9_measure
 62
    3
 10
877.50684979001744
 20
464.17250515178574
 40
12.5
 41
1
 50
90.00000250447826
  1
１４０
  0
TEXT
  8
_0-7_word
 62
    3
 10
1121.0601528694206
 20
280.57138004585789
 40
20
 41
1
 50
0
  1
Ｂ－Ｂ’断　面　図
  0
POINT
  8
_0-9_measure
 62
    5
 10
1169.5069197853495
 20
362.9225040471436
  0
POINT
  8
_0-9_measure
 62
    5
 10
1257.5066357008673
 20
362.9225040471436
  0
POINT
  8
_0-9_measure
 62
    5
 10
928.50668996088575
 20
337.92251155870963
  0
POINT
  8
_0-9_measure
 62
    5
 10
1498.5068655253308
 20
337.92251155870963
  0
POINT
  8
_0-9_measure
 62
    5
 10
928.50668996088575
 20
602.92253722322687
  0
POINT
  8
_0-9_measure
 62
    5
 10
938.50723197192576
 20
602.92253722322687
  0
POINT
  8
_0-9_measure
 62
    5
 10
1488.5068189830786
 20
602.92253722322687
  0
POINT
  8
_0-9_measure
 62
    5
 10
1498.5068655253308
 20
602.92253722322687
  0
POINT
  8
_0-9_measure
 62
    5
 10
878.5067049840178
 20
412.9224890240115
  0
POINT
  8
_0-9_measure
 62
    5
 10
878.5067049840178
 20
552.92261417995735
  0
TEXT
  8
_0-4_free
 62
    3
 10
1086.473201825439
 20
576.30564427971581
 40
12.5
 41
1
 50
0
  1
①アジャスター
  0
LINE
  8
_0-4_free
  6
CONTINUOUS
 62
    4
 10
1178.6790379833467
 20
573.09302466023576
 11
1080.4897891280318
 21
573.09302466023576
  0
LINE
  8
_8-0_free
  6
CONTINUOUS
 62
    7
 10
1705.7822572170994
 20
547.28419831293922
 11
1705.7822572170994
 21
552.28421480892746
  0
LINE
  8
_8-0_free
  6
CONTINUOUS
 62
    7
 10
1713.2822819610817
 20
539.78417356895704
 11
1713.2822819610817
 21
547.28419831293922
  0
LINE
  8
_8-0_free
  6
CONTINUOUS
 62
    7
 10
1705.7822572170994
 20
534.78421893292443
 11
1705.7822572170994
 21
539.78417356895704
  0
LINE
  8
_8-0_free
  6
CONTINUOUS
 62
    7
 10
1710.782273713088
 20
553.53434265283579
 11
1710.782273713088
 21
558.53435914882402
  0
LINE
  8
_8-0_free
  6
CONTINUOUS
 62
    7
 10
1720.782306705064
 20
553.53434265283579
 11
1727.0321417451823
 21
534.78421893292443
  0
LINE
  8
_8-0_free
  6
CONTINUOUS
 62
    7
 10
1820.7822654650936
 20
553.53409521301319
 11
1814.5321829851528
 21
534.78421893292443
  0
LINE
  8
_8-0_free
  6
CONTINUOUS
 62
    7
 10
1828.2822902090761
 20
539.78392612913444
 11
1828.2822902090761
 21
547.28401273307225
  0
LINE
  8
_8-0_free
  6
CONTINUOUS
 62
    7
 10
1835.7821912331469
 20
534.78397149310183
 11
1835.7821912331469
 21
539.78392612913444
  0
LINE
  8
_8-0_free
  6
CONTINUOUS
 62
    7
 10
1835.7821912331469
 20
547.28401273307225
 11
1835.7821912331469
 21
552.28396736910486
  0
LINE
  8
_8-0_free
  6
CONTINUOUS
 62
    7
 10
1830.7822984570701
 20
553.53409521301319
 11
1830.7822984570701
 21
558.53411170900131
  0
LINE
  8
_8-0_free
  6
CONTINUOUS
 62
    7
 10
1814.5321829851528
 20
534.78421893292443
 11
1835.7821912331469
 21
534.78421893292443
  0
LINE
  8
_8-0_free
  6
CONTINUOUS
 62
    7
 10
1835.7821912331469
 20
539.78417356895704
 11
1828.2822902090761
 21
539.78417356895704
  0
LINE
  8
_8-0_free
  6
CONTINUOUS
 62
    7
 10
1713.2822819610817
 20
539.78417356895704
 11
1705.7822572170994
 21
539.78417356895704
  0
LINE
  8
_8-0_free
  6
CONTINUOUS
 62
    7
 10
1835.7821912331469
 20
547.28419831293922
 11
1828.2822902090761
 21
547.28419831293922
  0
LINE
  8
_8-0_free
  6
CONTINUOUS
 62
    7
 10
1713.2822819610817
 20
547.28419831293922
 11
1705.7822572170994
 21
547.28419831293922
  0
LINE
  8
_8-0_free
  6
CONTINUOUS
 62
    7
 10
1830.7822984570701
 20
553.53434265283579
 11
1820.7822654650936
 21
553.53434265283579
  0
LINE
  8
_8-0_free
  6
CONTINUOUS
 62
    7
 10
1720.782306705064
 20
553.53434265283579
 11
1710.782273713088
 21
553.53434265283579
  0
LINE
  8
_8-0_free
  6
CONTINUOUS
 62
    4
 10
1830.7822984570701
 20
558.53435914882402
 11
1710.782273713088
 21
558.53435914882402
  0
LINE
  8
_8-0_free
  6
CONTINUOUS
 62
    7
 10
1705.7822572170994
 20
534.78421893292443
 11
1727.0321417451823
 21
534.78421893292443
  0
LINE
  8
_8-0_free
  6
CONTINUOUS
 62
    7
 10
1814.5321829851528
 20
534.78421893292443
 11
1835.7821912331469
 21
534.78421893292443
  0
LINE
  8
_8-0_free
  6
CONTINUOUS
 62
    4
 10
1828.2822902090761
 20
545.10944971179913
 11
1830.4570388102161
 21
547.28419831293922
  0
LINE
  8
_8-0_free
  6
CONTINUOUS
 62
    7
 10
1830.7821747371588
 20
558.53435914882402
 11
1830.7821747371588
 21
553.53434265283579
  0
LINE
  8
_8-0_free
  6
CONTINUOUS
 62
    7
 10
1710.7821499931765
 20
553.53434265283579
 11
1710.7821499931765
 21
558.53435914882402
  0
LINE
  8
_8-0_free
  6
CONTINUOUS
 62
    7
 10
1765.7822077291351
 20
531.03433028084464
 11
1775.7822407211115
 21
531.03433028084464
  0
LINE
  8
_8-0_free
  6
CONTINUOUS
 62
    7
 10
1727.0321417451823
 20
558.53435914882402
 11
1735.7822324731173
 21
538.5342931648712
  0
LINE
  8
_8-0_free
  6
CONTINUOUS
 62
    7
 10
1735.7822324731173
 20
538.5342931648712
 11
1735.7822324731173
 21
458.5343385288387
  0
LINE
  8
_8-0_free
  6
CONTINUOUS
 62
    7
 10
1814.5321829851528
 20
558.53435914882402
 11
1805.782215977129
 21
538.5342931648712
  0
LINE
  8
_8-0_free
  6
CONTINUOUS
 62
    7
 10
1805.782215977129
 20
538.5342931648712
 11
1805.782215977129
 21
458.5343385288387
  0
LINE
  8
_8-0_free
  6
CONTINUOUS
 62
    4
 10
1735.7822324731173
 20
538.5342931648712
 11
1805.782215977129
 21
538.5342931648712
  0
LINE
  8
_8-0_free
  6
CONTINUOUS
 62
    4
 10
1805.782215977129
 20
536.03428491687725
 11
1735.7822324731173
 21
536.03428491687725
  0
LINE
  8
_8-0_free
  6
CONTINUOUS
 62
    4
 10
1805.782215977129
 20
531.03433028084464
 11
1775.7822407211115
 21
531.03433028084464
  0
LINE
  8
_8-0_free
  6
CONTINUOUS
 62
    4
 10
1765.7822077291351
 20
531.03433028084464
 11
1735.7822324731173
 21
531.03433028084464
  0
LINE
  8
_8-0_free
  6
CONTINUOUS
 62
    7
 10
1710.7821499931765
 20
558.53435914882402
 11
1727.0321417451823
 21
558.53435914882402
  0
LINE
  8
_8-0_free
  6
CONTINUOUS
 62
    7
 10
1814.5321829851528
 20
558.53435914882402
 11
1830.7821747371588
 21
558.53435914882402
  0
LINE
  8
_8-0_free
  6
CONTINUOUS
 62
    7
 10
1723.2002886518546
 20
553.53434265283579
 11
1710.7821499931765
 21
553.53434265283579
  0
LINE
  8
_8-0_free
  6
CONTINUOUS
 62
    7
 10
1830.7821747371588
 20
553.53434265283579
 11
1818.3640360784805
 21
553.53434265283579
  0
LINE
  8
_8-0_free
  6
CONTINUOUS
 62
    4
 10
1727.0321417451823
 20
558.53435914882402
 11
1814.5321829851528
 21
558.53435914882402
  0
LINE
  8
_8-0_free
  6
CONTINUOUS
 62
    4
 10
1735.7822324731173
 20
458.5343385288387
 11
1805.782215977129
 21
458.5343385288387
  0
LINE
  8
_8-0_free
  6
CONTINUOUS
 62
    7
 10
1730.782215977129
 20
458.5343385288387
 11
1735.7822324731173
 21
458.5343385288387
  0
LINE
  8
_8-0_free
  6
CONTINUOUS
 62
    7
 10
1805.782215977129
 20
458.5343385288387
 11
1810.7822324731173
 21
458.5343385288387
  0
LINE
  8
_8-0_free
  6
CONTINUOUS
 62
    7
 10
1730.782215977129
 20
531.03433028084464
 11
1730.782215977129
 21
458.5343385288387
  0
LINE
  8
_8-0_free
  6
CONTINUOUS
 62
    7
 10
1723.2002886518546
 20
553.53434265283579
 11
1730.782215977129
 21
531.03433028084464
  0
LINE
  8
_8-0_free
  6
CONTINUOUS
 62
    7
 10
1818.3640360784805
 20
553.53434265283579
 11
1810.7822324731173
 21
531.03433028084464
  0
LINE
  8
_8-0_free
  6
CONTINUOUS
 62
    7
 10
1810.7822324731173
 20
531.03433028084464
 11
1810.7822324731173
 21
458.5343385288387
  0
LINE
  8
_8-0_free
  6
CONTINUOUS
 62
    4
 10
1727.0321417451823
 20
534.78421893292443
 11
1729.5185408029317
 21
534.78421893292443
  0
LINE
  8
_8-0_free
  6
CONTINUOUS
 62
    4
 10
1812.0457839274036
 20
534.78421893292443
 11
1814.5321829851528
 21
534.78421893292443
  0
LINE
  8
_8-0_free
  6
CONTINUOUS
 62
    4
 10
1807.7971184528471
 20
524.53006524310183
 11
1916.0102235256932
 21
416.31689831029985
  0
LINE
  8
_8-0_free
  6
CONTINUOUS
 62
    2
 10
1727.0321417451823
 20
517.28422305692152
 11
1645.7821829851525
 21
517.28422305692152
  0
LINE
  8
_8-0_free
  6
CONTINUOUS
 62
    2
 10
1727.0321417451823
 20
534.78421893292443
 11
1727.0321417451823
 21
517.28422305692152
  0
LINE
  8
_8-0_free
  6
CONTINUOUS
 62
    2
 10
1895.7821417451823
 20
517.28422305692152
 11
1814.5321829851528
 21
517.28422305692152
  0
LINE
  8
_8-0_free
  6
CONTINUOUS
 62
    2
 10
1814.5321829851528
 20
534.78421893292443
 11
1814.5321829851528
 21
517.28422305692152
  0
LINE
  8
_8-0_free
  6
CONTINUOUS
 62
    4
 10
1871.1678179487296
 20
517.28422305692152
 11
1895.7821417451823
 21
541.89867057328559
  0
LINE
  8
_8-0_free
  6
CONTINUOUS
 62
    4
 10
1694.3911175422686
 20
517.28422305692152
 11
1711.8910515583159
 21
534.78421893292443
  0
ARC
  8
_8-0_free
  6
CONTINUOUS
 62
    7
 10
1770.7822242251234
 20
531.03433028084464
 40
5.0000000644374545
 50
0
 51
180
  0
LINE
  8
_8-0_free
  6
CONTINUOUS
 62
    4
 10
1645.7821829851525
 20
539.38604289433692
 11
1666.1804847829569
 21
559.78430141286537
  0
LINE
  8
_8-0_free
  6
CONTINUOUS
 62
    4
 10
1835.8125026114199
 20
517.28422305692152
 11
1878.3124315368564
 21
559.78430141286537
  0
LINE
  8
_8-0_free
  6
CONTINUOUS
 62
    7
 10
1710.782273713088
 20
558.53435914882402
 11
1692.0322242251234
 21
559.78430141286537
  0
LINE
  8
_8-0_free
  6
CONTINUOUS
 62
    7
 10
1830.7821747371588
 20
553.53434265283579
 11
1830.7821747371588
 21
558.53435914882402
  0
LINE
  8
_8-0_free
  6
CONTINUOUS
 62
    7
 10
1835.7821912331469
 20
552.28421480892746
 11
1845.7822242251234
 21
552.28421480892746
  0
LINE
  8
_8-0_free
  6
CONTINUOUS
 62
    7
 10
1830.7822984570701
 20
553.53434265283579
 11
1830.7822984570701
 21
558.53435914882402
  0
LINE
  8
_8-0_free
  6
CONTINUOUS
 62
    7
 10
1830.7821747371588
 20
558.53435914882402
 11
1849.5322242251234
 21
559.78430141286537
  0
LINE
  8
_8-0_free
  6
CONTINUOUS
 62
    2
 10
1849.5322242251234
 20
559.78430141286537
 11
1895.7821417451823
 21
559.78430141286537
  0
LINE
  8
_8-0_free
  6
CONTINUOUS
 62
    2
 10
1692.0322242251234
 20
559.78430141286537
 11
1645.7821829851525
 21
559.78430141286537
  0
LINE
  8
_8-0_free
  6
CONTINUOUS
 62
    7
 10
1692.0322242251234
 20
559.78430141286537
 11
1692.0322242251234
 21
552.28421480892746
  0
LINE
  8
_8-0_free
  6
CONTINUOUS
 62
    7
 10
1705.7822572170994
 20
552.28421480892746
 11
1692.0322242251234
 21
552.28421480892746
  0
LINE
  8
_8-0_free
  6
CONTINUOUS
 62
    7
 10
1849.5322242251234
 20
552.28421480892746
 11
1835.7821912331469
 21
552.28421480892746
  0
LINE
  8
_8-0_free
  6
CONTINUOUS
 62
    7
 10
1849.5322242251234
 20
559.78430141286537
 11
1849.5322242251234
 21
552.28421480892746
  0
LINE
  8
_8-0_free
  6
CONTINUOUS
 62
    3
 10
1692.0322242251234
 20
604.15705495177519
 11
1849.5322242251234
 21
604.15705495177519
  0
POINT
  8
_8-0_free
 62
    5
 10
1692.0322242251234
 20
604.15705495177519
  0
POINT
  8
_8-0_free
 62
    5
 10
1849.5322242251234
 20
604.15705495177519
  0
LINE
  8
_8-0_free
  6
CONTINUOUS
 62
    4
 10
1692.0322242251234
 20
604.15705495177519
 11
1692.0322242251234
 21
571.014733871369
  0
LINE
  8
_8-0_free
  6
CONTINUOUS
 62
    4
 10
1849.5322242251234
 20
604.15705495177519
 11
1849.5322242251234
 21
571.014733871369
  0
TEXT
  8
_8-0_free
 62
    3
 10
1758.2822242251234
 20
605.15705496667636
 40
12.5
 41
1
 50
0
  1
６３
  0
LINE
  8
_8-0_free
  6
CONTINUOUS
 62
    3
 10
1730.782215977129
 20
414.57472496465164
 11
1810.7822324731173
 21
414.57472496465164
  0
POINT
  8
_8-0_free
 62
    5
 10
1730.782215977129
 20
414.57472496465164
  0
POINT
  8
_8-0_free
 62
    5
 10
1810.7822324731173
 20
414.57472496465164
  0
LINE
  8
_8-0_free
  6
CONTINUOUS
 62
    4
 10
1730.782215977129
 20
414.57472496465164
 11
1730.782215977129
 21
443.12576524515453
  0
LINE
  8
_8-0_free
  6
CONTINUOUS
 62
    4
 10
1810.7822324731173
 20
414.57472496465164
 11
1810.7822324731173
 21
443.12576524515453
  0
TEXT
  8
_8-0_free
 62
    3
 10
1758.2822242251234
 20
415.5747249795528
 40
12.5
 41
1
 50
0
  1
３２
  0
TEXT
  8
_8-0_free
 62
    3
 10
1682.3211597060142
 20
372.80548498613149
 40
20
 41
1
 50
0
  1
Ａ部詳細図(S=1/2)
  0
LINE
  8
_8-0_free
  6
CONTINUOUS
 62
    4
 10
1916.0102235256932
 20
449.89982456717098
 11
1831.0385223934088
 21
550.17998655723829
  0
LINE
  8
_8-0_free
  6
CONTINUOUS
 62
    4
 10
1916.0102235256932
 20
416.31689831029985
 11
2025.0025166000178
 21
416.31689831029985
  0
LINE
  8
_8-0_free
  6
CONTINUOUS
 62
    4
 10
1916.0102235256932
 20
449.89982456717098
 11
2025.0025166000178
 21
449.89982456717098
  0
CIRCLE
  8
_0-4_free
  6
CONTINUOUS
 62
    4
 10
1252.7662380744989
 20
544.85347380092446
 40
0.1999999951880468
  0
CIRCLE
  8
_0-4_free
  6
CONTINUOUS
 62
    4
 10
1245.6951552707649
 20
544.85347380092446
 40
0.1999999951880468
  0
CIRCLE
  8
_0-4_free
  6
CONTINUOUS
 62
    4
 10
1249.2308205398288
 20
548.38901520279126
 40
0.1999999951880468
  0
CIRCLE
  8
_0-4_free
  6
CONTINUOUS
 62
    4
 10
1252.7662380744989
 20
551.92455660465816
 40
0.1999999951880468
  0
CIRCLE
  8
_0-4_free
  6
CONTINUOUS
 62
    4
 10
1238.6243202014255
 20
544.85347380092446
 40
0.1999999951880468
  0
CIRCLE
  8
_0-4_free
  6
CONTINUOUS
 62
    4
 10
1242.1597377360952
 20
548.38901520279126
 40
0.1999999951880468
  0
CIRCLE
  8
_0-4_free
  6
CONTINUOUS
 62
    4
 10
1245.6951552707649
 20
551.92455660465816
 40
0.1999999951880468
  0
CIRCLE
  8
_0-4_free
  6
CONTINUOUS
 62
    4
 10
1249.2308205398288
 20
555.46009800652485
 40
0.1999999951880468
  0
CIRCLE
  8
_0-4_free
  6
CONTINUOUS
 62
    4
 10
1231.5532373976921
 20
544.85347380092446
 40
0.1999999951880468
  0
CIRCLE
  8
_0-4_free
  6
CONTINUOUS
 62
    4
 10
1235.0886549323618
 20
548.38901520279126
 40
0.1999999951880468
  0
CIRCLE
  8
_0-4_free
  6
CONTINUOUS
 62
    4
 10
1238.6243202014255
 20
551.92455660465816
 40
0.1999999951880468
  0
CIRCLE
  8
_0-4_free
  6
CONTINUOUS
 62
    4
 10
1242.1597377360952
 20
555.46009800652485
 40
0.1999999951880468
  0
CIRCLE
  8
_0-4_free
  6
CONTINUOUS
 62
    4
 10
1224.4821545939585
 20
544.85347380092446
 40
0.1999999951880468
  0
CIRCLE
  8
_0-4_free
  6
CONTINUOUS
 62
    4
 10
1228.0175721286282
 20
548.38901520279126
 40
0.1999999951880468
  0
CIRCLE
  8
_0-4_free
  6
CONTINUOUS
 62
    4
 10
1231.5532373976921
 20
551.92455660465816
 40
0.1999999951880468
  0
CIRCLE
  8
_0-4_free
  6
CONTINUOUS
 62
    4
 10
1235.0886549323618
 20
555.46009800652485
 40
0.1999999951880468
  0
CIRCLE
  8
_0-4_free
  6
CONTINUOUS
 62
    4
 10
1217.4110717902245
 20
544.85347380092446
 40
0.1999999951880468
  0
CIRCLE
  8
_0-4_free
  6
CONTINUOUS
 62
    4
 10
1220.9464893248949
 20
548.38901520279126
 40
0.1999999951880468
  0
CIRCLE
  8
_0-4_free
  6
CONTINUOUS
 62
    4
 10
1224.4821545939585
 20
551.92455660465816
 40
0.1999999951880468
  0
CIRCLE
  8
_0-4_free
  6
CONTINUOUS
 62
    4
 10
1228.0175721286282
 20
555.46009800652485
 40
0.1999999951880468
  0
CIRCLE
  8
_0-4_free
  6
CONTINUOUS
 62
    4
 10
1210.3399889864911
 20
544.85347380092446
 40
0.1999999951880468
  0
CIRCLE
  8
_0-4_free
  6
CONTINUOUS
 62
    4
 10
1213.8754065211613
 20
548.38901520279126
 40
0.1999999951880468
  0
CIRCLE
  8
_0-4_free
  6
CONTINUOUS
 62
    4
 10
1217.4110717902245
 20
551.92455660465816
 40
0.1999999951880468
  0
CIRCLE
  8
_0-4_free
  6
CONTINUOUS
 62
    4
 10
1220.9464893248949
 20
555.46009800652485
 40
0.1999999951880468
  0
CIRCLE
  8
_0-4_free
  6
CONTINUOUS
 62
    4
 10
1203.2689061827575
 20
544.85347380092446
 40
0.1999999951880468
  0
CIRCLE
  8
_0-4_free
  6
CONTINUOUS
 62
    4
 10
1206.8043237174272
 20
548.38901520279126
 40
0.1999999951880468
  0
CIRCLE
  8
_0-4_free
  6
CONTINUOUS
 62
    4
 10
1210.3399889864911
 20
551.92455660465816
 40
0.1999999951880468
  0
CIRCLE
  8
_0-4_free
  6
CONTINUOUS
 62
    4
 10
1213.8754065211613
 20
555.46009800652485
 40
0.1999999951880468
  0
CIRCLE
  8
_0-4_free
  6
CONTINUOUS
 62
    4
 10
1196.1978233790242
 20
544.85347380092446
 40
0.1999999951880468
  0
CIRCLE
  8
_0-4_free
  6
CONTINUOUS
 62
    4
 10
1199.7332409136939
 20
548.38901520279126
 40
0.1999999951880468
  0
CIRCLE
  8
_0-4_free
  6
CONTINUOUS
 62
    4
 10
1203.2689061827575
 20
551.92455660465816
 40
0.1999999951880468
  0
CIRCLE
  8
_0-4_free
  6
CONTINUOUS
 62
    4
 10
1206.8043237174272
 20
555.46009800652485
 40
0.1999999951880468
  0
CIRCLE
  8
_0-4_free
  6
CONTINUOUS
 62
    4
 10
1189.1267405752906
 20
544.85347380092446
 40
0.1999999951880468
  0
CIRCLE
  8
_0-4_free
  6
CONTINUOUS
 62
    4
 10
1192.6621581099603
 20
548.38901520279126
 40
0.1999999951880468
  0
CIRCLE
  8
_0-4_free
  6
CONTINUOUS
 62
    4
 10
1196.1978233790242
 20
551.92455660465816
 40
0.1999999951880468
  0
CIRCLE
  8
_0-4_free
  6
CONTINUOUS
 62
    4
 10
1199.7332409136939
 20
555.46009800652485
 40
0.1999999951880468
  0
CIRCLE
  8
_0-4_free
  6
CONTINUOUS
 62
    4
 10
1182.0556577715568
 20
544.85347380092446
 40
0.1999999951880468
  0
CIRCLE
  8
_0-4_free
  6
CONTINUOUS
 62
    4
 10
1185.5910753062269
 20
548.38901520279126
 40
0.1999999951880468
  0
CIRCLE
  8
_0-4_free
  6
CONTINUOUS
 62
    4
 10
1189.1267405752906
 20
551.92455660465816
 40
0.1999999951880468
  0
CIRCLE
  8
_0-4_free
  6
CONTINUOUS
 62
    4
 10
1192.6621581099603
 20
555.46009800652485
 40
0.1999999951880468
  0
CIRCLE
  8
_0-4_free
  6
CONTINUOUS
 62
    4
 10
1174.9845749678234
 20
544.85347380092446
 40
0.1999999951880468
  0
CIRCLE
  8
_0-4_free
  6
CONTINUOUS
 62
    4
 10
1178.520240236887
 20
548.38901520279126
 40
0.1999999951880468
  0
CIRCLE
  8
_0-4_free
  6
CONTINUOUS
 62
    4
 10
1182.0556577715568
 20
551.92455660465816
 40
0.1999999951880468
  0
CIRCLE
  8
_0-4_free
  6
CONTINUOUS
 62
    4
 10
1185.5910753062269
 20
555.46009800652485
 40
0.1999999951880468
  0
CIRCLE
  8
_0-4_free
  6
CONTINUOUS
 62
    4
 10
1174.9845749678234
 20
551.92455660465816
 40
0.1999999951880468
  0
CIRCLE
  8
_0-4_free
  6
CONTINUOUS
 62
    4
 10
1178.520240236887
 20
555.46009800652485
 40
0.1999999951880468
  0
LINE
  8
_0-d_free
  6
CONTINUOUS
 62
    7
 10
1165.0067777431084
 20
552.92255224635903
 11
1262.0067777431086
 21
552.92255224635903
  0
LINE
  8
_0-d_free
  6
CONTINUOUS
 62
    7
 10
1175.0067777431084
 20
555.92255224635903
 11
1252.0067777431086
 21
555.92255224635903
  0
LINE
  8
_0-d_free
  6
CONTINUOUS
 62
    7
 10
1170.5067777431086
 20
540.92255224635903
 11
1256.5067777431086
 21
540.92255224635903
  0
LINE
  8
_0-d_free
  6
CONTINUOUS
 62
    7
 10
1170.5067777431086
 20
552.92255224635903
 11
1170.5067777431086
 21
540.92255224635903
  0
LINE
  8
_0-d_free
  6
CONTINUOUS
 62
    7
 10
1256.5067777431086
 20
552.92255224635903
 11
1256.5067777431086
 21
540.92255224635903
  0
LINE
  8
_0-d_free
  6
DASHED1
 62
    7
 10
1183.0067777431086
 20
555.92255224635903
 11
1183.0067777431086
 21
547.92255224635903
  0
LINE
  8
_0-d_free
  6
DASHED1
 62
    7
 10
1244.0067777431086
 20
555.92255224635903
 11
1244.0067777431086
 21
547.92255224635903
  0
LINE
  8
_0-d_free
  6
DASHED1
 62
    7
 10
1214.5067777431086
 20
540.92255224635903
 11
1214.5067777431086
 21
552.92255224635903
  0
LINE
  8
_0-d_free
  6
DASHED1
 62
    7
 10
1212.5067777431086
 20
540.92255224635903
 11
1212.5067777431086
 21
552.92255224635903
  0
LINE
  8
_0-d_free
  6
DASHED1
 62
    7
 10
1212.5067777431086
 20
547.92255224635903
 11
1214.5067777431086
 21
547.92255224635903
  0
LINE
  8
_0-d_free
  6
CONTINUOUS
 62
    7
 10
1262.0067777431086
 20
553.22788160662094
 11
1262.0067777431086
 21
552.92255224635903
  0
ARC
  8
_0-d_free
  6
CONTINUOUS
 62
    7
 10
1251.2089001473512
 20
525.93316426757247
 40
30
 50
70.253583769009254
 51
88.475986337093744
  0
ARC
  8
_0-d_free
  6
CONTINUOUS
 62
    7
 10
1261.0067777431086
 20
553.22788160662094
 40
1
 50
0
 51
70.25358376900752
  0
LINE
  8
_0-d_free
  6
CONTINUOUS
 62
    7
 10
1165.0067777431084
 20
553.22788160662094
 11
1165.0067777431084
 21
552.92255224635903
  0
ARC
  8
_0-d_free
  6
CONTINUOUS
 62
    7
 10
1175.8046553388658
 20
525.93316426757247
 40
30
 50
91.524013662906256
 51
109.74641623099076
  0
ARC
  8
_0-d_free
  6
CONTINUOUS
 62
    7
 10
1166.0067777431086
 20
553.22788160662094
 40
1
 50
109.74641623099248
 51
180
  0
LINE
  8
_0-d_free
  6
DASHED1
 62
    7
 10
1173.5067777431086
 20
552.92255224635903
 11
1173.5067777431086
 21
540.92255224635903
  0
LINE
  8
_0-d_free
  6
DASHED1
 62
    7
 10
1253.5067777431086
 20
552.92255224635903
 11
1253.5067777431086
 21
540.92255224635903
  0
LINE
  8
_0-d_free
  6
DASHED1
 62
    7
 10
1183.0067777431086
 20
547.92255224635903
 11
1173.5067777431086
 21
541.58921891302566
  0
LINE
  8
_0-d_free
  6
DASHED1
 62
    7
 10
1244.0067777431086
 20
547.92255224635903
 11
1253.5067777431086
 21
541.58921891302566
  0
LINE
  8
_0-7_word
  6
CENTER2
 62
    3
 10
495.80494722755645
 20
1144.3595192141779
 11
495.80494722755645
 21
1069.8595936228674
  0
LINE
  8
_0-4_free
  6
CONTINUOUS
 62
    7
 10
1175.1566560705371
 20
1131.9471429152611
 11
1173.156674216124
 21
1131.9471429152611
  0
LINE
  8
_0-4_free
  6
CONTINUOUS
 62
    3
 10
464.80470385281649
 20
1287.0484605806018
 11
526.80469513350829
 21
1287.0484605806018
  0
LINE
  8
_0-0_containe
  6
CONTINUOUS
 62
    4
 10
720.80500349065915
 20
792.10957674393649
 11
270.80489096445376
 21
792.10957674393649
  0
LINE
  8
_0-2_free
  6
CONTINUOUS
 62
    3
 10
720.80500349065915
 20
782.1095921352827
 11
270.80489096445376
 21
782.1095921352827
  0
LINE
  8
_0-0_containe
  6
CONTINUOUS
 62
    4
 10
220.80490598758587
 20
1267.1095578913787
 11
220.80490598758587
 21
842.10956172080444
  0
LINE
  8
_0-0_containe
  6
CONTINUOUS
 62
    4
 10
446.80481826427723
 20
1272.1095811625048
 11
225.80492925871198
 21
1272.1095811625048
  0
LINE
  8
_0-0_containe
  6
CONTINUOUS
 62
    4
 10
765.80496519640064
 20
1272.1095811625048
 11
544.80482845644133
 21
1272.1095811625048
  0
LINE
  8
_0-0_containe
  6
CONTINUOUS
 62
    4
 10
770.80498846752675
 20
1267.1095578913787
 11
770.80498846752675
 21
842.10956172080444
  0
LINE
  8
_0-0_containe
  6
CONTINUOUS
 62
    4
 10
710.80495694840636
 20
1260.1096987258777
 11
556.80483476026552
 21
1260.1096987258777
  0
LINE
  8
_0-0_containe
  6
CONTINUOUS
 62
    4
 10
720.80500349065915
 20
1250.1096521836255
 11
720.80500349065915
 21
1172.1096112087689
  0
LINE
  8
_0-0_containe
  6
CONTINUOUS
 62
    4
 10
270.80489096445376
 20
1250.1096521836255
 11
270.80489096445376
 21
1172.1096112087689
  0
LINE
  8
_0-0_containe
  6
CONTINUOUS
 62
    4
 10
434.8050596948471
 20
1260.1096987258777
 11
280.80493750670627
 21
1260.1096987258777
  0
LINE
  8
_0-0_containe
  6
CONTINUOUS
 62
    4
 10
439.80508296597321
 20
1187.1096810221475
 11
439.80508296597321
 21
1255.1096754547516
  0
LINE
  8
_0-0_containe
  6
CONTINUOUS
 62
    4
 10
551.80481148913941
 20
1187.1096810221475
 11
551.80481148913941
 21
1255.1096754547516
  0
LINE
  8
_0-0_containe
  6
CONTINUOUS
 62
    4
 10
546.8047882180133
 20
1182.1096577510214
 11
444.80510623709961
 21
1182.1096577510214
  0
LINE
  8
_0-0_containe
  6
CONTINUOUS
 62
    4
 10
280.80493750670627
 20
1182.1096577510214
 11
444.80510623709961
 21
1182.1096577510214
  0
LINE
  8
_0-0_containe
  6
CONTINUOUS
 62
    4
 10
546.8047882180133
 20
1182.1096577510214
 11
710.80495694840636
 21
1182.1096577510214
  0
LINE
  8
_0-0_containe
  6
CONTINUOUS
 62
    4
 10
571.30497656684952
 20
1194.1096640548453
 11
701.30483841294847
 21
1194.1096640548453
  0
LINE
  8
_0-0_containe
  6
CONTINUOUS
 62
    4
 10
706.30486168407458
 20
1187.1096810221475
 11
706.30486168407458
 21
1189.1096407837192
  0
LINE
  8
_0-0_containe
  6
CONTINUOUS
 62
    4
 10
571.30497656684952
 20
1182.1096577510214
 11
701.30483841294847
 21
1182.1096577510214
  0
LINE
  8
_0-0_containe
  6
CONTINUOUS
 62
    4
 10
566.30495329572341
 20
1189.1096407837192
 11
566.30495329572341
 21
1187.1096810221475
  0
LINE
  8
_0-0_containe
  6
CONTINUOUS
 62
    4
 10
420.30491788826311
 20
1194.1096640548453
 11
290.30505604216415
 21
1194.1096640548453
  0
LINE
  8
_0-0_containe
  6
CONTINUOUS
 62
    4
 10
285.30503277103776
 20
1187.1096810221475
 11
285.30503277103776
 21
1189.1096407837192
  0
LINE
  8
_0-0_containe
  6
CONTINUOUS
 62
    4
 10
420.30491788826311
 20
1182.1096577510214
 11
290.30505604216415
 21
1182.1096577510214
  0
LINE
  8
_0-0_containe
  6
CONTINUOUS
 62
    4
 10
425.30494115938922
 20
1189.1096407837192
 11
425.30494115938922
 21
1187.1096810221475
  0
LINE
  8
_0-2_free
  6
CONTINUOUS
 62
    3
 10
210.80485944533365
 20
1277.1096044336309
 11
210.80485944533365
 21
842.10956172080444
  0
LINE
  8
_0-2_free
  6
CONTINUOUS
 62
    3
 10
446.80481826427723
 20
1282.1096277047573
 11
215.80488271645976
 21
1282.1096277047573
  0
LINE
  8
_0-2_free
  6
CONTINUOUS
 62
    3
 10
775.80501173865287
 20
1282.1096277047573
 11
544.80482845644133
 21
1282.1096277047573
  0
LINE
  8
_0-2_free
  6
CONTINUOUS
 62
    3
 10
780.80503500977898
 20
1277.1096044336309
 11
780.80503500977898
 21
842.10956172080444
  0
LINE
  8
_0-0_containe
  6
CONTINUOUS
 62
    4
 10
1047.1564208259629
 20
817.91049452769585
 11
1047.1564208259629
 21
810.93862934870015
  0
LINE
  8
_0-0_containe
  6
CONTINUOUS
 62
    4
 10
1051.3961472423557
 20
822.85242408346357
 11
1175.1563229104904
 21
857.14010286462678
  0
LINE
  8
ADD_LINE
  6
DOT
 62
    4
 10
1175.1563229104904
 20
782.10953020168415
 11
1001.2482648323578
 21
782.10953020168415
  0
LINE
  8
ADD_LINE
  6
DOT
 62
    4
 10
1175.1563229104904
 20
792.10957674393649
 11
1001.2482648323578
 21
792.10957674393649
  0
LINE
  8
ADD_LINE
  6
DOT
 62
    4
 10
1045.1564610643914
 20
778.24388272000886
 11
1045.1564610643914
 21
800.20367872708425
  0
LINE
  8
_0-0_containe
  6
CONTINUOUS
 62
    4
 10
1044.3894753810237
 20
792.16853752967359
 11
1175.1563229104904
 21
782.10953020168415
  0
LINE
  8
_0-0_containe
  6
CONTINUOUS
 62
    4
 10
1035.1564145221391
 20
827.10961577462285
 11
1035.1564145221391
 21
802.13910367905737
  0
LINE
  8
_0-0_containe
  6
CONTINUOUS
 62
    4
 10
1175.1563229104904
 20
782.10953020168415
 11
1175.1563229104904
 21
797.14007134550661
  0
LINE
  8
_0-0_containe
  6
CONTINUOUS
 62
    4
 10
1051.8002020387291
 20
805.95124053166057
 11
1175.1563229104904
 21
797.14007134550661
  0
LINE
  8
_0-3_free
  6
CONTINUOUS
 62
    7
 10
1175.1563229104904
 20
797.14007134550661
 11
1175.1563229104904
 21
857.10950766698602
  0
LINE
  8
_0-0_containe
  6
CONTINUOUS
 62
    4
 10
1035.1564145221391
 20
1192.1098281604707
 11
1041.1562938068539
 21
1194.1096640548453
  0
LINE
  8
_0-0_containe
  6
CONTINUOUS
 62
    4
 10
1035.1564145221391
 20
1260.1096987258777
 11
1041.1562938068539
 21
1258.109738964306
  0
LINE
  8
_0-0_containe
  6
CONTINUOUS
 62
    4
 10
1041.1562938068539
 20
1258.109738964306
 11
1041.1562938068539
 21
1194.1096640548453
  0
LINE
  8
_0-3_free
  6
CONTINUOUS
 62
    7
 10
1035.1564145221391
 20
1260.1096987258777
 11
1035.1564145221391
 21
1192.1098281604707
  0
LINE
  8
_0-0_containe
  6
CONTINUOUS
 62
    4
 10
1035.1564145221391
 20
1262.7983601023595
 11
1035.1564145221391
 21
1260.1096987258777
  0
LINE
  8
_0-0_containe
  6
CONTINUOUS
 62
    4
 10
1035.1564145221391
 20
1182.1096577510214
 11
1035.1564145221391
 21
1192.1098281604707
  0
LINE
  8
_0-0_containe
  6
CONTINUOUS
 62
    4
 10
1044.3894753810237
 20
1272.0506203767677
 11
1175.1563229104904
 21
1282.1096277047573
  0
LINE
  8
_0-0_containe
  6
CONTINUOUS
 62
    4
 10
1051.7729512554051
 20
1257.5878864636557
 11
1175.1563229104904
 21
1267.0789626937378
  0
LINE
  8
_0-0_containe
  6
CONTINUOUS
 62
    4
 10
1175.1563229104904
 20
1282.1096277047573
 11
1175.1563229104904
 21
1267.0789626937378
  0
LINE
  8
_0-0_containe
  6
CONTINUOUS
 62
    4
 10
1051.3961472423557
 20
1186.3668494421806
 11
1175.1563229104904
 21
1178.0647744353937
  0
LINE
  8
_0-0_containe
  6
CONTINUOUS
 62
    4
 10
1039.8217486271706
 20
1177.1207825276185
 11
1155.8258558925691
 21
1169.3390736151189
  0
LINE
  8
_0-3_free
  6
CONTINUOUS
 62
    7
 10
1035.1564145221391
 20
827.10961577462285
 11
1035.1564145221391
 21
1182.1096577510214
  0
LINE
  8
_0-0_containe
  6
CONTINUOUS
 62
    4
 10
1047.1564208259629
 20
1252.6027272561605
 11
1047.1564208259629
 21
1191.3087789979484
  0
LINE
  8
_0-0_containe
  6
CONTINUOUS
 62
    4
 10
1175.1563229104904
 20
857.10950766698602
 11
1175.1563229104904
 21
1089.8595628401749
  0
LINE
  8
_0-0_containe
  6
CONTINUOUS
 62
    4
 10
720.80500349065915
 20
1172.1096112087689
 11
720.80500349065915
 21
877.10960075149069
  0
LINE
  8
_0-0_containe
  6
CONTINUOUS
 62
    4
 10
270.80489096445376
 20
1172.1096112087689
 11
270.80489096445376
 21
877.10960075149069
  0
LINE
  8
_0-0_containe
  6
CONTINUOUS
 62
    4
 10
1039.8217486271706
 20
832.09849099802568
 11
1155.8258558925691
 21
865.86580368490161
  0
LINE
  8
_0-9_measure
  6
CONTINUOUS
 62
    3
 10
160.80487446846575
 20
792.10951481033817
 11
160.80487446846575
 21
822.10934476910279
  0
LINE
  8
_0-9_measure
  6
CONTINUOUS
 62
    3
 10
185.80499082409659
 20
792.10951481033817
 11
160.80487446846575
 21
792.10951481033817
  0
LINE
  8
_0-9_measure
  6
CONTINUOUS
 62
    3
 10
185.80499082409659
 20
822.10934476910279
 11
160.80487446846575
 21
822.10934476910279
  0
LINE
  8
_0-9_measure
  6
CONTINUOUS
 62
    3
 10
160.80487446846575
 20
822.10934476910279
 11
160.80487446846575
 21
1182.1096577510214
  0
LINE
  8
_0-9_measure
  6
CONTINUOUS
 62
    3
 10
185.80499082409659
 20
822.10934476910279
 11
160.80487446846575
 21
822.10934476910279
  0
LINE
  8
_0-9_measure
  6
CONTINUOUS
 62
    3
 10
185.80499082409659
 20
1182.1096577510214
 11
160.80487446846575
 21
1182.1096577510214
  0
LINE
  8
_0-9_measure
  6
CONTINUOUS
 62
    3
 10
160.80487446846575
 20
1182.1096577510214
 11
160.80487446846575
 21
1272.1095811625048
  0
LINE
  8
_0-9_measure
  6
CONTINUOUS
 62
    3
 10
185.80499082409659
 20
1272.1095811625048
 11
160.80487446846575
 21
1272.1095811625048
  0
LINE
  8
_0-9_measure
  6
CONTINUOUS
 62
    3
 10
135.8050058472287
 20
1272.1095811625048
 11
135.8050058472287
 21
792.10951481033817
  0
LINE
  8
_0-9_measure
  6
CONTINUOUS
 62
    3
 10
160.80487446846575
 20
1272.1095811625048
 11
135.8050058472287
 21
1272.1095811625048
  0
LINE
  8
_0-9_measure
  6
CONTINUOUS
 62
    3
 10
160.80487446846575
 20
792.10951481033817
 11
135.8050058472287
 21
792.10951481033817
  0
LINE
  8
_0-9_measure
  6
CONTINUOUS
 62
    3
 10
451.80484153540363
 20
1332.1096126816251
 11
539.80480518531522
 21
1332.1096126816251
  0
LINE
  8
_0-9_measure
  6
CONTINUOUS
 62
    3
 10
451.80484153540363
 20
1307.1096201931912
 11
451.80484153540363
 21
1332.1096126816251
  0
LINE
  8
_0-9_measure
  6
CONTINUOUS
 62
    3
 10
539.80480518531522
 20
1307.1096201931912
 11
539.80480518531522
 21
1332.1096126816251
  0
LINE
  8
_0-9_measure
  6
CONTINUOUS
 62
    3
 10
220.80490598758587
 20
732.10960715841475
 11
270.80489096445376
 21
732.10960715841475
  0
LINE
  8
_0-9_measure
  6
CONTINUOUS
 62
    3
 10
220.80490598758587
 20
757.10959964684878
 11
220.80490598758587
 21
732.10960715841475
  0
LINE
  8
_0-9_measure
  6
CONTINUOUS
 62
    3
 10
270.80489096445376
 20
757.10959964684878
 11
270.80489096445376
 21
732.10960715841475
  0
LINE
  8
_0-9_measure
  6
CONTINUOUS
 62
    3
 10
270.80489096445376
 20
732.10960715841475
 11
720.80500349065915
 21
732.10960715841475
  0
LINE
  8
_0-9_measure
  6
CONTINUOUS
 62
    3
 10
720.80500349065915
 20
757.10959964684878
 11
720.80500349065915
 21
732.10960715841475
  0
LINE
  8
_0-9_measure
  6
CONTINUOUS
 62
    3
 10
720.80500349065915
 20
732.10960715841475
 11
770.80498846752675
 21
732.10960715841475
  0
LINE
  8
_0-9_measure
  6
CONTINUOUS
 62
    3
 10
770.80498846752675
 20
757.10959964684878
 11
770.80498846752675
 21
732.10960715841475
  0
LINE
  8
_0-9_measure
  6
CONTINUOUS
 62
    3
 10
220.80490598758587
 20
707.10961466998083
 11
770.80498846752675
 21
707.10961466998083
  0
LINE
  8
_0-9_measure
  6
CONTINUOUS
 62
    3
 10
220.80490598758587
 20
732.10960715841475
 11
220.80490598758587
 21
707.10961466998083
  0
LINE
  8
_0-9_measure
  6
CONTINUOUS
 62
    3
 10
770.80498846752675
 20
732.10960715841475
 11
770.80498846752675
 21
707.10961466998083
  0
LINE
  8
_0-9_measure
  6
CONTINUOUS
 62
    3
 10
830.80501998664715
 20
1272.1095811625048
 11
830.80501998664715
 21
1107.1095564185225
  0
LINE
  8
_0-9_measure
  6
CONTINUOUS
 62
    3
 10
805.80490363101603
 20
1272.1095811625048
 11
830.80501998664715
 21
1272.1095811625048
  0
LINE
  8
_0-9_measure
  6
CONTINUOUS
 62
    3
 10
805.80490363101603
 20
1107.1095564185225
 11
830.80501998664715
 21
1107.1095564185225
  0
LINE
  8
_0-9_measure
  6
CONTINUOUS
 62
    3
 10
985.15642954527095
 20
782.10953020168415
 11
985.15642954527095
 21
792.10957674393649
  0
LINE
  8
_0-9_measure
  6
CONTINUOUS
 62
    3
 10
1010.1565459009021
 20
782.10953020168415
 11
985.15642954527095
 21
782.10953020168415
  0
LINE
  8
_0-9_measure
  6
CONTINUOUS
 62
    3
 10
1010.1565459009021
 20
792.10957674393649
 11
985.15642954527095
 21
792.10957674393649
  0
LINE
  8
_0-9_measure
  6
CONTINUOUS
 62
    3
 10
985.15642954527095
 20
792.10957674393649
 11
985.15642954527095
 21
1272.1095811625048
  0
LINE
  8
_0-9_measure
  6
CONTINUOUS
 62
    3
 10
1010.1565459009021
 20
1272.1095811625048
 11
985.15642954527095
 21
1272.1095811625048
  0
LINE
  8
_0-9_measure
  6
CONTINUOUS
 62
    3
 10
985.15642954527095
 20
1272.1095811625048
 11
985.15642954527095
 21
1282.1096277047573
  0
LINE
  8
_0-9_measure
  6
CONTINUOUS
 62
    3
 10
1010.1565459009021
 20
1282.1096277047573
 11
985.15642954527095
 21
1282.1096277047573
  0
LINE
  8
_0-9_measure
  6
CONTINUOUS
 62
    3
 10
1175.1563229104904
 20
732.10954522481632
 11
1035.1564145221391
 21
732.10954522481632
  0
LINE
  8
_0-9_measure
  6
CONTINUOUS
 62
    3
 10
1175.1563229104904
 20
757.10953771325023
 11
1175.1563229104904
 21
732.10954522481632
  0
LINE
  8
_0-9_measure
  6
CONTINUOUS
 62
    3
 10
1035.1564145221391
 20
757.10953771325023
 11
1035.1564145221391
 21
732.10954522481632
  0
LINE
  8
_0-e_free
  6
CENTER2
 62
    6
 10
99.624140828244094
 20
1245.109752779696
 11
99.624140828244094
 21
1195.5207591622295
  0
LINE
  8
_0-e_free
  6
CENTER2
 62
    6
 10
99.624140828244094
 20
1195.5207591622295
 11
103.31612649982873
 21
1209.5035076872525
  0
LINE
  8
_0-e_free
  6
CENTER2
 62
    6
 10
103.31612649982873
 20
1209.5035076872525
 11
94.82948936962174
 21
1219.8083914011406
  0
LINE
  8
_0-e_free
  6
CENTER2
 62
    6
 10
858.54904248858873
 20
1195.5207591622295
 11
854.85730455139787
 21
1209.5035076872525
  0
LINE
  8
_0-e_free
  6
CENTER2
 62
    6
 10
854.85730455139787
 20
1209.5035076872525
 11
863.34369394721136
 21
1219.8083914011406
  0
LINE
  8
_0-e_free
  6
CENTER2
 62
    6
 10
99.624140828244094
 20
1245.109752779696
 11
858.54904248858873
 21
1245.109752779696
  0
LINE
  8
_0-e_free
  6
CENTER2
 62
    6
 10
858.54904248858873
 20
1245.109752779696
 11
858.54904248858873
 21
1195.5207591622295
  0
LINE
  8
_0-0_containe
  6
CONTINUOUS
 62
    4
 10
290.80498404895849
 20
1152.1096419914611
 11
290.80498404895849
 21
922.10968632442939
  0
LINE
  8
_0-0_containe
  6
CONTINUOUS
 62
    4
 10
690.80486386390191
 20
1162.1096885337136
 11
300.80503059121099
 21
1162.1096885337136
  0
LINE
  8
_0-0_containe
  6
CONTINUOUS
 62
    4
 10
700.80491040615414
 20
1152.1096419914611
 11
700.80491040615414
 21
922.10968632442939
  0
LINE
  8
_0-e_free
  6
CENTER2
 62
    6
 10
614.80490651781395
 20
1317.288902569396
 11
614.80490651781395
 21
749.27258403092151
  0
LINE
  8
_0-e_free
  6
CENTER2
 62
    6
 10
614.80490651781395
 20
1317.288902569396
 11
565.21591290034735
 21
1317.288902569396
  0
LINE
  8
_0-e_free
  6
CENTER2
 62
    6
 10
565.21591290034735
 20
1317.288902569396
 11
579.19853755817371
 21
1313.5970407650079
  0
LINE
  8
_0-e_free
  6
CENTER2
 62
    6
 10
579.19853755817371
 20
1313.5970407650079
 11
589.50354513925845
 21
1322.0834301608213
  0
LINE
  8
_0-e_free
  6
CENTER2
 62
    6
 10
614.80490651781395
 20
749.27258403092151
 11
565.21591290034735
 21
749.27258403092151
  0
LINE
  8
_0-e_free
  6
CENTER2
 62
    6
 10
565.21591290034735
 20
749.27258403092151
 11
579.19853755817371
 21
752.96444583530933
  0
LINE
  8
_0-e_free
  6
CENTER2
 62
    6
 10
579.19853755817371
 20
752.96444583530933
 11
589.50354513925845
 21
744.47805643949607
  0
LINE
  8
_0-e_free
  6
CENTER2
 62
    6
 10
99.624140828244094
 20
936.21370083524323
 11
99.624140828244094
 21
985.80269445270983
  0
LINE
  8
_0-e_free
  6
CENTER2
 62
    6
 10
99.624140828244094
 20
985.80269445270983
 11
103.31612649982873
 21
971.81994592768672
  0
LINE
  8
_0-e_free
  6
CENTER2
 62
    6
 10
103.31612649982873
 20
971.81994592768672
 11
94.82948936962174
 21
961.51506221379896
  0
LINE
  8
_0-e_free
  6
CENTER2
 62
    6
 10
858.54929022298279
 20
985.80269445270983
 11
854.85730455139787
 21
971.81994592768672
  0
LINE
  8
_0-e_free
  6
CENTER2
 62
    6
 10
854.85730455139787
 20
971.81994592768672
 11
863.34369394721136
 21
961.51506221379896
  0
LINE
  8
_0-e_free
  6
CENTER2
 62
    6
 10
99.624140828244094
 20
936.21370083524323
 11
858.54929022298279
 21
936.21370083524323
  0
LINE
  8
_0-e_free
  6
CENTER2
 62
    6
 10
858.54929022298279
 20
936.21370083524323
 11
858.54929022298279
 21
985.80269445270983
  0
LINE
  8
_0-a_hatch
  6
CONTINUOUS
 62
    3
 10
1165.1565241026315
 20
1142.5757077112426
 11
1175.1563229104904
 21
1152.5756303862979
  0
LINE
  8
_0-a_hatch
  6
CONTINUOUS
 62
    3
 10
1165.1565241026315
 20
1153.1823319168429
 11
1175.1563229104904
 21
1163.1822545918981
  0
LINE
  8
_0-a_hatch
  6
CONTINUOUS
 62
    3
 10
1164.4418103763674
 20
1163.0742423961785
 11
1175.1563229104904
 21
1173.7888787974985
  0
LINE
  8
_0-a_hatch
  6
CONTINUOUS
 62
    3
 10
1159.2473156060669
 20
1168.4863718314784
 11
1169.2238273809028
 21
1178.4627597391179
  0
LINE
  8
_0-a_hatch
  6
CONTINUOUS
 62
    3
 10
1149.8916262222247
 20
1169.73718278604
 11
1159.2839802963567
 21
1179.129536860172
  0
LINE
  8
_0-a_hatch
  6
CONTINUOUS
 62
    3
 10
1139.9517791376786
 20
1170.4039599070941
 11
1149.3441332118107
 21
1179.7963139812261
  0
LINE
  8
_0-a_hatch
  6
CONTINUOUS
 62
    3
 10
1130.0119320531326
 20
1171.0707370281484
 11
1139.4042861272646
 21
1180.4630911022805
  0
LINE
  8
_0-a_hatch
  6
CONTINUOUS
 62
    3
 10
1120.0720849685865
 20
1171.7375141492025
 11
1129.4644390427186
 21
1181.1298682233346
  0
LINE
  8
_0-a_hatch
  6
CONTINUOUS
 62
    3
 10
1110.13223788404
 20
1172.4042912702566
 11
1119.5245919581721
 21
1181.7966453443887
  0
LINE
  8
_0-a_hatch
  6
CONTINUOUS
 62
    3
 10
1100.1923907994938
 20
1173.0710683913107
 11
1109.5847448736258
 21
1182.4634224654428
  0
LINE
  8
_0-a_hatch
  6
CONTINUOUS
 62
    3
 10
1090.2525437149479
 20
1173.7378455123649
 11
1099.64489778908
 21
1183.1301995864969
  0
LINE
  8
_0-a_hatch
  6
CONTINUOUS
 62
    3
 10
1080.3126966304017
 20
1174.4046226334192
 11
1089.7050507045337
 21
1183.796976707551
  0
LINE
  8
_0-a_hatch
  6
CONTINUOUS
 62
    3
 10
1172.8063144504051
 20
1266.8982404534224
 11
1175.1563229104904
 21
1269.2482489135077
  0
LINE
  8
_0-a_hatch
  6
CONTINUOUS
 62
    3
 10
1070.3728495458552
 20
1175.0713997544733
 11
1079.7654513543812
 21
1184.4637538286051
  0
LINE
  8
_0-a_hatch
  6
CONTINUOUS
 62
    3
 10
1161.3158977947353
 20
1266.0143241361563
 11
1175.1563229104904
 21
1279.8548731191081
  0
LINE
  8
_0-a_hatch
  6
CONTINUOUS
 62
    3
 10
1060.4330024613091
 20
1175.7381768755274
 11
1069.8253565354412
 21
1185.1305309496595
  0
LINE
  8
_0-a_hatch
  6
CONTINUOUS
 62
    3
 10
1149.8252334046724
 20
1265.1304078188905
 11
1166.1085673782072
 21
1281.4136179252284
  0
LINE
  8
_0-a_hatch
  6
CONTINUOUS
 62
    3
 10
1050.4931553767631
 20
1176.4049539965818
 11
1059.8857571852886
 21
1185.7973080707136
  0
LINE
  8
_0-a_hatch
  6
CONTINUOUS
 62
    3
 10
1138.3348167490033
 20
1264.2464915016244
 11
1154.6181507225378
 21
1280.5297016079624
  0
LINE
  8
_0-a_hatch
  6
CONTINUOUS
 62
    3
 10
1040.553308292217
 20
1177.0717311176356
 11
1050.1924058226264
 21
1186.7107047808481
  0
LINE
  8
_0-a_hatch
  6
CONTINUOUS
 62
    3
 10
1126.8444000933334
 20
1263.3626990515559
 11
1143.1274863324745
 21
1279.6459091578936
  0
LINE
  8
_0-a_hatch
  6
CONTINUOUS
 62
    3
 10
1035.1564145221391
 20
1182.2813376859613
 11
1047.1564208259629
 21
1194.2813439897852
  0
LINE
  8
_0-a_hatch
  6
CONTINUOUS
 62
    3
 10
1115.3537357032706
 20
1262.4787827342898
 11
1131.6370696768054
 21
1278.7619928406275
  0
LINE
  8
_0-a_hatch
  6
CONTINUOUS
 62
    3
 10
1041.1562938068539
 20
1198.8878411762767
 11
1047.1564208259629
 21
1204.8878443281885
  0
LINE
  8
_0-a_hatch
  6
CONTINUOUS
 62
    3
 10
1103.8633190476014
 20
1261.5948664170239
 11
1120.146653021136
 21
1277.8780765233616
  0
LINE
  8
_0-a_hatch
  6
CONTINUOUS
 62
    3
 10
1041.1562938068539
 20
1209.494465381877
 11
1047.1564208259629
 21
1215.4944685337889
  0
LINE
  8
_0-a_hatch
  6
CONTINUOUS
 62
    3
 10
1092.3729023919316
 20
1260.7109500997578
 11
1108.6559886310727
 21
1276.9941602060956
  0
LINE
  8
_0-a_hatch
  6
CONTINUOUS
 62
    3
 10
1041.1562938068539
 20
1220.1010895874774
 11
1047.1564208259629
 21
1226.1010927393893
  0
LINE
  8
_0-a_hatch
  6
CONTINUOUS
 62
    3
 10
1080.8824857362624
 20
1259.827033782492
 11
1097.1655719754035
 21
1276.1103677560268
  0
LINE
  8
_0-a_hatch
  6
CONTINUOUS
 62
    3
 10
1041.1562938068539
 20
1230.7077137930776
 11
1047.1564208259629
 21
1236.7077169449897
  0
LINE
  8
_0-a_hatch
  6
CONTINUOUS
 62
    3
 10
1069.3918213461989
 20
1258.943241332423
 11
1085.6751553197341
 21
1275.2264514387607
  0
LINE
  8
_0-a_hatch
  6
CONTINUOUS
 62
    3
 10
1041.1562938068539
 20
1241.3143379986782
 11
1047.1564208259629
 21
1247.3143411505898
  0
LINE
  8
_0-a_hatch
  6
CONTINUOUS
 62
    3
 10
1057.9014046905297
 20
1258.0593250151571
 11
1074.1847386640648
 21
1274.3425351214951
  0
LINE
  8
_0-a_hatch
  6
CONTINUOUS
 62
    3
 10
1041.1562938068539
 20
1251.9209622042783
 11
1062.6940742740017
 21
1273.458618804229
  0
LINE
  8
_0-a_hatch
  6
CONTINUOUS
 62
    3
 10
1037.8430940234698
 20
1259.2141388921007
 11
1051.2036576183323
 21
1272.5748263541598
  0
LINE
  8
_0-a_hatch
  6
CONTINUOUS
 62
    3
 10
1166.0176488556631
 20
782.81247654424078
 11
1175.1563229104904
 21
791.95115059906789
  0
LINE
  8
_0-a_hatch
  6
CONTINUOUS
 62
    3
 10
1156.168720293661
 20
783.57011025424049
 11
1170.0998161975656
 21
797.50126809174367
  0
LINE
  8
_0-a_hatch
  6
CONTINUOUS
 62
    3
 10
1146.3197917316586
 20
784.32774396424009
 11
1160.2003498192175
 21
798.20836398539723
  0
LINE
  8
_0-a_hatch
  6
CONTINUOUS
 62
    3
 10
1136.4706154352625
 20
785.08537767423957
 11
1150.3008834408695
 21
798.9154598790509
  0
LINE
  8
_0-a_hatch
  6
CONTINUOUS
 62
    3
 10
1126.6216868732602
 20
785.84294945064073
 11
1140.401417062521
 21
799.62255577270469
  0
LINE
  8
_0-a_hatch
  6
CONTINUOUS
 62
    3
 10
1116.7727583112578
 20
786.60058316064021
 11
1130.5019506841727
 21
800.32971359995668
  0
LINE
  8
_0-a_hatch
  6
CONTINUOUS
 62
    3
 10
1106.9238297492557
 20
787.35821687063992
 11
1120.6024843058249
 21
801.03680949361035
  0
LINE
  8
_0-a_hatch
  6
CONTINUOUS
 62
    3
 10
1097.0746534528594
 20
788.11578864704097
 11
1110.7027701930826
 21
801.74390538726414
  0
LINE
  8
_0-a_hatch
  6
CONTINUOUS
 62
    3
 10
1162.6281468789728
 20
853.66915820595727
 11
1175.1563229104904
 21
866.1974581046718
  0
LINE
  8
_0-a_hatch
  6
CONTINUOUS
 62
    3
 10
1087.2257248908572
 20
788.87342235704057
 11
1100.8033038147346
 21
802.45100128091781
  0
LINE
  8
_0-a_hatch
  6
CONTINUOUS
 62
    3
 10
1147.9568206062363
 20
849.60451807241975
 11
1175.1563229104904
 21
876.80402037667363
  0
LINE
  8
_0-a_hatch
  6
CONTINUOUS
 62
    3
 10
1077.3767963288549
 20
789.63105606704016
 11
1090.9038374363859
 21
803.15809717457137
  0
LINE
  8
_0-a_hatch
  6
CONTINUOUS
 62
    3
 10
1133.2854943335001
 20
845.53981600528391
 11
1152.7024206548758
 21
864.95661845946279
  0
LINE
  8
_0-a_hatch
  6
CONTINUOUS
 62
    3
 10
1165.1565241026315
 20
877.41072190721854
 11
1175.1563229104904
 21
887.41064458227402
  0
LINE
  8
_0-a_hatch
  6
CONTINUOUS
 62
    3
 10
1067.5278677668525
 20
790.38868977703987
 11
1081.004371058038
 21
803.86525500182358
  0
LINE
  8
_0-a_hatch
  6
CONTINUOUS
 62
    3
 10
1118.6144157951576
 20
841.4751758717465
 11
1137.7405019381508
 21
860.60144781553481
  0
LINE
  8
_0-a_hatch
  6
CONTINUOUS
 62
    3
 10
1165.1565241026315
 20
888.01734611281881
 11
1175.1563229104904
 21
898.0172687878744
  0
LINE
  8
_0-a_hatch
  6
CONTINUOUS
 62
    3
 10
1057.6789392048504
 20
791.14626155344081
 11
1071.1049046796898
 21
804.57235089547726
  0
LINE
  8
_0-a_hatch
  6
CONTINUOUS
 62
    3
 10
1103.9430895224218
 20
837.41053573820921
 11
1122.7788309558196
 21
856.2462152380084
  0
LINE
  8
_0-a_hatch
  6
CONTINUOUS
 62
    3
 10
1165.1565241026315
 20
898.62390838482088
 11
1175.1563229104904
 21
908.62383105987624
  0
LINE
  8
_0-a_hatch
  6
CONTINUOUS
 62
    3
 10
1047.8297629084541
 20
791.90389526344052
 11
1061.2054383013412
 21
805.27944678913082
  0
LINE
  8
_0-a_hatch
  6
CONTINUOUS
 62
    3
 10
1089.2717632496856
 20
833.34583367107325
 11
1107.8169122390943
 21
851.89104459408043
  0
LINE
  8
_0-a_hatch
  6
CONTINUOUS
 62
    3
 10
1165.1565241026315
 20
909.23059452401958
 11
1175.1563229104904
 21
919.23051719907505
  0
LINE
  8
_0-a_hatch
  6
CONTINUOUS
 62
    3
 10
1039.3307390585546
 20
794.01130981834569
 11
1051.3272770808646
 21
806.00784784065581
  0
LINE
  8
_0-a_hatch
  6
CONTINUOUS
 62
    3
 10
1074.6006847113431
 20
829.28119353753584
 11
1092.8552412567626
 21
847.53587395015245
  0
LINE
  8
_0-a_hatch
  6
CONTINUOUS
 62
    3
 10
1165.1565241026315
 20
919.8370948624231
 11
1175.1563229104904
 21
929.83701753747835
  0
LINE
  8
_0-a_hatch
  6
CONTINUOUS
 62
    3
 10
1035.2805294534592
 20
800.56791021964602
 11
1047.1564208259629
 21
812.44367772495298
  0
LINE
  8
_0-a_hatch
  6
CONTINUOUS
 62
    3
 10
1059.9293584386073
 20
825.21655340399866
 11
1077.8933225400374
 21
843.18064137262593
  0
LINE
  8
_0-a_hatch
  6
CONTINUOUS
 62
    3
 10
1165.1565241026315
 20
930.4437810016218
 11
1175.1563229104904
 21
940.44370367667727
  0
LINE
  8
_0-a_hatch
  6
CONTINUOUS
 62
    3
 10
1035.1564145221391
 20
811.05029562672928
 11
1062.9316515577061
 21
838.82547072869795
  0
LINE
  8
_0-a_hatch
  6
CONTINUOUS
 62
    3
 10
1165.1565241026315
 20
941.05034327362375
 11
1175.1563229104904
 21
951.05026594867911
  0
LINE
  8
_0-a_hatch
  6
CONTINUOUS
 62
    3
 10
1035.1564145221391
 20
821.65691983232955
 11
1047.9697328409811
 21
834.47023815117166
  0
LINE
  8
_0-a_hatch
  6
CONTINUOUS
 62
    3
 10
1165.1565241026315
 20
951.65696747922402
 11
1175.1563229104904
 21
961.65689015427938
  0
LINE
  8
_0-a_hatch
  6
CONTINUOUS
 62
    3
 10
1165.1565241026315
 20
962.26359168482429
 11
1175.1563229104904
 21
972.26351435987976
  0
LINE
  8
_0-a_hatch
  6
CONTINUOUS
 62
    3
 10
1165.1565241026315
 20
972.87015395682624
 11
1175.1563229104904
 21
982.8700766318816
  0
LINE
  8
_0-a_hatch
  6
CONTINUOUS
 62
    3
 10
1165.1565241026315
 20
983.47684009602506
 11
1175.1563229104904
 21
993.47676277108053
  0
LINE
  8
_0-a_hatch
  6
CONTINUOUS
 62
    3
 10
1165.1565241026315
 20
994.08334043442846
 11
1175.1563229104904
 21
1004.0832631094838
  0
LINE
  8
_0-a_hatch
  6
CONTINUOUS
 62
    3
 10
1165.1565241026315
 20
1004.6899646400288
 11
1175.1563229104904
 21
1014.6898873150842
  0
LINE
  8
_0-a_hatch
  6
CONTINUOUS
 62
    3
 10
1165.1565241026315
 20
1015.2965888456292
 11
1175.1563229104904
 21
1025.2965115206846
  0
LINE
  8
_0-a_hatch
  6
CONTINUOUS
 62
    3
 10
1165.1565241026315
 20
1025.9030891840325
 11
1175.1563229104904
 21
1035.9030118590881
  0
LINE
  8
_0-a_hatch
  6
CONTINUOUS
 62
    3
 10
1165.1565241026315
 20
1036.5098372568298
 11
1175.1563229104904
 21
1046.5097599318851
  0
LINE
  8
_0-a_hatch
  6
CONTINUOUS
 62
    3
 10
1165.1565241026315
 20
1047.1163375952333
 11
1175.1563229104904
 21
1057.1162602702886
  0
LINE
  8
_0-a_hatch
  6
CONTINUOUS
 62
    3
 10
1165.1565241026315
 20
1057.7230856680305
 11
1175.1563229104904
 21
1067.7230083430859
  0
LINE
  8
_0-a_hatch
  6
CONTINUOUS
 62
    3
 10
1165.1565241026315
 20
1068.3295860064341
 11
1175.1563229104904
 21
1078.3295086814894
  0
LINE
  8
_0-4_free
  6
CONTINUOUS
 62
    4
 10
454.34981696345091
 20
1255.0108294316044
 11
410.51990479987467
 21
1328.4431436526072
  0
LINE
  8
_0-2_free
  6
CONTINUOUS
 62
    4
 10
1906.3032624569355
 20
782.1095921352827
 11
1456.3033976651241
 21
782.1095921352827
  0
LINE
  8
_0-2_free
  6
CONTINUOUS
 62
    4
 10
1632.3033249649479
 20
1282.1096277047573
 11
1401.3031416827362
 21
1282.1096277047573
  0
LINE
  8
_0-2_free
  6
CONTINUOUS
 62
    4
 10
1961.3032707049297
 20
1282.1096277047573
 11
1730.3030874227181
 21
1282.1096277047573
  0
LINE
  8
_0-2_free
  6
CONTINUOUS
 62
    4
 10
1966.3032939760558
 20
1277.1096044336309
 11
1966.3032939760558
 21
842.10956172080444
  0
LINE
  8
ADD_LINE
  6
DOT
 62
    4
 10
1966.3032939760558
 20
842.10956172080444
 11
1966.3032939760558
 21
745.54455300503139
  0
LINE
  8
_0-2_free
  6
CONTINUOUS
 62
    4
 10
1396.3033661460036
 20
1277.1096044336309
 11
1396.3033661460036
 21
842.10956172080444
  0
LINE
  8
_0-2_free
  6
CONTINUOUS
 62
    4
 10
1637.3031005016799
 20
1277.1096044336309
 11
1637.3031005016799
 21
1267.1095578913787
  0
LINE
  8
_0-0_containe
  6
CONTINUOUS
 62
    4
 10
1720.3032886148594
 20
1194.1095401876485
 11
1642.303123772806
 21
1194.1095401876485
  0
LINE
  8
_0-0_containe
  6
CONTINUOUS
 62
    4
 10
1416.3034592305087
 20
1252.1096119451972
 11
1416.3034592305087
 21
842.10956172080444
  0
LINE
  8
_0-0_containe
  6
CONTINUOUS
 62
    4
 10
1607.3029608749232
 20
1257.1096352163231
 11
1421.3034825016348
 21
1257.1096352163231
  0
LINE
  8
_0-0_containe
  6
CONTINUOUS
 62
    4
 10
1617.3030074171754
 20
1267.1096817585753
 11
1416.3034592305087
 21
1267.1096817585753
  0
LINE
  8
_0-0_containe
  6
CONTINUOUS
 62
    4
 10
1622.3030306883015
 20
1187.1096810221475
 11
1622.3030306883015
 21
1262.1096584874495
  0
LINE
  8
_0-0_containe
  6
CONTINUOUS
 62
    4
 10
1612.3029841460493
 20
1192.1097042932738
 11
1612.3029841460493
 21
1252.1096119451972
  0
LINE
  8
_0-0_containe
  6
CONTINUOUS
 62
    4
 10
1451.303374393998
 20
1187.1096810221475
 11
1607.3029608749232
 21
1187.1096810221475
  0
LINE
  8
_0-0_containe
  6
CONTINUOUS
 62
    4
 10
1461.3034209362502
 20
1182.1096577510214
 11
1617.3030074171754
 21
1182.1096577510214
  0
LINE
  8
_0-0_containe
  6
CONTINUOUS
 62
    4
 10
1456.3033976651241
 20
857.10963153418311
 11
1456.3033976651241
 21
1177.1096344798952
  0
LINE
  8
_0-0_containe
  6
CONTINUOUS
 62
    4
 10
1901.3032391858092
 20
852.10960826305677
 11
1461.3034209362502
 21
852.10960826305677
  0
LINE
  8
_0-0_containe
  6
CONTINUOUS
 62
    4
 10
1906.3032624569355
 20
1177.1096344798952
 11
1906.3032624569355
 21
857.10963153418311
  0
LINE
  8
_0-0_containe
  6
CONTINUOUS
 62
    4
 10
1745.3034049704906
 20
1182.1096577510214
 11
1901.3032391858092
 21
1182.1096577510214
  0
LINE
  8
_0-0_containe
  6
CONTINUOUS
 62
    4
 10
1740.3033816993643
 20
1262.1096584874495
 11
1740.3033816993643
 21
1187.1096810221475
  0
LINE
  8
_0-0_containe
  6
CONTINUOUS
 62
    4
 10
1946.3032008915507
 20
1267.1096817585753
 11
1745.3034049704906
 21
1267.1096817585753
  0
LINE
  8
_0-0_containe
  6
CONTINUOUS
 62
    4
 10
1951.303224162677
 20
1262.1096584874495
 11
1951.303224162677
 21
842.10956172080444
  0
LINE
  8
_0-0_containe
  6
CONTINUOUS
 62
    4
 10
1755.3034515127429
 20
1187.1096810221475
 11
1911.3032857280614
 21
1187.1096810221475
  0
LINE
  8
_0-0_containe
  6
CONTINUOUS
 62
    4
 10
1750.3034282416165
 20
1252.1096119451972
 11
1750.3034282416165
 21
1192.1097042932738
  0
LINE
  8
_0-0_containe
  6
CONTINUOUS
 62
    4
 10
1941.3031776204248
 20
1257.1096352163231
 11
1755.3034515127429
 21
1257.1096352163231
  0
LINE
  8
_0-0_containe
  6
CONTINUOUS
 62
    4
 10
1946.3032008915507
 20
1252.1096119451972
 11
1946.3032008915507
 21
842.10956172080444
  0
LINE
  8
_0-0_containe
  6
CONTINUOUS
 62
    4
 10
1916.3033089991877
 20
837.10953844967833
 11
1916.3033089991877
 21
1182.1096577510214
  0
LINE
  8
_0-0_containe
  6
CONTINUOUS
 62
    4
 10
1446.3033511228718
 20
837.10953844967833
 11
1446.3033511228718
 21
1182.1096577510214
  0
LINE
  8
_0-0_containe
  6
CONTINUOUS
 62
    4
 10
1466.3034442073763
 20
817.10956923237052
 11
1896.3032159146833
 21
817.10956923237052
  0
LINE
  8
_0-0_containe
  6
CONTINUOUS
 62
    4
 10
1906.3032624569355
 20
802.10962328618893
 11
1456.3033976651241
 21
802.10962328618893
  0
LINE
  8
_0-0_containe
  6
CONTINUOUS
 62
    4
 10
1411.3034359593826
 20
1262.1096584874495
 11
1411.3034359593826
 21
842.10956172080444
  0
LINE
  8
_0-0_containe
  6
CONTINUOUS
 62
    4
 10
1906.3032624569355
 20
797.10960001506282
 11
1456.3033976651241
 21
797.10960001506282
  0
LINE
  8
_0-9_measure
  6
CONTINUOUS
 62
    3
 10
1346.303133434742
 20
782.1095921352827
 11
1346.303133434742
 21
852.10960826305677
  0
LINE
  8
_0-9_measure
  6
CONTINUOUS
 62
    3
 10
1371.3032497903732
 20
782.1095921352827
 11
1346.303133434742
 21
782.1095921352827
  0
LINE
  8
_0-9_measure
  6
CONTINUOUS
 62
    3
 10
1371.3032497903732
 20
852.10960826305677
 11
1346.303133434742
 21
852.10960826305677
  0
LINE
  8
_0-9_measure
  6
CONTINUOUS
 62
    3
 10
1346.303133434742
 20
852.10960826305677
 11
1346.303133434742
 21
1182.1096577510214
  0
LINE
  8
_0-9_measure
  6
CONTINUOUS
 62
    3
 10
1371.3032497903732
 20
1182.1096577510214
 11
1346.303133434742
 21
1182.1096577510214
  0
LINE
  8
_0-9_measure
  6
CONTINUOUS
 62
    3
 10
1346.303133434742
 20
1182.1096577510214
 11
1346.303133434742
 21
1282.1096277047573
  0
LINE
  8
_0-9_measure
  6
CONTINUOUS
 62
    3
 10
1371.3032497903732
 20
1282.1096277047573
 11
1346.303133434742
 21
1282.1096277047573
  0
LINE
  8
_0-9_measure
  6
CONTINUOUS
 62
    3
 10
1321.3032648135049
 20
1282.1096277047573
 11
1321.3032648135049
 21
782.1095921352827
  0
LINE
  8
_0-9_measure
  6
CONTINUOUS
 62
    3
 10
1346.303133434742
 20
1282.1096277047573
 11
1321.3032648135049
 21
1282.1096277047573
  0
LINE
  8
_0-9_measure
  6
CONTINUOUS
 62
    3
 10
1346.303133434742
 20
782.1095921352827
 11
1321.3032648135049
 21
782.1095921352827
  0
LINE
  8
_0-9_measure
  6
CONTINUOUS
 62
    3
 10
1396.3033661460036
 20
732.10954522481632
 11
1456.3033976651241
 21
732.10954522481632
  0
LINE
  8
_0-9_measure
  6
CONTINUOUS
 62
    3
 10
1396.3033661460036
 20
757.10953771325023
 11
1396.3033661460036
 21
732.10954522481632
  0
LINE
  8
_0-9_measure
  6
CONTINUOUS
 62
    3
 10
1456.3033976651241
 20
757.10953771325023
 11
1456.3033976651241
 21
732.10954522481632
  0
LINE
  8
_0-9_measure
  6
CONTINUOUS
 62
    3
 10
1456.3033976651241
 20
732.10954522481632
 11
1906.3032624569355
 21
732.10954522481632
  0
LINE
  8
_0-9_measure
  6
CONTINUOUS
 62
    3
 10
1906.3032624569355
 20
757.10953771325023
 11
1906.3032624569355
 21
732.10954522481632
  0
LINE
  8
_0-9_measure
  6
CONTINUOUS
 62
    3
 10
1906.3032624569355
 20
732.10954522481632
 11
1966.3032939760558
 21
732.10954522481632
  0
LINE
  8
_0-9_measure
  6
CONTINUOUS
 62
    3
 10
1966.3032939760558
 20
757.10953771325023
 11
1966.3032939760558
 21
732.10954522481632
  0
LINE
  8
_0-9_measure
  6
CONTINUOUS
 62
    3
 10
1396.3033661460036
 20
707.10955273638228
 11
1966.3032939760558
 21
707.10955273638228
  0
LINE
  8
_0-9_measure
  6
CONTINUOUS
 62
    3
 10
1396.3033661460036
 20
732.10954522481632
 11
1396.3033661460036
 21
707.10955273638228
  0
LINE
  8
_0-9_measure
  6
CONTINUOUS
 62
    3
 10
1966.3032939760558
 20
732.10954522481632
 11
1966.3032939760558
 21
707.10955273638228
  0
LINE
  8
_0-7_word
  6
CENTER2
 62
    3
 10
1644.0531195309809
 20
1107.1095564185225
 11
1718.5532928566852
 21
1107.1095564185225
  0
LINE
  8
_0-7_word
  6
CENTER2
 62
    3
 10
1681.3032061938327
 20
1144.3595192141779
 11
1681.3032061938327
 21
1069.8595936228674
  0
ARC
  8
_0-0_containe
  6
CONTINUOUS
 62
    4
 10
270.80489096445376
 20
842.10956172080444
 40
50.000000460267529
 50
180
 51
270
  0
ARC
  8
_0-0_containe
  6
CONTINUOUS
 62
    4
 10
720.80500349065915
 20
842.10956172080444
 40
50.000000460267529
 50
270
 51
0
  0
ARC
  8
_0-0_containe
  6
CONTINUOUS
 62
    4
 10
320.80487594132165
 20
877.10960075149069
 40
50.000000460267529
 50
180
 51
270
  0
ARC
  8
_0-0_containe
  6
CONTINUOUS
 62
    4
 10
670.80501851379097
 20
877.10960075149069
 40
50.000000460267529
 50
270
 51
0
  0
ARC
  8
_0-2_free
  6
CONTINUOUS
 62
    3
 10
270.80489096445376
 20
842.10956172080444
 40
60.000000552321033
 50
180
 51
270
  0
ARC
  8
_0-2_free
  6
CONTINUOUS
 62
    3
 10
720.80500349065915
 20
842.10956172080444
 40
60.000000552321033
 50
270
 51
0
  0
ARC
  8
_0-0_containe
  6
CONTINUOUS
 62
    4
 10
320.80487594132165
 20
922.10968632442939
 40
30.000000276160517
 50
180
 51
270
  0
ARC
  8
_0-0_containe
  6
CONTINUOUS
 62
    4
 10
670.80501851379097
 20
922.10968632442939
 40
30.000000276160517
 50
270
 51
0
  0
ARC
  8
_0-0_containe
  6
CONTINUOUS
 62
    4
 10
495.80494722755645
 20
3952.0948037028115
 40
3064.9850325418715
 50
266.72683715820313
 51
273.27316284179687
  0
ARC
  8
_0-0_containe
  6
CONTINUOUS
 62
    4
 10
495.80494722755645
 20
3887.094501178171
 40
3064.9850325418715
 50
266.72683715820313
 51
273.27316284179687
  0
ARC
  8
_0-0_containe
  6
CONTINUOUS
 62
    4
 10
225.80492925871198
 20
1267.1095578913787
 40
5.0000000460267522
 50
90
 51
180
  0
ARC
  8
_0-0_containe
  6
CONTINUOUS
 62
    4
 10
765.80496519640064
 20
1267.1095578913787
 40
5.0000000460267522
 50
0
 51
90
  0
ARC
  8
_0-0_containe
  6
CONTINUOUS
 62
    4
 10
434.8050596948471
 20
1255.1096754547516
 40
5.0000000460267522
 50
0
 51
90
  0
ARC
  8
_0-0_containe
  6
CONTINUOUS
 62
    4
 10
556.80483476026552
 20
1255.1096754547516
 40
5.0000000460267522
 50
90
 51
180
  0
ARC
  8
_0-0_containe
  6
CONTINUOUS
 62
    4
 10
280.80493750670627
 20
1172.1096112087689
 40
10.000000092053504
 50
90
 51
180
  0
ARC
  8
_0-0_containe
  6
CONTINUOUS
 62
    4
 10
710.80495694840636
 20
1172.1096112087689
 40
10.000000092053504
 50
0
 51
90
  0
ARC
  8
_0-0_containe
  6
CONTINUOUS
 62
    4
 10
710.80495694840636
 20
1250.1096521836255
 40
10.000000092053504
 50
0
 51
90
  0
ARC
  8
_0-0_containe
  6
CONTINUOUS
 62
    4
 10
280.80493750670627
 20
1250.1096521836255
 40
10.000000092053504
 50
90
 51
180
  0
ARC
  8
_0-0_containe
  6
CONTINUOUS
 62
    4
 10
444.80510623709961
 20
1187.1096810221475
 40
5.0000000460267522
 50
180
 51
270
  0
ARC
  8
_0-0_containe
  6
CONTINUOUS
 62
    4
 10
546.8047882180133
 20
1187.1096810221475
 40
5.0000000460267522
 50
270
 51
0
  0
ARC
  8
_0-0_containe
  6
CONTINUOUS
 62
    4
 10
701.30483841294847
 20
1189.1096407837192
 40
5.0000000460267522
 50
0
 51
90
  0
ARC
  8
_0-0_containe
  6
CONTINUOUS
 62
    4
 10
701.30483841294847
 20
1187.1096810221475
 40
5.0000000460267522
 50
270
 51
0
  0
ARC
  8
_0-0_containe
  6
CONTINUOUS
 62
    4
 10
571.30497656684952
 20
1187.1096810221475
 40
5.0000000460267522
 50
180
 51
270
  0
ARC
  8
_0-0_containe
  6
CONTINUOUS
 62
    4
 10
571.30497656684952
 20
1189.1096407837192
 40
5.0000000460267522
 50
90
 51
180
  0
ARC
  8
_0-0_containe
  6
CONTINUOUS
 62
    4
 10
290.30505604216415
 20
1189.1096407837192
 40
5.0000000460267522
 50
90
 51
180
  0
ARC
  8
_0-0_containe
  6
CONTINUOUS
 62
    4
 10
290.30505604216415
 20
1187.1096810221475
 40
5.0000000460267522
 50
180
 51
270
  0
ARC
  8
_0-0_containe
  6
CONTINUOUS
 62
    4
 10
420.30491788826311
 20
1187.1096810221475
 40
5.0000000460267522
 50
270
 51
0
  0
ARC
  8
_0-0_containe
  6
CONTINUOUS
 62
    4
 10
420.30491788826311
 20
1189.1096407837192
 40
5.0000000460267522
 50
0
 51
90
  0
ARC
  8
_0-2_free
  6
CONTINUOUS
 62
    3
 10
215.80488271645976
 20
1277.1096044336309
 40
5.0000000460267522
 50
90
 51
180
  0
ARC
  8
_0-2_free
  6
CONTINUOUS
 62
    3
 10
446.80481826427723
 20
1277.1096044336309
 40
5.0000000460267522
 50
0
 51
90
  0
ARC
  8
_0-2_free
  6
CONTINUOUS
 62
    3
 10
544.80482845644133
 20
1277.1096044336309
 40
5.0000000460267522
 50
90
 51
180
  0
ARC
  8
_0-2_free
  6
CONTINUOUS
 62
    3
 10
775.80501173865287
 20
1277.1096044336309
 40
5.0000000460267522
 50
0
 51
90
  0
ARC
  8
_0-0_containe
  6
CONTINUOUS
 62
    4
 10
1052.1564440970888
 20
810.93862934870015
 40
5.0000000460267522
 50
180
 51
265.914306640625
  0
ARC
  8
_0-0_containe
  6
CONTINUOUS
 62
    4
 10
1052.1564440970888
 20
817.91049452769585
 40
5.0000000460267522
 50
98.74627685546875
 51
180
  0
ARC
  8
_0-0_containe
  6
CONTINUOUS
 62
    4
 10
1155.1564775603792
 20
875.8434302645104
 40
10.000000092053504
 50
273.8377685546875
 51
0
  0
ARC
  8
_0-0_containe
  6
CONTINUOUS
 62
    4
 10
1040.1564377932652
 20
827.10961577462285
 40
5.0000000460267522
 50
93.838119506835938
 51
180
  0
ARC
  8
_0-0_containe
  6
CONTINUOUS
 62
    4
 10
1045.1564610643914
 20
802.13910367905737
 40
10.000000092053504
 50
180
 51
265.60116577148437
  0
ARC
  8
_0-0_containe
  6
CONTINUOUS
 62
    4
 10
1045.1564610643914
 20
1262.0800542273842
 40
10.000000092053504
 50
94.398666381835938
 51
180
  0
ARC
  8
_0-0_containe
  6
CONTINUOUS
 62
    4
 10
1052.1564440970888
 20
1252.6027272561605
 40
5.0000000460267522
 50
94.398468017578125
 51
180
  0
ARC
  8
_0-0_containe
  6
CONTINUOUS
 62
    4
 10
1052.1564440970888
 20
1191.3087789979484
 40
5.0000000460267522
 50
180
 51
261.25372314453125
  0
ARC
  8
_0-0_containe
  6
CONTINUOUS
 62
    4
 10
1155.1564775603792
 20
1159.3614470355103
 40
10.000000092053504
 50
0
 51
86.1622314453125
  0
ARC
  8
_0-0_containe
  6
CONTINUOUS
 62
    4
 10
1040.1564377932652
 20
1182.1096577510214
 40
5.0000000460267522
 50
180
 51
266.16188049316406
  0
ARC
  8
_0-0_containe
  6
CONTINUOUS
 62
    4
 10
300.80503059121099
 20
1152.1096419914611
 40
10.000000092053504
 50
90
 51
180
  0
ARC
  8
_0-0_containe
  6
CONTINUOUS
 62
    4
 10
690.80486386390191
 20
1152.1096419914611
 40
10.000000092053504
 50
0
 51
90
  0
ARC
  8
_0-2_free
  6
CONTINUOUS
 62
    4
 10
1456.3031499307306
 20
842.10956172080444
 40
60.000000552321033
 50
180
 51
270
  0
ARC
  8
_0-2_free
  6
CONTINUOUS
 62
    4
 10
1906.3032624569355
 20
842.10956172080444
 40
60.000000552321033
 50
270
 51
0
  0
ARC
  8
_0-2_free
  6
CONTINUOUS
 62
    4
 10
1401.3031416827362
 20
1277.1096044336309
 40
5.0000000460267522
 50
90
 51
180
  0
ARC
  8
_0-2_free
  6
CONTINUOUS
 62
    4
 10
1632.3033249649479
 20
1277.1096044336309
 40
5.0000000460267522
 50
0
 51
90
  0
ARC
  8
_0-2_free
  6
CONTINUOUS
 62
    4
 10
1730.3030874227181
 20
1277.1096044336309
 40
5.0000000460267522
 50
90
 51
180
  0
ARC
  8
_0-2_free
  6
CONTINUOUS
 62
    4
 10
1961.3032707049297
 20
1277.1096044336309
 40
5.0000000460267522
 50
0
 51
90
  0
ARC
  8
_0-0_containe
  6
CONTINUOUS
 62
    4
 10
1906.3032624569355
 20
842.10956172080444
 40
45.000000414240773
 50
270
 51
0
  0
ARC
  8
_0-0_containe
  6
CONTINUOUS
 62
    4
 10
1456.3031499307306
 20
842.10956172080444
 40
45.000000414240773
 50
180
 51
270
  0
ARC
  8
_0-0_containe
  6
CONTINUOUS
 62
    4
 10
1456.3031499307306
 20
842.10956172080444
 40
40.000000368214017
 50
180
 51
270
  0
ARC
  8
_0-0_containe
  6
CONTINUOUS
 62
    4
 10
1906.3032624569355
 20
842.10956172080444
 40
40.000000368214017
 50
270
 51
0
  0
ARC
  8
_0-0_containe
  6
CONTINUOUS
 62
    4
 10
1416.3034592305087
 20
1262.1096584874495
 40
5.0000000460267522
 50
90
 51
180
  0
ARC
  8
_0-0_containe
  6
CONTINUOUS
 62
    4
 10
1421.3034825016348
 20
1252.1096119451972
 40
5.0000000460267522
 50
90
 51
180
  0
ARC
  8
_0-0_containe
  6
CONTINUOUS
 62
    4
 10
1607.3029608749232
 20
1252.1096119451972
 40
5.0000000460267522
 50
0
 51
90
  0
ARC
  8
_0-0_containe
  6
CONTINUOUS
 62
    4
 10
1617.3030074171754
 20
1262.1096584874495
 40
5.0000000460267522
 50
0
 51
90
  0
ARC
  8
_0-0_containe
  6
CONTINUOUS
 62
    4
 10
1617.3030074171754
 20
1187.1096810221475
 40
5.0000000460267522
 50
270
 51
0
  0
ARC
  8
_0-0_containe
  6
CONTINUOUS
 62
    4
 10
1607.3029608749232
 20
1192.1097042932738
 40
5.0000000460267522
 50
270
 51
0
  0
ARC
  8
_0-0_containe
  6
CONTINUOUS
 62
    4
 10
1451.303374393998
 20
1182.1096577510214
 40
5.0000000460267522
 50
90
 51
180
  0
ARC
  8
_0-0_containe
  6
CONTINUOUS
 62
    4
 10
1461.3034209362502
 20
1177.1096344798952
 40
5.0000000460267522
 50
90
 51
180
  0
ARC
  8
_0-0_containe
  6
CONTINUOUS
 62
    4
 10
1461.3034209362502
 20
857.10963153418311
 40
5.0000000460267522
 50
180
 51
270
  0
ARC
  8
_0-0_containe
  6
CONTINUOUS
 62
    4
 10
1901.3032391858092
 20
857.10963153418311
 40
5.0000000460267522
 50
270
 51
0
  0
ARC
  8
_0-0_containe
  6
CONTINUOUS
 62
    4
 10
1901.3032391858092
 20
1177.1096344798952
 40
5.0000000460267522
 50
0
 51
90
  0
ARC
  8
_0-0_containe
  6
CONTINUOUS
 62
    4
 10
1745.3034049704906
 20
1187.1096810221475
 40
5.0000000460267522
 50
180
 51
270
  0
ARC
  8
_0-0_containe
  6
CONTINUOUS
 62
    4
 10
1745.3034049704906
 20
1262.1096584874495
 40
5.0000000460267522
 50
90
 51
180
  0
ARC
  8
_0-0_containe
  6
CONTINUOUS
 62
    4
 10
1946.3032008915507
 20
1262.1096584874495
 40
5.0000000460267522
 50
0
 51
90
  0
ARC
  8
_0-0_containe
  6
CONTINUOUS
 62
    4
 10
1911.3032857280614
 20
1182.1096577510214
 40
5.0000000460267522
 50
0
 51
90
  0
ARC
  8
_0-0_containe
  6
CONTINUOUS
 62
    4
 10
1755.3034515127429
 20
1192.1097042932738
 40
5.0000000460267522
 50
180
 51
270
  0
ARC
  8
_0-0_containe
  6
CONTINUOUS
 62
    4
 10
1755.3034515127429
 20
1252.1096119451972
 40
5.0000000460267522
 50
90
 51
180
  0
ARC
  8
_0-0_containe
  6
CONTINUOUS
 62
    4
 10
1941.3031776204248
 20
1252.1096119451972
 40
5.0000000460267522
 50
0
 51
90
  0
ARC
  8
_0-0_containe
  6
CONTINUOUS
 62
    4
 10
1896.3032159146833
 20
837.10953844967833
 40
20.000000184107009
 50
270
 51
0
  0
ARC
  8
_0-0_containe
  6
CONTINUOUS
 62
    4
 10
1466.3034442073763
 20
837.10953844967833
 40
20.000000184107009
 50
180
 51
270
  0
TEXT
  8
_0-9_measure
 62
    3
 10
159.80501927446539
 20
983.35956319366062
 40
12.5
 41
1
 50
90.00000250447826
  1
３６０
  0
TEXT
  8
_0-9_measure
 62
    3
 10
159.8050190012691
 20
1214.6095575231648
 40
12.5
 41
1
 50
90.00000250447782
  1
９０
  0
TEXT
  8
_0-9_measure
 62
    3
 10
159.8050190012691
 20
794.60939882292132
 40
12.5
 41
1
 50
90.00000250447782
  1
３０
  0
TEXT
  8
_0-9_measure
 62
    3
 10
134.80490291883456
 20
1013.3595789532206
 40
12.5
 41
1
 50
90.00000250447826
  1
４８０
  0
TEXT
  8
_0-9_measure
 62
    3
 10
483.30494722755645
 20
1333.1095925624109
 40
12.5
 41
1
 50
0
  1
８８
  0
TEXT
  8
_0-9_measure
 62
    3
 10
233.30489847601982
 20
733.10958703920062
 40
12.5
 41
1
 50
0
  1
５０
  0
TEXT
  8
_0-9_measure
 62
    3
 10
477.05494722755645
 20
733.10958703920062
 40
12.5
 41
1
 50
0
  1
４５０
  0
TEXT
  8
_0-9_measure
 62
    3
 10
733.30499597909261
 20
733.10958703920062
 40
12.5
 41
1
 50
0
  1
５０
  0
TEXT
  8
_0-9_measure
 62
    3
 10
477.05494722755645
 20
708.1095945507667
 40
12.5
 41
1
 50
0
  1
５５０
  0
TEXT
  8
_0-9_measure
 62
    3
 10
829.80491705825307
 20
1170.8595687905135
 40
12.5
 41
1
 50
90.00000250447826
  1
１６５
  0
TEXT
  8
_0-9_measure
 62
    3
 10
984.15657407807475
 20
774.60955347281038
 40
12.5
 41
1
 50
90.000002504478147
  1
１０
  0
TEXT
  8
_0-9_measure
 62
    3
 10
984.15657435127082
 20
1013.3595789532206
 40
12.5
 41
1
 50
90.00000250447826
  1
４８０
  0
TEXT
  8
_0-9_measure
 62
    3
 10
984.15657407807475
 20
1264.6095425000326
 40
12.5
 41
1
 50
90.000002504478147
  1
１０
  0
TEXT
  8
_0-9_measure
 62
    3
 10
1086.4064925835114
 20
733.10952510560219
 40
12.5
 41
1
 50
0
  1
１４０
  0
TEXT
  8
_0-7_word
 62
    3
 10
92.124140828244094
 20
1179.6760389330107
 40
15
 41
1
 50
0
  1
Ｂ
  0
TEXT
  8
_0-7_word
 62
    3
 10
843.54916635578604
 20
1179.6760389330107
 40
15
 41
1
 50
0
  1
Ｂ’
  0
TEXT
  8
_0-7_word
 62
    3
 10
542.91418937593733
 20
1309.7888676627065
 40
15
 41
1
 50
0
  1
Ａ’
  0
TEXT
  8
_0-7_word
 62
    3
 10
550.41406550874035
 20
741.77267299142909
 40
15
 41
1
 50
0
  1
Ａ
  0
TEXT
  8
_0-7_word
 62
    3
 10
92.124140828244094
 20
986.64753066934554
 40
15
 41
1
 50
0
  1
Ｃ
  0
TEXT
  8
_0-7_word
 62
    3
 10
843.54916635578604
 20
986.64753066934554
 40
15
 41
1
 50
0
  1
Ｃ’
  0
TEXT
  8
_0-9_measure
 62
    3
 10
1345.303278240742
 20
1213.3596427278892
 40
12.5
 41
1
 50
90.00000250447826
  1
１００
  0
TEXT
  8
_0-9_measure
 62
    3
 10
1320.3031618851107
 20
1013.3597028204176
 40
12.5
 41
1
 50
90.00000250447826
  1
５００
  0
TEXT
  8
_0-9_measure
 62
    3
 10
1413.803381905564
 20
733.10952510560219
 40
12.5
 41
1
 50
0
  1
６０
  0
TEXT
  8
_0-9_measure
 62
    3
 10
1662.5534539282266
 20
733.10952510560219
 40
12.5
 41
1
 50
0
  1
４５０
  0
TEXT
  8
_0-9_measure
 62
    3
 10
1923.8032782164955
 20
733.10952510560219
 40
12.5
 41
1
 50
0
  1
６０
  0
TEXT
  8
_0-9_measure
 62
    3
 10
1662.5534539282266
 20
708.10953261716816
 40
12.5
 41
1
 50
0
  1
５７０
  0
TEXT
  8
_0-9_measure
 62
    3
 10
1345.303278240742
 20
998.35963300703906
 40
12.5
 41
1
 50
90.00000250447826
  1
３３０
  0
TEXT
  8
_0-9_measure
 62
    3
 10
1345.3032779675457
 20
804.60956923237063
 40
12.5
 41
1
 50
90.000002504478488
  1
７０
  0
POINT
  8
_0-9_measure
 62
    5
 10
160.80487446846575
 20
792.10951481033817
  0
POINT
  8
_0-9_measure
 62
    5
 10
160.80487446846575
 20
822.10934476910279
  0
POINT
  8
_0-9_measure
 62
    5
 10
160.80487446846575
 20
822.10934476910279
  0
POINT
  8
_0-9_measure
 62
    5
 10
160.80487446846575
 20
1182.1096577510214
  0
POINT
  8
_0-9_measure
 62
    5
 10
160.80487446846575
 20
1272.1095811625048
  0
POINT
  8
_0-9_measure
 62
    5
 10
135.8050058472287
 20
1272.1095811625048
  0
POINT
  8
_0-9_measure
 62
    5
 10
135.8050058472287
 20
792.10951481033817
  0
POINT
  8
_0-9_measure
 62
    5
 10
451.80484153540363
 20
1332.1096126816251
  0
POINT
  8
_0-9_measure
 62
    5
 10
539.80480518531522
 20
1332.1096126816251
  0
POINT
  8
_0-9_measure
 62
    5
 10
220.80490598758587
 20
732.10960715841475
  0
POINT
  8
_0-9_measure
 62
    5
 10
270.80489096445376
 20
732.10960715841475
  0
POINT
  8
_0-9_measure
 62
    5
 10
720.80500349065915
 20
732.10960715841475
  0
POINT
  8
_0-9_measure
 62
    5
 10
770.80498846752675
 20
732.10960715841475
  0
POINT
  8
_0-9_measure
 62
    5
 10
220.80490598758587
 20
707.10961466998083
  0
POINT
  8
_0-9_measure
 62
    5
 10
770.80498846752675
 20
707.10961466998083
  0
POINT
  8
_0-9_measure
 62
    5
 10
830.80501998664715
 20
1272.1095811625048
  0
POINT
  8
_0-9_measure
 62
    5
 10
830.80501998664715
 20
1107.1095564185225
  0
POINT
  8
_0-9_measure
 62
    5
 10
985.15642954527095
 20
782.10953020168415
  0
POINT
  8
_0-9_measure
 62
    5
 10
985.15642954527095
 20
792.10957674393649
  0
POINT
  8
_0-9_measure
 62
    5
 10
985.15642954527095
 20
1272.1095811625048
  0
POINT
  8
_0-9_measure
 62
    5
 10
985.15642954527095
 20
1282.1096277047573
  0
POINT
  8
_0-9_measure
 62
    5
 10
1175.1563229104904
 20
732.10954522481632
  0
POINT
  8
_0-9_measure
 62
    5
 10
1035.1564145221391
 20
732.10954522481632
  0
POINT
  8
_0-9_measure
 62
    5
 10
1346.303133434742
 20
782.1095921352827
  0
POINT
  8
_0-9_measure
 62
    5
 10
1346.303133434742
 20
852.10960826305677
  0
POINT
  8
_0-9_measure
 62
    5
 10
1346.303133434742
 20
1182.1096577510214
  0
POINT
  8
_0-9_measure
 62
    5
 10
1346.303133434742
 20
1282.1096277047573
  0
POINT
  8
_0-9_measure
 62
    5
 10
1321.3032648135049
 20
1282.1096277047573
  0
POINT
  8
_0-9_measure
 62
    5
 10
1321.3032648135049
 20
782.1095921352827
  0
POINT
  8
_0-9_measure
 62
    5
 10
1396.3033661460036
 20
732.10954522481632
  0
POINT
  8
_0-9_measure
 62
    5
 10
1456.3033976651241
 20
732.10954522481632
  0
POINT
  8
_0-9_measure
 62
    5
 10
1906.3032624569355
 20
732.10954522481632
  0
POINT
  8
_0-9_measure
 62
    5
 10
1966.3032939760558
 20
732.10954522481632
  0
POINT
  8
_0-9_measure
 62
    5
 10
1396.3033661460036
 20
707.10955273638228
  0
POINT
  8
_0-9_measure
 62
    5
 10
1966.3032939760558
 20
707.10955273638228
  0
LINE
  8
_0-4_free
  6
CONTINUOUS
 62
    4
 10
1762.6914172422603
 20
1135.1078912578264
 11
1694.6611866193118
 21
1203.1381218807749
  0
LINE
  8
_0-9_measure
  6
CONTINUOUS
 62
    3
 10
1637.3031005016799
 20
1303.3830643692843
 11
1725.3033118859855
 21
1303.3830643692843
  0
LINE
  8
_0-9_measure
  6
CONTINUOUS
 62
    3
 10
1637.3031005016799
 20
1278.3830718808504
 11
1637.3031005016799
 21
1303.3830643692843
  0
LINE
  8
_0-9_measure
  6
CONTINUOUS
 62
    3
 10
1725.3033118859855
 20
1278.3830718808504
 11
1725.3033118859855
 21
1303.3830643692843
  0
TEXT
  8
_0-9_measure
 62
    3
 10
1668.8032061938327
 20
1304.38304425007
 40
12.5
 41
1
 50
0
  1
８８
  0
POINT
  8
_0-9_measure
 62
    5
 10
1637.3031005016799
 20
1303.3830643692843
  0
POINT
  8
_0-9_measure
 62
    5
 10
1725.3033118859855
 20
1303.3830643692843
  0
TEXT
  8
_0-4_free
 62
    3
 10
314.68948514983208
 20
1331.655887139284
 40
12.5
 41
1
 50
0
  1
①アジャスター
  0
LINE
  8
_0-4_free
  6
CONTINUOUS
 62
    4
 10
410.51990479987467
 20
1328.4431436526072
 11
306.10012638440821
 21
1328.4431436526072
  0
TEXT
  8
_0-4_free
 62
    3
 10
1765.9826387734063
 20
1138.3205108773066
 40
12.5
 41
1
 50
0
  1
①アジャスター
  0
LINE
  8
_0-4_free
  6
CONTINUOUS
 62
    4
 10
1862.6307496590948
 20
1135.1078912578264
 11
1762.6914172422603
 21
1135.1078912578264
  0
LINE
  8
_0-4_free
  6
CONTINUOUS
 62
    7
 10
1165.1565241026315
 20
1075.9471561120517
 11
1168.1565587442067
 21
1075.9471561120517
  0
LINE
  8
_0-4_free
  6
CONTINUOUS
 62
    7
 10
1170.1565653426021
 20
1079.9471693088421
 11
1168.1565587442067
 21
1079.9471693088421
  0
LINE
  8
_0-4_free
  6
CONTINUOUS
 62
    7
 10
1173.1565752401948
 20
1082.9471792064351
 11
1170.1565653426021
 21
1082.9471792064351
  0
LINE
  8
_0-4_free
  6
CONTINUOUS
 62
    7
 10
1175.1565570946079
 20
1079.9471693088421
 11
1173.1565752401948
 21
1079.9471693088421
  0
LINE
  8
_0-4_free
  6
CONTINUOUS
 62
    7
 10
1165.1565241026315
 20
1075.9471561120517
 11
1165.6565010082481
 21
1081.9471759072376
  0
LINE
  8
_0-4_free
  6
CONTINUOUS
 62
    7
 10
1167.6565076066433
 20
1081.9471759072376
 11
1165.6565010082481
 21
1081.9471759072376
  0
LINE
  8
_0-4_free
  6
CONTINUOUS
 62
    7
 10
1167.6565076066433
 20
1085.947189104028
 11
1175.1565570946079
 21
1088.4471231200755
  0
LINE
  8
_0-4_free
  6
CONTINUOUS
 62
    7
 10
1167.6566065825725
 20
1125.9471726080399
 11
1175.1565570946079
 21
1123.4471396160634
  0
LINE
  8
_0-4_free
  6
CONTINUOUS
 62
    7
 10
1173.156674216124
 20
1128.9471825056328
 11
1170.1566395745488
 21
1128.9471825056328
  0
LINE
  8
_0-4_free
  6
CONTINUOUS
 62
    7
 10
1170.1566395745488
 20
1131.9471429152611
 11
1168.1566577201356
 21
1131.9471429152611
  0
LINE
  8
_0-4_free
  6
CONTINUOUS
 62
    7
 10
1168.1565587442067
 20
1135.9471561120517
 11
1165.1566230785606
 21
1135.9471561120517
  0
LINE
  8
_0-4_free
  6
CONTINUOUS
 62
    7
 10
1167.6566065825725
 20
1129.9471858048305
 11
1165.6565999841771
 21
1129.9471858048305
  0
LINE
  8
_0-4_free
  6
CONTINUOUS
 62
    7
 10
1165.1566230785606
 20
1135.9471561120517
 11
1165.6565999841771
 21
1129.9471858048305
  0
LINE
  8
_0-4_free
  6
CONTINUOUS
 62
    7
 10
1175.1565570946079
 20
1123.4471396160634
 11
1175.1565570946079
 21
1131.9471429152611
  0
LINE
  8
_0-4_free
  6
CONTINUOUS
 62
    7
 10
1173.1565752401948
 20
1131.9471429152611
 11
1173.1565752401948
 21
1128.9471825056328
  0
LINE
  8
_0-4_free
  6
CONTINUOUS
 62
    7
 10
1173.1565752401948
 20
1082.9471792064351
 11
1173.1565752401948
 21
1079.9471693088421
  0
LINE
  8
_0-4_free
  6
CONTINUOUS
 62
    7
 10
1170.1565653426021
 20
1131.9471429152611
 11
1170.1565653426021
 21
1128.9471825056328
  0
LINE
  8
_0-4_free
  6
CONTINUOUS
 62
    7
 10
1170.1565653426021
 20
1082.9471792064351
 11
1170.1565653426021
 21
1079.9471693088421
  0
LINE
  8
_0-4_free
  6
CONTINUOUS
 62
    7
 10
1168.1565587442067
 20
1135.9471561120517
 11
1168.1565587442067
 21
1131.9471429152611
  0
LINE
  8
_0-4_free
  6
CONTINUOUS
 62
    7
 10
1168.1565587442067
 20
1079.9471693088421
 11
1168.1565587442067
 21
1075.9471561120517
  0
LINE
  8
_0-4_free
  6
CONTINUOUS
 62
    7
 10
1167.6565076066433
 20
1129.9471858048305
 11
1167.6565076066433
 21
1125.9471726080399
  0
LINE
  8
_0-4_free
  6
CONTINUOUS
 62
    7
 10
1167.6565076066433
 20
1085.947189104028
 11
1167.6565076066433
 21
1081.9471759072376
  0
LINE
  8
_0-4_free
  6
CONTINUOUS
 62
    7
 10
1175.1565570946079
 20
1079.9471693088421
 11
1175.1565570946079
 21
1088.4471231200755
  0
LINE
  8
_0-4_free
  6
CONTINUOUS
 62
    7
 10
1175.1565570946079
 20
1123.4471396160634
 11
1175.1565570946079
 21
1131.9471429152611
  0
LINE
  8
_0-4_free
  6
CONTINUOUS
 62
    7
 10
1165.6565010082481
 20
1129.9471363168659
 11
1167.6565076066433
 21
1129.9471363168659
  0
LINE
  8
_0-4_free
  6
CONTINUOUS
 62
    7
 10
1167.6565076066433
 20
1081.947126419273
 11
1165.6565010082481
 21
1081.947126419273
  0
LINE
  8
_0-4_free
  6
CONTINUOUS
 62
    7
 10
1176.6565125554398
 20
1103.9471495136563
 11
1176.6565125554398
 21
1107.9471627104472
  0
LINE
  8
_0-4_free
  6
CONTINUOUS
 62
    7
 10
1165.6565010082481
 20
1088.4471231200755
 11
1173.6565274018292
 21
1091.9471594112495
  0
LINE
  8
_0-4_free
  6
CONTINUOUS
 62
    7
 10
1173.6565274018292
 20
1091.9471594112495
 11
1205.6565092562423
 21
1091.9471594112495
  0
LINE
  8
_0-4_free
  6
CONTINUOUS
 62
    7
 10
1165.6565010082481
 20
1123.4471396160634
 11
1173.6565274018292
 21
1119.947152812854
  0
LINE
  8
_0-4_free
  6
CONTINUOUS
 62
    7
 10
1173.6565274018292
 20
1119.947152812854
 11
1205.6565092562423
 21
1119.947152812854
  0
LINE
  8
_0-4_free
  6
CONTINUOUS
 62
    4
 10
1173.6565274018292
 20
1091.9471594112495
 11
1173.6565274018292
 21
1119.947152812854
  0
LINE
  8
_0-4_free
  6
CONTINUOUS
 62
    4
 10
1174.6565307010269
 20
1119.947152812854
 11
1174.6565307010269
 21
1091.9471594112495
  0
LINE
  8
_0-4_free
  6
CONTINUOUS
 62
    4
 10
1176.6565125554398
 20
1119.947152812854
 11
1176.6565125554398
 21
1107.9471627104472
  0
LINE
  8
_0-4_free
  6
CONTINUOUS
 62
    4
 10
1176.6565125554398
 20
1103.9471495136563
 11
1176.6565125554398
 21
1091.9471594112495
  0
LINE
  8
_0-4_free
  6
CONTINUOUS
 62
    7
 10
1165.6565010082481
 20
1081.947126419273
 11
1165.6565010082481
 21
1088.4471231200755
  0
LINE
  8
_0-4_free
  6
CONTINUOUS
 62
    7
 10
1165.6565010082481
 20
1123.4471396160634
 11
1165.6565010082481
 21
1129.9471363168659
  0
LINE
  8
_0-4_free
  6
CONTINUOUS
 62
    7
 10
1167.6565076066433
 20
1086.9143818827442
 11
1167.6565076066433
 21
1081.947126419273
  0
LINE
  8
_0-4_free
  6
CONTINUOUS
 62
    7
 10
1167.6565076066433
 20
1129.9471363168659
 11
1167.6565076066433
 21
1124.9798808533947
  0
LINE
  8
_0-4_free
  6
CONTINUOUS
 62
    4
 10
1165.6565010082481
 20
1088.4471231200755
 11
1165.6565010082481
 21
1123.4471396160634
  0
LINE
  8
_0-4_free
  6
CONTINUOUS
 62
    4
 10
1205.6565092562423
 20
1091.9471594112495
 11
1205.6565092562423
 21
1119.947152812854
  0
LINE
  8
_0-4_free
  6
CONTINUOUS
 62
    7
 10
1205.6565092562423
 20
1089.947152812854
 11
1205.6565092562423
 21
1091.9471594112495
  0
LINE
  8
_0-4_free
  6
CONTINUOUS
 62
    7
 10
1205.6565092562423
 20
1119.947152812854
 11
1205.6565092562423
 21
1121.9471594112495
  0
LINE
  8
_0-4_free
  6
CONTINUOUS
 62
    7
 10
1176.6565125554398
 20
1089.947152812854
 11
1205.6565092562423
 21
1089.947152812854
  0
LINE
  8
_0-4_free
  6
CONTINUOUS
 62
    7
 10
1167.6565076066433
 20
1086.9143818827442
 11
1176.6565125554398
 21
1089.947152812854
  0
LINE
  8
_0-4_free
  6
CONTINUOUS
 62
    7
 10
1167.6565076066433
 20
1124.9798808533947
 11
1176.6565125554398
 21
1121.9471594112495
  0
LINE
  8
_0-4_free
  6
CONTINUOUS
 62
    7
 10
1176.6565125554398
 20
1121.9471594112495
 11
1205.6565092562423
 21
1121.9471594112495
  0
LINE
  8
_0-4_free
  6
CONTINUOUS
 62
    4
 10
1175.1565570946079
 20
1088.4471231200755
 11
1175.1565570946079
 21
1089.4416827431751
  0
LINE
  8
_0-4_free
  6
CONTINUOUS
 62
    4
 10
1175.1565570946079
 20
1122.4525799929638
 11
1175.1565570946079
 21
1123.4471396160634
  0
LINE
  8
_0-4_free
  6
CONTINUOUS
 62
    2
 10
1165.1565241026315
 20
1075.8075505641209
 11
1165.1565241026315
 21
1075.9471561120517
  0
LINE
  8
_0-4_free
  6
CONTINUOUS
 62
    2
 10
1165.1565241026315
 20
1136.0867616599826
 11
1165.1565241026315
 21
1135.9471561120517
  0
ARC
  8
_0-4_free
  6
CONTINUOUS
 62
    7
 10
1176.6565125554398
 20
1105.9471561120517
 40
2.0000000257749817
 50
90
 51
270
  0
LINE
  8
_0-0_containe
  6
CONTINUOUS
 62
    4
 10
1165.1565241026315
 20
875.8434302645104
 11
1165.1565241026315
 21
1075.9471561120517
  0
LINE
  8
_0-0_containe
  6
CONTINUOUS
 62
    4
 10
1165.1565241026315
 20
1135.9471561120517
 11
1165.1565241026315
 21
1159.3614470355103
  0
LINE
  8
_0-a_hatch
  6
CONTINUOUS
 62
    3
 10
1168.1565587442067
 20
1134.9691553085531
 11
1175.1563229104904
 21
1141.9690061806975
  0
LINE
  8
_0-a_hatch
  6
CONTINUOUS
 62
    3
 10
1172.7411661614551
 20
1128.9471825056328
 11
1173.1565752401948
 21
1129.3625989323241
  0
LINE
  8
_0-3_free
  6
CONTINUOUS
 62
    7
 10
1175.1563229104904
 20
1267.0789626937378
 11
1175.1563229104904
 21
1131.9471429152611
  0
LINE
  8
_0-9_measure
  6
CONTINUOUS
 62
    3
 10
1238.2995263290832
 20
1121.9471594112495
 11
1238.2995263290832
 21
1089.947152812854
  0
POINT
  8
_0-9_measure
 62
    5
 10
1238.2995263290832
 20
1121.9471594112495
  0
POINT
  8
_0-9_measure
 62
    5
 10
1238.2995263290832
 20
1089.947152812854
  0
LINE
  8
_0-9_measure
  6
CONTINUOUS
 62
    4
 10
1238.2995263290832
 20
1121.9471594112495
 11
1212.7461255115027
 21
1121.9471594112495
  0
LINE
  8
_0-9_measure
  6
CONTINUOUS
 62
    4
 10
1238.2995263290832
 20
1089.947152812854
 11
1212.7461255115027
 21
1089.947152812854
  0
TEXT
  8
_0-9_measure
 62
    3
 10
1237.299526314182
 20
1093.4471561120517
 40
12.5
 41
1
 50
90
  1
３２
  0
LINE
  8
_0-0_containe
  6
CONTINUOUS
 62
    4
 10
494.30595678203275
 20
1108.610217174705
 11
497.30542231201582
 21
1105.6103804849879
  0
LINE
  8
_0-0_containe
  6
CONTINUOUS
 62
    4
 10
497.30542231201582
 20
1108.610217174705
 11
494.30595678203275
 21
1105.6103804849879
  0
LINE
  8
_0-0_containe
  6
CONTINUOUS
 62
    4
 10
494.30521446256478
 20
1108.6109594941727
 11
497.30474185250358
 21
1105.6109990845443
  0
LINE
  8
_0-0_containe
  6
CONTINUOUS
 62
    4
 10
497.30474185250358
 20
1108.6109594941727
 11
494.30521446256478
 21
1105.6109990845443
  0
LINE
  8
_0-0_containe
  6
CONTINUOUS
 62
    4
 10
494.30521446256478
 20
1108.6109594941727
 11
497.30474185250358
 21
1105.6109990845443
  0
LINE
  8
_0-0_containe
  6
CONTINUOUS
 62
    4
 10
497.30474185250358
 20
1108.6109594941727
 11
494.30521446256478
 21
1105.6109990845443
  0
LINE
  8
_0-0_containe
  6
CENTER1
 62
    4
 10
495.80494722755645
 20
1152.1110040333408
 11
495.80494722755645
 21
1062.1109545453764
  0
LINE
  8
_0-0_containe
  6
CONTINUOUS
 62
    7
 10
510.22741030953483
 20
1108.610217174705
 11
497.30542231201582
 21
1108.610217174705
  0
LINE
  8
_0-0_containe
  6
CONTINUOUS
 62
    7
 10
497.30474185250358
 20
1092.6887017872471
 11
497.30474185250358
 21
1105.6109990845443
  0
LINE
  8
_0-0_containe
  6
CONTINUOUS
 62
    7
 10
510.22703914980082
 20
1105.6109990845443
 11
497.30474185250358
 21
1105.6109990845443
  0
LINE
  8
_0-0_containe
  6
CONTINUOUS
 62
    7
 10
497.30542231201582
 20
1108.610217174705
 11
497.30542231201582
 21
1121.5332567914702
  0
LINE
  8
_0-0_containe
  6
CONTINUOUS
 62
    7
 10
494.30453400305254
 20
1108.610217174705
 11
494.30453400305254
 21
1121.5332567914702
  0
LINE
  8
_0-0_containe
  6
CONTINUOUS
 62
    7
 10
481.38254600553353
 20
1108.610217174705
 11
494.30453400305254
 21
1108.610217174705
  0
LINE
  8
_0-0_containe
  6
CONTINUOUS
 62
    7
 10
481.38291716526749
 20
1105.6109990845443
 11
494.30521446256478
 21
1105.6109990845443
  0
LINE
  8
_0-0_containe
  6
CONTINUOUS
 62
    7
 10
494.30521446256478
 20
1092.6887017872471
 11
494.30521446256478
 21
1105.6109990845443
  0
CIRCLE
  8
_0-0_containe
  6
CONTINUOUS
 62
    4
 10
495.80500908751208
 20
1107.11110300927
 40
30.00000231974834
  0
CIRCLE
  8
_0-0_containe
  6
CONTINUOUS
 62
    4
 10
495.80568954702426
 20
1107.1104844097133
 40
24.000004175547009
  0
CIRCLE
  8
_0-0_containe
  6
CONTINUOUS
 62
    4
 10
495.80568954702426
 20
1107.1104844097133
 40
30.00000231974834
  0
CIRCLE
  8
_0-0_containe
  6
CONTINUOUS
 62
    4
 10
495.80568954702426
 20
1107.1104844097133
 40
17.500001675373799
  0
CIRCLE
  8
_0-0_containe
  6
CONTINUOUS
 62
    4
 10
495.80500908751208
 20
1107.11110300927
 40
24.000004175547009
  0
CIRCLE
  8
_0-0_containe
  6
CONTINUOUS
 62
    4
 10
495.80500908751208
 20
1107.11110300927
 40
17.500001675373799
  0
CIRCLE
  8
_0-0_containe
  6
CONTINUOUS
 62
    4
 10
495.80500908751208
 20
1107.11110300927
 40
24.000004175547009
  0
CIRCLE
  8
_0-0_containe
  6
CONTINUOUS
 62
    4
 10
495.80500908751208
 20
1107.11110300927
 40
14.500001636711328
  0
CIRCLE
  8
_0-0_containe
  6
CONTINUOUS
 62
    4
 10
495.80500908751208
 20
1107.11110300927
 40
30.00000231974834
  0
CIRCLE
  8
_0-0_containe
  6
CONTINUOUS
 62
    4
 10
495.80500908751208
 20
1107.11110300927
 40
17.500001675373799
  0
CIRCLE
  8
_0-0_containe
  6
CONTINUOUS
 62
    4
 10
495.80494722755645
 20
1107.1109792893585
 40
31.499999922675062
  0
CIRCLE
  8
_0-0_containe
  6
CONTINUOUS
 62
    7
 10
495.80494722755645
 20
1107.1109792893585
 40
30.500000876349379
  0
CIRCLE
  8
_0-0_containe
  6
CONTINUOUS
 62
    7
 10
495.80500908751208
 20
1107.11110300927
 40
14.500001636711328
  0
CIRCLE
  8
_0-4_free
  6
CONTINUOUS
 62
    4
 10
1681.3032061938327
 20
1107.1095564185225
 40
16
  0
CIRCLE
  8
_0-4_free
  6
CONTINUOUS
 62
    4
 10
1681.3032061938327
 20
1107.1095564185225
 40
14.000000000000002
  0
LINE
  8
_0-4_free
  6
CONTINUOUS
 62
    4
 10
458.56447062190909
 20
1137.018185816627
 11
354.14469220644264
 21
1137.018185816627
  0
TEXT
  8
_0-4_free
 62
    3
 10
375.23405097186651
 20
1140.2309293033038
 40
12.5
 41
1
 50
0
  1
③排水下口
  0
LINE
  8
_0-4_free
  6
CONTINUOUS
 62
    4
 10
476.41618363624491
 20
1107.1095564185225
 11
458.56447062190909
 21
1137.018185816627
  0
LINE
  8
_0-4_free
  6
CONTINUOUS
 62
    4
 10
533.04542383320381
 20
1137.018185816627
 11
637.46520224867027
 21
1137.018185816627
  0
LINE
  8
_0-4_free
  6
CONTINUOUS
 62
    4
 10
521.33926517460793
 20
1117.4057732311123
 11
533.04542383320381
 21
1137.018185816627
  0
TEXT
  8
_0-4_free
 62
    3
 10
553.8758434832464
 20
1140.2309293033038
 40
12.5
 41
1
 50
0
  1
③排水上口
  0
LINE
  8
_0-9_measure
  6
CONTINUOUS
 62
    4
 10
340.29156798926039
 20
1182.1096577510214
 11
427.13222350274174
 21
1182.1096577510214
  0
LINE
  8
_0-9_measure
  6
CONTINUOUS
 62
    4
 10
780.80503500977898
 20
1169.6887864067824
 11
780.80503500977898
 21
1155.0252405086358
  0
LINE
  8
_0-9_measure
  6
CONTINUOUS
 62
    3
 10
495.80494722755645
 20
1166.8202960678277
 11
780.80503500977898
 21
1166.8202960678277
  0
POINT
  8
_0-9_measure
 62
    5
 10
495.80494722755645
 20
1166.8202960678277
  0
POINT
  8
_0-9_measure
 62
    5
 10
780.80503500977898
 20
1166.8202960678277
  0
TEXT
  8
_0-9_measure
 62
    3
 10
628.92999111866766
 20
1167.8202960678277
 40
12.5
 41
1
 50
0
  1
２８５
  0
LINE
  8
_0-9_measure
  6
CONTINUOUS
 62
    4
 10
495.80494722755645
 20
1166.8202960678277
 11
495.80494722755645
 21
1152.1110040333408
  0
LINE
  8
_0-7_word
  6
CONTINUOUS
 62
    3
 10
567.63652566268092
 20
652.49576388117487
 11
567.63652566268092
 21
688.41842772816665
  0
LINE
  8
_0-7_word
  6
CONTINUOUS
 62
    3
 10
567.63652566268092
 20
688.41842772816665
 11
423.97312105803792
 21
688.41842772816665
  0
LINE
  8
_0-7_word
  6
CONTINUOUS
 62
    3
 10
423.97312105803792
 20
688.41842772816665
 11
423.97312105803792
 21
652.49576388117487
  0
LINE
  8
_0-7_word
  6
CONTINUOUS
 62
    3
 10
423.97312105803792
 20
652.49576388117487
 11
567.63652566268092
 21
652.49576388117487
  0
LINE
  8
_0-7_word
  6
CONTINUOUS
 62
    3
 10
1214.1603690818188
 20
652.49576388117487
 11
1214.1603690818188
 21
688.4183657945681
  0
LINE
  8
_0-7_word
  6
CONTINUOUS
 62
    3
 10
1214.1603690818188
 20
688.4183657945681
 11
996.15261608520427
 21
688.4183657945681
  0
LINE
  8
_0-7_word
  6
CONTINUOUS
 62
    3
 10
996.15261608520427
 20
688.4183657945681
 11
996.15261608520427
 21
652.49576388117487
  0
LINE
  8
_0-7_word
  6
CONTINUOUS
 62
    3
 10
996.15261608520427
 20
652.49576388117487
 11
1214.1603690818188
 21
652.49576388117487
  0
TEXT
  8
_0-7_word
 62
    3
 10
443.35832235386846
 20
661.06731197487488
 40
20
 41
1
 50
0
  1
平　面　図
  0
TEXT
  8
_0-7_word
 62
    3
 10
1012.7099915770204
 20
661.06725004127657
 40
20
 41
1
 50
0
  1
Ａ－Ａ’断　面　図
  0
LINE
  8
_0-7_word
  6
CONTINUOUS
 62
    3
 10
423.9731210580382
 20
652.49576388117487
 11
567.63627792828765
 21
652.49576388117487
  0
LINE
  8
_0-7_word
  6
CONTINUOUS
 62
    3
 10
1753.1347846289577
 20
688.41842772816665
 11
1609.4716277587081
 21
688.41842772816665
  0
LINE
  8
_0-7_word
  6
CONTINUOUS
 62
    3
 10
1609.4716277587081
 20
652.49576388117487
 11
1753.1347846289577
 21
652.49576388117487
  0
LINE
  8
_0-7_word
  6
CONTINUOUS
 62
    3
 10
1609.4716277587081
 20
688.41842772816665
 11
1609.4716277587081
 21
652.49576388117487
  0
LINE
  8
_0-7_word
  6
CONTINUOUS
 62
    3
 10
1753.1347846289577
 20
652.49576388117487
 11
1753.1347846289577
 21
688.41842772816665
  0
TEXT
  8
_0-7_word
 62
    3
 10
1628.8568290545388
 20
661.06731197487488
 40
20
 41
1
 50
0
  1
底　面　図
  0
TEXT
  8
_8-0_free
 62
    7
 10
1942.5019946555894
 20
452.60545530777495
 40
15
 41
1
 50
0
  1
排水上口
  0
TEXT
  8
_8-0_free
 62
    7
 10
1930.8006914838859
 20
419.88436195314193
 40
15
 41
1
 50
0
  1
①排水下口
  0
LINE
  8
_8-0_free
  6
CONTINUOUS
 62
    4
 10
1659.0358022049586
 20
517.28422305692152
 11
1694.0357350370978
 21
552.28421480892746
  0
LINE
  8
_0-0_containe
  6
CONTINUOUS
 62
    3
 10
464.30494730488141
 20
1008.2174252057655
 11
527.30494715023156
 21
1008.2174252057655
  0
POINT
  8
_0-0_containe
 62
    5
 10
464.30494730488141
 20
1008.2174252057655
  0
POINT
  8
_0-0_containe
 62
    5
 10
527.30494715023156
 20
1008.2174252057655
  0
LINE
  8
_0-0_containe
  6
CONTINUOUS
 62
    3
 10
481.30500753328147
 20
1030.2840134857097
 11
510.30501064174257
 21
1030.2840134857097
  0
POINT
  8
_0-0_containe
 62
    5
 10
481.30500753328147
 20
1030.2840134857097
  0
POINT
  8
_0-0_containe
 62
    5
 10
510.30501064174257
 20
1030.2840134857097
  0
TEXT
  8
_0-0_containe
 62
    3
 10
483.30494722755645
 20
1009.2174252206667
 40
12.5
 41
1
 50
0
  1
６３
  0
TEXT
  8
_0-0_containe
 62
    3
 10
483.30500908751208
 20
1031.2840135006109
 40
12.5
 41
1
 50
0
  1
２９
  0
LINE
  8
_0-0_containe
  6
CONTINUOUS
 62
    4
 10
464.30494730488141
 20
1008.2174252057655
 11
464.30494730488141
 21
1072.9099181424479
  0
LINE
  8
_0-0_containe
  6
CONTINUOUS
 62
    4
 10
481.30500753328147
 20
1030.2840134857097
 11
481.30500753328147
 21
1072.9099181424479
  0
LINE
  8
_0-0_containe
  6
CONTINUOUS
 62
    4
 10
510.30501064174257
 20
1030.2840134857097
 11
510.30501064174257
 21
1072.9099181424479
  0
LINE
  8
_0-0_containe
  6
CONTINUOUS
 62
    4
 10
527.30494715023156
 20
1008.2174252057655
 11
527.30494715023156
 21
1072.9099181424479
  0
TEXT
  8
_7-0_free
 62
    3
 10
1664.6251496657464
 20
1407.314622343433
 40
12.5
 41
1
 50
0
  1
下口
  0
TEXT
  8
_7-0_free
 62
    3
 10
1661.3402983337214
 20
1383.38213406725
 40
12.5
 41
1
 50
0
  1
ゴム栓
  0
LINE
  8
_7-0_free
  6
CONTINUOUS
 62
    7
 10
2055.4993192794877
 20
1351.49187309126
 11
1555.4994017594288
 21
1351.49187309126
  0
LINE
  8
_7-0_free
  6
CONTINUOUS
 62
    7
 10
1555.4994017594288
 20
1351.49187309126
 11
1555.4994017594288
 21
1451.4917998903127
  0
LINE
  8
_7-0_free
  6
CONTINUOUS
 62
    7
 10
1625.4993852634402
 20
1451.4917998903127
 11
1625.4993852634402
 21
1351.49187309126
  0
LINE
  8
_7-0_free
  6
CONTINUOUS
 62
    7
 10
1735.4993770154465
 20
1451.4917998903127
 11
1735.4993770154465
 21
1351.49187309126
  0
TEXT
  8
_7-0_free
 62
    3
 10
1644.5403427008271
 20
1357.1531198946313
 40
12.5
 41
1
 50
0
  1
アジャスター
  0
LINE
  8
_0-2_free
  6
CONTINUOUS
 62
    7
 10
1652.8032061938327
 20
1206.6095634127478
 11
1709.8032061938327
 21
1206.6095634127478
  0
ARC
  8
_0-2_free
  6
CONTINUOUS
 62
    7
 10
1724.8032061938327
 20
1193.609563412748
 40
5
 50
270
 51
0
  0
LINE
  8
_0-2_free
  6
CONTINUOUS
 62
    7
 10
1637.8032061938327
 20
1188.609563412748
 11
1724.8032061938327
 21
1188.609563412748
  0
ARC
  8
_0-2_free
  6
CONTINUOUS
 62
    7
 10
1637.8032061938327
 20
1193.609563412748
 40
5
 50
180
 51
270
  0
ARC
  8
_0-2_free
  6
CONTINUOUS
 62
    7
 10
1681.3032061938327
 20
1237.109563412748
 40
30.500000000000004
 50
180
 51
0
  0
LINE
  8
_0-2_free
  6
CONTINUOUS
 62
    7
 10
1650.8032061938325
 20
1237.109563412748
 11
1650.8032061938325
 21
1266.6095634127478
  0
LINE
  8
_0-2_free
  6
CONTINUOUS
 62
    7
 10
1711.8032061938329
 20
1237.109563412748
 11
1711.8032061938329
 21
1266.6095634127478
  0
ARC
  8
_0-2_free
  6
CONTINUOUS
 62
    7
 10
1709.8032061938327
 20
1208.609563412748
 40
2
 50
270
 51
0
  0
ARC
  8
_0-2_free
  6
CONTINUOUS
 62
    7
 10
1652.8032061938327
 20
1208.609563412748
 40
2
 50
180
 51
270
  0
LINE
  8
_0-2_free
  6
CONTINUOUS
 62
    7
 10
1650.8032061938325
 20
1208.609563412748
 11
1650.8032061938325
 21
1237.109563412748
  0
LINE
  8
_0-2_free
  6
CONTINUOUS
 62
    7
 10
1711.8032061938329
 20
1208.609563412748
 11
1711.8032061938329
 21
1237.109563412748
  0
ARC
  8
_0-2_free
  6
CONTINUOUS
 62
    7
 10
1719.3032061938329
 20
1199.1095634127478
 40
5
 50
270
 51
0
  0
LINE
  8
_0-2_free
  6
CONTINUOUS
 62
    7
 10
1643.3032061938325
 20
1194.1095634127478
 11
1719.3032061938329
 21
1194.1095634127478
  0
ARC
  8
_0-2_free
  6
CONTINUOUS
 62
    7
 10
1643.3032061938325
 20
1199.1095634127478
 40
5
 50
180
 51
270
  0
LINE
  8
_0-2_free
  6
CONTINUOUS
 62
    7
 10
1724.3032061938329
 20
1199.1095634127478
 11
1724.3032061938329
 21
1261.6095634127478
  0
LINE
  8
_0-2_free
  6
CONTINUOUS
 62
    7
 10
1638.3032061938325
 20
1199.1095634127478
 11
1638.3032061938325
 21
1261.6095634127478
  0
ARC
  8
_0-2_free
  6
CONTINUOUS
 62
    7
 10
1709.8032061938327
 20
1208.609563412748
 40
1.5000000000000002
 50
270
 51
0
  0
ARC
  8
_0-2_free
  6
CONTINUOUS
 62
    7
 10
1652.8032061938327
 20
1208.609563412748
 40
1.5000000000000002
 50
180
 51
270
  0
LINE
  8
_0-2_free
  6
CONTINUOUS
 62
    7
 10
1651.3032061938327
 20
1208.609563412748
 11
1651.3032061938327
 21
1231.6095634127478
  0
LINE
  8
_0-2_free
  6
CONTINUOUS
 62
    7
 10
1711.3032061938327
 20
1208.609563412748
 11
1711.3032061938327
 21
1231.6095634127478
  0
LINE
  8
_0-2_free
  6
CONTINUOUS
 62
    7
 10
1652.8032061938327
 20
1207.109563412748
 11
1675.8032061938325
 21
1207.109563412748
  0
LINE
  8
_0-2_free
  6
CONTINUOUS
 62
    7
 10
1686.8032061938329
 20
1207.109563412748
 11
1709.8032061938327
 21
1207.109563412748
  0
LINE
  8
_0-2_free
  6
CONTINUOUS
 62
    7
 10
1632.8032061938327
 20
1265.6095634127478
 11
1632.8032061938327
 21
1193.609563412748
  0
LINE
  8
_0-2_free
  6
CONTINUOUS
 62
    7
 10
1633.8032061938327
 20
1266.6095634127478
 11
1650.8032061938325
 21
1266.6095634127478
  0
ARC
  8
_0-2_free
  6
CONTINUOUS
 62
    7
 10
1633.8032061938327
 20
1265.6095634127478
 40
1
 50
90
 51
180
  0
LINE
  8
_0-2_free
  6
CONTINUOUS
 62
    7
 10
1728.8032061938327
 20
1266.6095634127478
 11
1711.8032061938329
 21
1266.6095634127478
  0
LINE
  8
_0-2_free
  6
CONTINUOUS
 62
    7
 10
1729.8032061938327
 20
1265.6095634127478
 11
1729.8032061938327
 21
1193.609563412748
  0
ARC
  8
_0-2_free
  6
CONTINUOUS
 62
    7
 10
1728.8032061938327
 20
1265.6095634127478
 40
1
 50
0
 51
90
  0
LINE
  8
_0-2_free
  6
CONTINUOUS
 62
    7
 10
1641.3032061938327
 20
1199.1095634127478
 11
1641.3032061938327
 21
1261.6095634127478
  0
ARC
  8
_0-2_free
  6
CONTINUOUS
 62
    7
 10
1643.3032061938325
 20
1199.1095634127478
 40
2
 50
180
 51
270
  0
LINE
  8
_0-2_free
  6
CONTINUOUS
 62
    7
 10
1643.3032061938325
 20
1197.109563412748
 11
1719.3032061938329
 21
1197.109563412748
  0
ARC
  8
_0-2_free
  6
CONTINUOUS
 62
    7
 10
1719.3032061938329
 20
1199.1095634127478
 40
2
 50
270
 51
0
  0
LINE
  8
_0-2_free
  6
CONTINUOUS
 62
    7
 10
1721.3032061938327
 20
1199.1095634127478
 11
1721.3032061938327
 21
1261.6095634127478
  0
LINE
  8
_0-2_free
  6
CONTINUOUS
 62
    7
 10
1641.3032061938327
 20
1261.6095634127478
 11
1638.3032061938325
 21
1261.6095634127478
  0
LINE
  8
_0-2_free
  6
CONTINUOUS
 62
    7
 10
1638.3032061938325
 20
1258.609563412748
 11
1641.3032061938327
 21
1258.609563412748
  0
LINE
  8
_0-2_free
  6
CONTINUOUS
 62
    7
 10
1641.3032061938327
 20
1238.1095634127478
 11
1650.8032061938325
 21
1238.1095634127478
  0
LINE
  8
_0-2_free
  6
CONTINUOUS
 62
    7
 10
1641.3032061938327
 20
1236.109563412748
 11
1650.8032061938325
 21
1236.109563412748
  0
LINE
  8
_0-2_free
  6
CONTINUOUS
 62
    7
 10
1680.3032061938327
 20
1197.109563412748
 11
1680.3032061938327
 21
1206.6095634127478
  0
LINE
  8
_0-2_free
  6
CONTINUOUS
 62
    7
 10
1682.3032061938327
 20
1197.109563412748
 11
1682.3032061938327
 21
1206.6095634127478
  0
LINE
  8
_0-2_free
  6
CONTINUOUS
 62
    7
 10
1711.8032061938329
 20
1238.1095634127478
 11
1721.3032061938327
 21
1238.1095634127478
  0
LINE
  8
_0-2_free
  6
CONTINUOUS
 62
    7
 10
1711.8032061938329
 20
1236.109563412748
 11
1721.3032061938327
 21
1236.109563412748
  0
LINE
  8
_0-2_free
  6
CONTINUOUS
 62
    7
 10
1724.3032061938329
 20
1261.6095634127478
 11
1721.3032061938327
 21
1261.6095634127478
  0
LINE
  8
_0-2_free
  6
CONTINUOUS
 62
    7
 10
1721.3032061938327
 20
1258.609563412748
 11
1724.3032061938329
 21
1258.609563412748
  0
LINE
  8
_0-0_containe
  6
CONTINUOUS
 62
    4
 10
1637.3031005016799
 20
1266.6095634127478
 11
1637.3031005016799
 21
1267.1095578913787
  0
LINE
  8
_0-2_free
  6
CONTINUOUS
 62
    4
 10
1725.3033118859855
 20
1277.1096044336309
 11
1725.3033118859855
 21
1266.6095634127478
  0
LINE
  8
_0-9_measure
  6
CONTINUOUS
 62
    3
 10
1650.8032061938325
 20
1285.7143416363012
 11
1711.8032061938329
 21
1285.7143416363012
  0
POINT
  8
_0-9_measure
 62
    5
 10
1650.8032061938325
 20
1285.7143416363012
  0
POINT
  8
_0-9_measure
 62
    5
 10
1711.8032061938329
 20
1285.7143416363012
  0
LINE
  8
_0-9_measure
  6
CONTINUOUS
 62
    4
 10
1650.8032061938325
 20
1285.7143416363012
 11
1650.8032061938325
 21
1269.4091104468341
  0
LINE
  8
_0-9_measure
  6
CONTINUOUS
 62
    4
 10
1711.8032061938329
 20
1285.7143416363012
 11
1711.8032061938329
 21
1269.4091104468341
  0
TEXT
  8
_0-9_measure
 62
    3
 10
1670.969815874688
 20
1286.7143416363012
 40
12.5
 41
1
 50
0
  1
６１
  0
LINE
  8
_0-b_free
  6
DASHED2
 62
    7
 10
524.30482336035948
 20
1206.6095634127478
 11
467.30482336035948
 21
1206.6095634127478
  0
ARC
  8
_0-b_free
  6
CONTINUOUS
 62
    7
 10
452.30482336035948
 20
1193.609563412748
 40
5
 50
180
 51
270
  0
LINE
  8
_0-b_free
  6
CONTINUOUS
 62
    7
 10
539.30482336035948
 20
1188.609563412748
 11
452.30482336035948
 21
1188.609563412748
  0
ARC
  8
_0-b_free
  6
CONTINUOUS
 62
    7
 10
539.30482336035948
 20
1193.609563412748
 40
5
 50
270
 51
0
  0
ARC
  8
_0-b_free
  6
CONTINUOUS
 62
    7
 10
495.80482336035942
 20
1237.109563412748
 40
30.500000000000004
 50
180
 51
0
  0
LINE
  8
_0-b_free
  6
CONTINUOUS
 62
    7
 10
526.30482336035948
 20
1237.109563412748
 11
526.30482336035948
 21
1266.6095634127478
  0
LINE
  8
_0-b_free
  6
CONTINUOUS
 62
    7
 10
465.30482336035948
 20
1237.109563412748
 11
465.30482336035948
 21
1266.6095634127478
  0
ARC
  8
_0-b_free
  6
DASHED2
 62
    7
 10
467.30482336035948
 20
1208.609563412748
 40
2
 50
180
 51
270
  0
ARC
  8
_0-b_free
  6
DASHED2
 62
    7
 10
524.30482336035948
 20
1208.609563412748
 40
2
 50
270
 51
0
  0
LINE
  8
_0-b_free
  6
DASHED2
 62
    7
 10
526.30482336035948
 20
1208.609563412748
 11
526.30482336035948
 21
1237.109563412748
  0
LINE
  8
_0-b_free
  6
DASHED2
 62
    7
 10
465.30482336035948
 20
1208.609563412748
 11
465.30482336035948
 21
1237.109563412748
  0
ARC
  8
_0-b_free
  6
DASHED2
 62
    7
 10
457.80482336035948
 20
1199.1095634127478
 40
5
 50
180
 51
270
  0
LINE
  8
_0-b_free
  6
DASHED2
 62
    7
 10
533.80482336035948
 20
1194.1095634127478
 11
457.80482336035948
 21
1194.1095634127478
  0
ARC
  8
_0-b_free
  6
DASHED2
 62
    7
 10
533.80482336035948
 20
1199.1095634127478
 40
5
 50
270
 51
0
  0
LINE
  8
_0-b_free
  6
DASHED2
 62
    7
 10
452.80482336035948
 20
1199.1095634127478
 11
452.80482336035948
 21
1261.6095634127478
  0
LINE
  8
_0-b_free
  6
DASHED2
 62
    7
 10
538.80482336035948
 20
1199.1095634127478
 11
538.80482336035948
 21
1261.6095634127478
  0
LINE
  8
_0-b_free
  6
DASHED1
 62
    7
 10
496.80482336035942
 20
1196.109563412748
 11
496.80482336035942
 21
1206.6095634127478
  0
LINE
  8
_0-b_free
  6
DASHED1
 62
    7
 10
494.80482336035948
 20
1196.109563412748
 11
494.80482336035948
 21
1206.6095634127478
  0
ARC
  8
_0-b_free
  6
DASHED1
 62
    7
 10
467.30482336035948
 20
1208.609563412748
 40
1.5000000000000002
 50
180
 51
270
  0
ARC
  8
_0-b_free
  6
DASHED1
 62
    7
 10
524.30482336035948
 20
1208.609563412748
 40
1.5000000000000002
 50
270
 51
0
  0
LINE
  8
_0-b_free
  6
DASHED1
 62
    7
 10
525.80482336035948
 20
1208.609563412748
 11
525.80482336035948
 21
1231.6095634127478
  0
LINE
  8
_0-b_free
  6
DASHED1
 62
    7
 10
465.80482336035942
 20
1208.609563412748
 11
465.80482336035942
 21
1231.6095634127478
  0
LINE
  8
_0-b_free
  6
DASHED1
 62
    7
 10
490.30482336035948
 20
1207.109563412748
 11
467.30482336035948
 21
1207.109563412748
  0
LINE
  8
_0-b_free
  6
DASHED1
 62
    7
 10
524.30482336035948
 20
1207.109563412748
 11
501.30482336035948
 21
1207.109563412748
  0
LINE
  8
_0-b_free
  6
CONTINUOUS
 62
    7
 10
543.30482336035948
 20
1266.6095634127478
 11
526.30482336035948
 21
1266.6095634127478
  0
LINE
  8
_0-b_free
  6
CONTINUOUS
 62
    7
 10
544.30482336035948
 20
1265.6095634127478
 11
544.30482336035948
 21
1193.609563412748
  0
ARC
  8
_0-b_free
  6
CONTINUOUS
 62
    7
 10
543.30482336035948
 20
1265.6095634127478
 40
1
 50
0
 51
90
  0
LINE
  8
_0-b_free
  6
CONTINUOUS
 62
    7
 10
447.30482336035948
 20
1265.6095634127478
 11
447.30482336035948
 21
1193.609563412748
  0
LINE
  8
_0-b_free
  6
CONTINUOUS
 62
    7
 10
448.30482336035942
 20
1266.6095634127478
 11
465.30482336035948
 21
1266.6095634127478
  0
ARC
  8
_0-b_free
  6
CONTINUOUS
 62
    7
 10
448.30482336035942
 20
1265.6095634127478
 40
1
 50
90
 51
180
  0
LINE
  8
_0-b_free
  6
DASHED2
 62
    7
 10
455.80482336035942
 20
1199.1095634127478
 11
455.80482336035942
 21
1261.6095634127478
  0
ARC
  8
_0-b_free
  6
DASHED2
 62
    7
 10
457.80482336035948
 20
1199.1095634127478
 40
2
 50
180
 51
270
  0
LINE
  8
_0-b_free
  6
DASHED2
 62
    7
 10
533.80482336035948
 20
1197.109563412748
 11
457.80482336035948
 21
1197.109563412748
  0
ARC
  8
_0-b_free
  6
DASHED2
 62
    7
 10
533.80482336035948
 20
1199.1095634127478
 40
2
 50
270
 51
0
  0
LINE
  8
_0-b_free
  6
DASHED2
 62
    7
 10
535.80482336035948
 20
1199.1095634127478
 11
535.80482336035948
 21
1261.6095634127478
  0
LINE
  8
_0-b_free
  6
DASHED2
 62
    7
 10
452.80482336035948
 20
1261.6095634127478
 11
455.80482336035942
 21
1261.6095634127478
  0
LINE
  8
_0-b_free
  6
DASHED1
 62
    7
 10
455.80482336035942
 20
1258.609563412748
 11
452.80482336035948
 21
1258.609563412748
  0
LINE
  8
_0-b_free
  6
DASHED1
 62
    7
 10
465.30482336035948
 20
1238.1095634127478
 11
455.80482336035942
 21
1238.1095634127478
  0
LINE
  8
_0-b_free
  6
DASHED1
 62
    7
 10
465.30482336035948
 20
1236.109563412748
 11
455.80482336035942
 21
1236.109563412748
  0
LINE
  8
_0-b_free
  6
DASHED2
 62
    7
 10
535.80482336035948
 20
1261.6095634127478
 11
538.80482336035948
 21
1261.6095634127478
  0
LINE
  8
_0-b_free
  6
DASHED1
 62
    7
 10
538.80482336035948
 20
1258.609563412748
 11
535.80482336035948
 21
1258.609563412748
  0
LINE
  8
_0-b_free
  6
DASHED1
 62
    7
 10
535.80482336035948
 20
1238.1095634127478
 11
526.30482336035948
 21
1238.1095634127478
  0
LINE
  8
_0-b_free
  6
DASHED1
 62
    7
 10
535.80482336035948
 20
1236.109563412748
 11
526.30482336035948
 21
1236.109563412748
  0
ARC
  8
_0-0_containe
  6
CONTINUOUS
 62
    4
 10
446.80481826427723
 20
1267.1095578913787
 40
5.0000000460267522
 50
354.26089316471183
 51
90
  0
ARC
  8
_0-0_containe
  6
CONTINUOUS
 62
    4
 10
544.80482845644133
 20
1267.1095578913787
 40
5.0000000460267522
 50
90
 51
185.73910683528814
  0
LINE
  8
_0-2_free
  6
CONTINUOUS
 62
    3
 10
539.80480518531522
 20
1277.1096044336309
 11
539.80480518531522
 21
1266.6095634127478
  0
LINE
  8
_0-2_free
  6
CONTINUOUS
 62
    3
 10
451.80484153540363
 20
1277.1096044336309
 11
451.80484153540363
 21
1266.6095634127478
  0
LINE
  8
_0-4_free
  6
CONTINUOUS
 62
    3
 10
1681.4240036968208
 20
1266.6095634127478
 11
1681.4240036968208
 21
1206.6095634127478
  0
POINT
  8
_0-4_free
 62
    5
 10
1681.4240036968208
 20
1266.6095634127478
  0
POINT
  8
_0-4_free
 62
    5
 10
1681.4240036968208
 20
1206.6095634127478
  0
LINE
  8
_0-4_free
  6
CONTINUOUS
 62
    4
 10
1681.4240036968208
 20
1266.6095634127478
 11
1703.7857782022279
 21
1266.6095634127478
  0
LINE
  8
_0-4_free
  6
CONTINUOUS
 62
    4
 10
1681.4240036968208
 20
1206.6095634127478
 11
1703.7857782022279
 21
1206.6095634127478
  0
TEXT
  8
_0-4_free
 62
    3
 10
1680.424003696821
 20
1227.0223286082814
 40
12.5
 41
1
 50
90
  1
６０
  0
LINE
  8
_0-4_free
  6
CONTINUOUS
 62
    3
 10
495.80482336035942
 20
1266.6095634127478
 11
495.80482336035942
 21
1206.6095634127478
  0
POINT
  8
_0-4_free
 62
    5
 10
495.80482336035942
 20
1266.6095634127478
  0
POINT
  8
_0-4_free
 62
    5
 10
495.80482336035942
 20
1206.6095634127478
  0
LINE
  8
_0-4_free
  6
CONTINUOUS
 62
    4
 10
495.80482336035942
 20
1266.6095634127478
 11
518.16659786576668
 21
1266.6095634127478
  0
LINE
  8
_0-4_free
  6
CONTINUOUS
 62
    4
 10
495.80482336035942
 20
1206.6095634127478
 11
518.16659786576668
 21
1206.6095634127478
  0
TEXT
  8
_0-7_word
 62
    3
 10
558.31553397567859
 20
1079.21781005813
 40
15
 41
1
 50
0
  1
Ａ部
  0
CIRCLE
  8
_0-8_free
  6
DASHED2
 62
    7
 10
495.80355549207786
 20
1112.4004009131399
 40
60
  0
TEXT
  8
_7-0_free
 62
    3
 10
1744.0138169476068
 20
1357.1531198946313
 40
12.5
 41
1
 50
0
  1
樹脂製
  0
TEXT
  8
_7-0_free
 62
    3
 10
1744.0138169476068
 20
1406.426293777231
 40
12.5
 41
1
 50
0
  1
樹脂製
  0
TEXT
  8
_7-0_free
 62
    3
 10
1743.6627312816317
 20
1382.3693958492699
 40
12.5
 41
1
 50
0
  1
ＮＲゴム
  0
LINE
  8
_7-0_free
  6
CONTINUOUS
 62
    7
 10
785.49933577547563
 20
257.226890490242
 11
55.499162052100246
 21
257.226890490242
  0
LINE
  8
_7-0_free
  6
CONTINUOUS
 62
    7
 10
785.49933577547563
 20
186.49206485712241
 11
785.49933577547563
 21
257.226890490242
  0
LINE
  8
_7-0_free
  6
CONTINUOUS
 62
    7
 10
162.0956864781347
 20
257.226890490242
 11
162.0956864781347
 21
231.35953192082161
  0
LINE
  8
_7-0_free
  6
CONTINUOUS
 62
    7
 10
162.0956864781347
 20
231.35953192082161
 11
55.499424735983496
 21
231.35953192082161
  0
TEXT
  8
_1-0_containe
 62
    3
 10
84.827680089017292
 20
236.99119826531779
 40
15
 41
1
 50
0
  1
付属品
  0
TEXT
  8
_0-4_free
 62
    3
 10
494.80482336035942
 20
1218.276293196363
 40
12.5
 41
1
 50
90
  1
６０
  0
LINE
  8
_1-0_containe
  6
CONTINUOUS
 62
    7
 10
492.84202291832389
 20
171.59961580126676
 11
502.84202291832389
 21
171.59961580126676
  0
LINE
  8
_1-0_containe
  6
CONTINUOUS
 62
    7
 10
502.84202291832389
 20
171.59961580126676
 11
502.84202291832389
 21
179.93294913460011
  0
LINE
  8
_1-0_containe
  6
CONTINUOUS
 62
    7
 10
502.84202291832389
 20
179.93294913460011
 11
492.84202291832389
 21
179.93294913460011
  0
LINE
  8
_1-0_containe
  6
CONTINUOUS
 62
    7
 10
492.84202291832389
 20
179.93294913460011
 11
492.84202291832389
 21
171.59961580126676
  0
LINE
  8
_1-0_containe
  6
CONTINUOUS
 62
    7
 10
489.50868958499052
 20
179.93294913460011
 11
506.17535625165721
 21
179.93294913460011
  0
LINE
  8
_1-0_containe
  6
CONTINUOUS
 62
    7
 10
506.17535625165721
 20
179.93294913460011
 11
506.17535625165721
 21
183.26628246793342
  0
LINE
  8
_1-0_containe
  6
CONTINUOUS
 62
    7
 10
506.17535625165721
 20
183.26628246793342
 11
489.50868958499052
 21
183.26628246793342
  0
LINE
  8
_1-0_containe
  6
CONTINUOUS
 62
    7
 10
489.50868958499052
 20
183.26628246793342
 11
489.50868958499052
 21
179.93294913460011
  0
LINE
  8
_1-0_containe
  6
CONTINUOUS
 62
    7
 10
350.44814785159218
 20
92.47643870892631
 11
338.63518914239791
 21
116.61258588281598
  0
LINE
  8
_1-0_containe
  6
CONTINUOUS
 62
    7
 10
422.46826247314823
 20
92.47643870892631
 11
434.28122118234239
 21
116.61258588281598
  0
LINE
  8
_1-0_containe
  6
CONTINUOUS
 62
    7
 10
350.44814785159218
 20
92.476438708926381
 11
350.44814785159218
 21
92.476438708926381
  0
LINE
  8
_1-0_containe
  6
CONTINUOUS
 62
    7
 10
350.44814785159218
 20
92.476438708926381
 11
351.93045400147639
 21
90.625061131556123
  0
LINE
  8
_1-0_containe
  6
CONTINUOUS
 62
    7
 10
351.93045400147639
 20
90.625061131556123
 11
354.46186839849923
 21
88.879030068110509
  0
LINE
  8
_1-0_containe
  6
CONTINUOUS
 62
    7
 10
354.46186839849923
 20
88.879030068110509
 11
357.96547529716469
 21
87.291397788917962
  0
LINE
  8
_1-0_containe
  6
CONTINUOUS
 62
    7
 10
357.96547529716469
 20
87.291397788917962
 11
362.33481937476739
 21
85.910403697401065
  0
LINE
  8
_1-0_containe
  6
CONTINUOUS
 62
    7
 10
362.33481937476739
 20
85.910403697401065
 11
367.43714032250421
 21
84.778008600213823
  0
LINE
  8
_1-0_containe
  6
CONTINUOUS
 62
    7
 10
367.43714032250421
 20
84.778008600213823
 11
373.11740670027712
 21
83.928619749364714
  0
LINE
  8
_1-0_containe
  6
CONTINUOUS
 62
    7
 10
373.11740670027712
 20
83.928619749364714
 11
379.20302648855102
 21
83.38804539527527
  0
LINE
  8
_1-0_containe
  6
CONTINUOUS
 62
    7
 10
379.20302648855102
 20
83.38804539527527
 11
385.50909120953128
 21
83.172710616150695
  0
LINE
  8
_1-0_containe
  6
CONTINUOUS
 62
    7
 10
385.50909120953128
 20
83.172710616150695
 11
391.84399427769381
 21
83.289158250290029
  0
LINE
  8
_1-0_containe
  6
CONTINUOUS
 62
    7
 10
391.84399427769381
 20
83.289158250290029
 11
398.01525286892797
 21
83.733850095255292
  0
LINE
  8
_1-0_containe
  6
CONTINUOUS
 62
    7
 10
398.01525286892797
 20
83.733850095255292
 11
403.83535641374669
 21
84.493274414362148
  0
LINE
  8
_1-0_containe
  6
CONTINUOUS
 62
    7
 10
403.83535641374669
 20
84.493274414362148
 11
409.12746401105517
 21
85.544356483961778
  0
LINE
  8
_1-0_containe
  6
CONTINUOUS
 62
    7
 10
409.12746401105517
 20
85.544356483961778
 11
413.7307776494448
 21
86.855159707242592
  0
LINE
  8
_1-0_containe
  6
CONTINUOUS
 62
    7
 10
413.7307776494448
 20
86.855159707242592
 11
417.50542797340228
 21
88.385855991563631
  0
LINE
  8
_1-0_containe
  6
CONTINUOUS
 62
    7
 10
417.50542797340228
 20
88.385855991563631
 11
420.33672414289936
 21
90.089935904895498
  0
LINE
  8
_1-0_containe
  6
CONTINUOUS
 62
    7
 10
420.33672414289936
 20
90.089935904895498
 11
422.13863865653082
 21
91.915621841377657
  0
LINE
  8
_1-0_containe
  6
CONTINUOUS
 62
    7
 10
422.13863865653082
 20
91.915621841377657
 11
422.46826247314829
 21
92.476438708926381
  0
CIRCLE
  8
_1-0_containe
  6
CONTINUOUS
 62
    7
 10
386.45820516237023
 20
120.11258588281599
 40
3.5000000000000009
  0
CIRCLE
  8
_1-0_containe
  6
CONTINUOUS
 62
    7
 10
387.61243150001292
 20
127.4933412387756
 40
3.5000000000000009
  0
CIRCLE
  8
_1-0_containe
  6
CONTINUOUS
 62
    7
 10
390.09356653630505
 20
133.94429233313497
 40
3.5000000000000009
  0
CIRCLE
  8
_1-0_containe
  6
CONTINUOUS
 62
    7
 10
416.64171142462999
 20
151.56035109080852
 40
3.5000000000000009
  0
CIRCLE
  8
_1-0_containe
  6
CONTINUOUS
 62
    7
 10
428.55115959883187
 20
146.34996751459525
 40
3.5000000000000009
  0
CIRCLE
  8
_1-0_containe
  6
CONTINUOUS
 62
    7
 10
438.72381324762927
 20
137.66599488757299
 40
3.5000000000000009
  0
CIRCLE
  8
_1-0_containe
  6
CONTINUOUS
 62
    7
 10
445.17476434198852
 20
125.50843320974195
 40
3.5000000000000009
  0
CIRCLE
  8
_1-0_containe
  6
CONTINUOUS
 62
    7
 10
450.13703441457267
 20
120.5461631371579
 40
3.5000000000000009
  0
CIRCLE
  8
_1-0_containe
  6
CONTINUOUS
 62
    7
 10
463.28705010692056
 20
116.57634707909061
 40
3.5000000000000009
  0
LINE
  8
_1-0_containe
  6
CONTINUOUS
 62
    7
 10
384.373030765544
 20
126.16809300485056
 11
384.373030765544
 21
126.16809300485056
  0
LINE
  8
_1-0_containe
  6
CONTINUOUS
 62
    7
 10
384.373030765544
 20
126.16809300485056
 11
376.10822725786983
 21
125.95050603373369
  0
LINE
  8
_1-0_containe
  6
CONTINUOUS
 62
    7
 10
376.10822725786983
 20
125.95050603373369
 11
368.15790259148235
 21
125.44919108404677
  0
LINE
  8
_1-0_containe
  6
CONTINUOUS
 62
    7
 10
368.15790259148235
 20
125.44919108404677
 11
360.76362335831141
 21
124.67938035685845
  0
LINE
  8
_1-0_containe
  6
CONTINUOUS
 62
    7
 10
360.76362335831141
 20
124.67938035685845
 11
354.15006099117096
 21
123.66446416157129
  0
LINE
  8
_1-0_containe
  6
CONTINUOUS
 62
    7
 10
354.15006099117096
 20
123.66446416157129
 11
348.51816523596267
 21
122.43528021320675
  0
LINE
  8
_1-0_containe
  6
CONTINUOUS
 62
    7
 10
348.51816523596267
 20
122.43528021320675
 11
344.03905839533172
 21
121.0291766440388
  0
LINE
  8
_1-0_containe
  6
CONTINUOUS
 62
    7
 10
344.03905839533172
 20
121.0291766440388
 11
340.84883586409325
 21
119.48887719949384
  0
LINE
  8
_1-0_containe
  6
CONTINUOUS
 62
    7
 10
340.84883586409325
 20
119.48887719949384
 11
339.04443093952847
 21
117.86118309876525
  0
LINE
  8
_1-0_containe
  6
CONTINUOUS
 62
    7
 10
339.04443093952847
 20
117.86118309876525
 11
338.68066955219729
 21
116.19555100345073
  0
LINE
  8
_1-0_containe
  6
CONTINUOUS
 62
    7
 10
338.68066955219729
 20
116.19555100345073
 11
339.76860440778171
 21
114.54259030191589
  0
LINE
  8
_1-0_containe
  6
CONTINUOUS
 62
    7
 10
339.76860440778171
 20
114.54259030191589
 11
342.27517915621627
 21
112.9525253686384
  0
LINE
  8
_1-0_containe
  6
CONTINUOUS
 62
    7
 10
342.27517915621627
 20
112.9525253686384
 11
346.12423279215795
 21
111.4736695220042
  0
LINE
  8
_1-0_containe
  6
CONTINUOUS
 62
    7
 10
346.12423279215795
 20
111.4736695220042
 11
351.19881376859365
 21
110.15095704857613
  0
LINE
  8
_1-0_containe
  6
CONTINUOUS
 62
    7
 10
351.19881376859365
 20
110.15095704857613
 11
357.34473351041629
 21
109.02457789753447
  0
LINE
  8
_1-0_containe
  6
CONTINUOUS
 62
    7
 10
357.34473351041629
 20
109.02457789753447
 11
364.37525135625611
 21
108.12875652940828
  0
LINE
  8
_1-0_containe
  6
CONTINUOUS
 62
    7
 10
364.37525135625611
 20
108.12875652940828
 11
372.07674857898087
 21
107.49071202316058
  0
LINE
  8
_1-0_containe
  6
CONTINUOUS
 62
    7
 10
372.07674857898087
 20
107.49071202316058
 11
380.21521908262378
 21
107.12983103824763
  0
LINE
  8
_1-0_containe
  6
CONTINUOUS
 62
    7
 10
380.21521908262378
 20
107.12983103824763
 11
388.54337955919635
 21
107.05707876078139
  0
LINE
  8
_1-0_containe
  6
CONTINUOUS
 62
    7
 10
388.54337955919635
 20
107.05707876078139
 11
396.80818306687053
 21
107.27466573189827
  0
LINE
  8
_1-0_containe
  6
CONTINUOUS
 62
    7
 10
396.80818306687053
 20
107.27466573189827
 11
404.758507733258
 21
107.77598068158518
  0
LINE
  8
_1-0_containe
  6
CONTINUOUS
 62
    7
 10
404.758507733258
 20
107.77598068158518
 11
412.15278696642901
 21
108.54579140877351
  0
LINE
  8
_1-0_containe
  6
CONTINUOUS
 62
    7
 10
412.15278696642901
 20
108.54579140877351
 11
418.76634933356939
 21
109.56070760406064
  0
LINE
  8
_1-0_containe
  6
CONTINUOUS
 62
    7
 10
418.76634933356939
 20
109.56070760406064
 11
424.39824508877774
 21
110.78989155242519
  0
LINE
  8
_1-0_containe
  6
CONTINUOUS
 62
    7
 10
424.39824508877774
 20
110.78989155242519
 11
428.87735192940869
 21
112.19599512159314
  0
LINE
  8
_1-0_containe
  6
CONTINUOUS
 62
    7
 10
428.87735192940869
 20
112.19599512159314
 11
432.06757446064717
 21
113.7362945661381
  0
LINE
  8
_1-0_containe
  6
CONTINUOUS
 62
    7
 10
432.06757446064717
 20
113.7362945661381
 11
433.871979385212
 21
115.36398866686667
  0
LINE
  8
_1-0_containe
  6
CONTINUOUS
 62
    7
 10
433.871979385212
 20
115.36398866686667
 11
434.23574077254318
 21
117.0296207621812
  0
LINE
  8
_1-0_containe
  6
CONTINUOUS
 62
    7
 10
434.23574077254318
 20
117.0296207621812
 11
433.14780591695882
 21
118.68258146371603
  0
LINE
  8
_1-0_containe
  6
CONTINUOUS
 62
    7
 10
433.14780591695882
 20
118.68258146371603
 11
430.64123116852426
 21
120.27264639699352
  0
LINE
  8
_1-0_containe
  6
CONTINUOUS
 62
    7
 10
430.64123116852426
 20
120.27264639699352
 11
426.79217753258263
 21
121.75150224362773
  0
LINE
  8
_1-0_containe
  6
CONTINUOUS
 62
    7
 10
426.79217753258263
 20
121.75150224362773
 11
421.71759655614693
 21
123.07421471705581
  0
LINE
  8
_1-0_containe
  6
CONTINUOUS
 62
    7
 10
421.71759655614693
 20
123.07421471705581
 11
415.57167681432429
 21
124.20059386809747
  0
LINE
  8
_1-0_containe
  6
CONTINUOUS
 62
    7
 10
415.57167681432429
 20
124.20059386809747
 11
408.54115896848447
 21
125.09641523622366
  0
LINE
  8
_1-0_containe
  6
CONTINUOUS
 62
    7
 10
408.54115896848447
 20
125.09641523622366
 11
400.83966174575971
 21
125.73445974247136
  0
LINE
  8
_1-0_containe
  6
CONTINUOUS
 62
    7
 10
400.83966174575971
 20
125.73445974247136
 11
392.70119124211686
 21
126.09534072738433
  0
LINE
  8
_1-0_containe
  6
CONTINUOUS
 62
    7
 10
392.70119124211686
 20
126.09534072738433
 11
390.83892698442617
 21
126.13697591591371
  0
ARC
  8
_1-0_containe
  6
CONTINUOUS
 62
    7
 10
409.44641981938304
 20
151.06412408355013
 40
3.5000000000000009
 50
218.25959959161082
 51
189.2393893941225
  0
ARC
  8
_1-0_containe
  6
CONTINUOUS
 62
    7
 10
403.243582228653
 20
148.33487554362881
 40
3.5000000000000009
 50
223.10072964045446
 51
193.78512760827206
  0
ARC
  8
_1-0_containe
  6
CONTINUOUS
 62
    7
 10
422.59643551173093
 20
149.82355656540406
 40
3.5000000000000009
 50
191.35017229524098
 51
136.12941828813518
  0
ARC
  8
_1-0_containe
  6
CONTINUOUS
 62
    7
 10
434.00965667867433
 20
142.8763784637863
 40
3.5000000000000009
 50
169.96773121927669
 51
125.08988419902624
  0
ARC
  8
_1-0_containe
  6
CONTINUOUS
 62
    7
 10
441.70117529117977
 20
131.95938430410132
 40
3.5000000000000009
 50
140.69719876560765
 51
94.408424387827836
  0
ARC
  8
_1-0_containe
  6
CONTINUOUS
 62
    7
 10
456.58798550893198
 20
116.57634707909061
 40
3.5000000000000009
 50
16.861396809366727
 51
343.13860319063326
  0
ARC
  8
_1-0_containe
  6
CONTINUOUS
 62
    7
 10
393.07092857985566
 20
139.89901642023591
 40
3.5000000000000009
 50
261.42996030703529
 51
225.43993733880879
  0
ARC
  8
_1-0_containe
  6
CONTINUOUS
 62
    7
 10
397.28885814155205
 20
145.10939999644918
 40
3.5000000000000009
 50
247.74030238317326
 51
214.27770953181579
  0
ARC
  8
_1-0_containe
  6
CONTINUOUS
 62
    7
 10
469.73800120127987
 20
118.80936861175343
 40
3.5000000000000009
 50
211.87654548088003
 51
186.3104385200912
  0
CIRCLE
  8
_1-0_containe
  6
CONTINUOUS
 62
    7
 10
482.66565100541879
 20
142.89814439983346
 40
3.5000000000000009
  0
CIRCLE
  8
_1-0_containe
  6
CONTINUOUS
 62
    7
 10
487.9705142494148
 20
148.44413779128382
 40
3.5000000000000009
  0
CIRCLE
  8
_1-0_containe
  6
CONTINUOUS
 62
    7
 10
492.79311719850205
 20
154.23126133018854
 40
3.5000000000000009
  0
ARC
  8
_1-0_containe
  6
CONTINUOUS
 62
    7
 10
470.95996779750891
 20
137.47802460556329
 40
10.907641558478678
 50
194.8083770390424
 51
290.85445803957833
  0
ARC
  8
_1-0_containe
  6
CONTINUOUS
 62
    7
 10
478.7261066572421
 20
117.09191009876363
 40
10.907641558478678
 50
14.808377039042393
 51
110.85445803957835
  0
ARC
  8
_1-0_containe
  6
CONTINUOUS
 62
    7
 10
477.71161192623094
 20
144.22966873428544
 40
10.907641558478678
 50
194.8083770390424
 51
290.85445803957833
  0
ARC
  8
_1-0_containe
  6
CONTINUOUS
 62
    7
 10
485.47775078596425
 20
123.84355422748577
 40
10.907641558478678
 50
14.808377039042393
 51
110.85445803957835
  0
ARC
  8
_1-0_containe
  6
CONTINUOUS
 62
    7
 10
473.21159025208874
 20
125.01220620248354
 40
3.5000000000000009
 50
152.93441384684968
 51
46.448915086057013
  0
ARC
  8
_1-0_containe
  6
CONTINUOUS
 62
    7
 10
479.34629299795154
 20
135.90537012365695
 40
3.5000000000000009
 50
333.22377234245653
 51
226.93859070841287
  0
CIRCLE
  8
_1-0_containe
  6
CONTINUOUS
 62
    7
 10
496.80789549913237
 20
160.13910114868196
 40
3.5000000000000009
  0
CIRCLE
  8
_1-0_containe
  6
CONTINUOUS
 62
    7
 10
498.08439698294626
 20
167.37260955696121
 40
3.5000000000000009
  0
LINE
  8
_1-0_containe
  6
CONTINUOUS
 62
    7
 10
494.50868958499052
 20
183.26628246793342
 11
501.17535625165721
 21
183.26628246793342
  0
LINE
  8
_1-0_containe
  6
CONTINUOUS
 62
    7
 10
501.17535625165721
 20
183.26628246793342
 11
501.17535625165721
 21
233.26628246793342
  0
LINE
  8
_1-0_containe
  6
CONTINUOUS
 62
    7
 10
501.17535625165721
 20
233.26628246793342
 11
494.50868958499052
 21
233.26628246793342
  0
LINE
  8
_1-0_containe
  6
CONTINUOUS
 62
    7
 10
494.50868958499052
 20
233.26628246793342
 11
494.50868958499052
 21
183.26628246793342
  0
LINE
  8
_1-0_containe
  6
CONTINUOUS
 62
    7
 10
494.24236837863481
 20
230.83415969822184
 11
501.44167745801292
 21
231.9140560601285
  0
LINE
  8
_1-0_containe
  6
CONTINUOUS
 62
    7
 10
494.24236837863481
 20
228.47004852743174
 11
501.44167745801292
 21
229.54994488933849
  0
LINE
  8
_1-0_containe
  6
CONTINUOUS
 62
    7
 10
494.24236837863481
 20
226.10593735664168
 11
501.44167745801292
 21
227.18583371854839
  0
LINE
  8
_1-0_containe
  6
CONTINUOUS
 62
    7
 10
494.24236837863481
 20
223.74182618585166
 11
501.44167745801292
 21
224.82172254775833
  0
LINE
  8
_1-0_containe
  6
CONTINUOUS
 62
    7
 10
494.24236837863481
 20
221.3777150150616
 11
501.44167745801292
 21
222.45761137696832
  0
LINE
  8
_1-0_containe
  6
CONTINUOUS
 62
    7
 10
494.24236837863481
 20
219.0136038442715
 11
501.44167745801292
 21
220.09350020617825
  0
LINE
  8
_1-0_containe
  6
CONTINUOUS
 62
    7
 10
494.24236837863481
 20
216.64949267348149
 11
501.44167745801292
 21
217.72938903538815
  0
LINE
  8
_1-0_containe
  6
CONTINUOUS
 62
    7
 10
494.24236837863481
 20
214.28538150269139
 11
501.44167745801292
 21
215.36527786459814
  0
LINE
  8
_1-0_containe
  6
CONTINUOUS
 62
    7
 10
494.24236837863481
 20
211.92127033190133
 11
501.44167745801292
 21
213.00116669380805
  0
LINE
  8
_1-0_containe
  6
CONTINUOUS
 62
    7
 10
494.24236837863481
 20
209.55715916111131
 11
501.44167745801292
 21
210.63705552301798
  0
LINE
  8
_1-0_containe
  6
CONTINUOUS
 62
    7
 10
494.24236837863481
 20
207.19304799032125
 11
501.44167745801292
 21
208.27294435222797
  0
LINE
  8
_1-0_containe
  6
CONTINUOUS
 62
    7
 10
494.24236837863481
 20
204.82893681953115
 11
501.44167745801292
 21
205.9088331814379
  0
LINE
  8
_1-0_containe
  6
CONTINUOUS
 62
    7
 10
494.24236837863481
 20
202.46482564874114
 11
501.44167745801292
 21
203.5447220106478
  0
LINE
  8
_1-0_containe
  6
CONTINUOUS
 62
    7
 10
494.24236837863481
 20
200.10071447795104
 11
501.44167745801292
 21
201.18061083985779
  0
LINE
  8
_1-0_containe
  6
CONTINUOUS
 62
    7
 10
494.24236837863481
 20
197.73660330716098
 11
501.44167745801292
 21
198.8164996690677
  0
LINE
  8
_1-0_containe
  6
CONTINUOUS
 62
    7
 10
494.24236837863481
 20
195.37249213637097
 11
501.44167745801292
 21
196.45238849827763
  0
LINE
  8
_1-0_containe
  6
CONTINUOUS
 62
    7
 10
494.24236837863481
 20
193.0083809655809
 11
501.44167745801292
 21
194.08827732748762
  0
LINE
  8
_1-0_containe
  6
CONTINUOUS
 62
    7
 10
494.24236837863481
 20
190.6442697947908
 11
501.44167745801292
 21
191.72416615669755
  0
LINE
  8
_1-0_containe
  6
CONTINUOUS
 62
    7
 10
494.24236837863481
 20
188.28015862400079
 11
501.44167745801292
 21
189.36005498590745
  0
LINE
  8
_1-0_containe
  6
CONTINUOUS
 62
    7
 10
494.24236837863481
 20
185.91604745321069
 11
501.44167745801292
 21
186.99594381511744
  0
LINE
  8
_1-0_containe
  6
CONTINUOUS
 62
    7
 10
494.24236837863481
 20
183.55193628242063
 11
501.44167745801292
 21
184.63183264432735
  0
LINE
  8
_1-0_containe
  6
CONTINUOUS
 62
    7
 10
491.17535625165721
 20
242.25298565537798
 11
504.50868958499052
 21
242.25298565537798
  0
LINE
  8
_1-0_containe
  6
CONTINUOUS
 62
    7
 10
504.50868958499052
 20
242.25298565537798
 11
504.50868958499052
 21
238.08631898871127
  0
LINE
  8
_1-0_containe
  6
CONTINUOUS
 62
    7
 10
504.50868958499052
 20
238.08631898871127
 11
491.17535625165721
 21
238.08631898871127
  0
LINE
  8
_1-0_containe
  6
CONTINUOUS
 62
    7
 10
491.17535625165721
 20
238.08631898871127
 11
491.17535625165721
 21
242.25298565537798
  0
LINE
  8
_1-0_containe
  6
CONTINUOUS
 62
    7
 10
494.00868958499052
 20
238.08631898871127
 11
494.00868958499052
 21
242.25298565537798
  0
LINE
  8
_1-0_containe
  6
CONTINUOUS
 62
    7
 10
501.67535625165721
 20
242.25298565537798
 11
501.67535625165721
 21
238.08631898871127
  0
LINE
  8
_1-0_containe
  6
CONTINUOUS
 62
    7
 10
489.50868958499052
 20
235.8890764349691
 11
506.17535625165721
 21
235.8890764349691
  0
LINE
  8
_1-0_containe
  6
CONTINUOUS
 62
    7
 10
506.17535625165721
 20
235.8890764349691
 11
506.17535625165721
 21
235.05574310163576
  0
LINE
  8
_1-0_containe
  6
CONTINUOUS
 62
    7
 10
506.17535625165721
 20
235.05574310163576
 11
489.50868958499052
 21
235.05574310163576
  0
LINE
  8
_1-0_containe
  6
CONTINUOUS
 62
    7
 10
489.50868958499052
 20
235.05574310163576
 11
489.50868958499052
 21
235.8890764349691
  0
TEXT
  8
_1-0_containe
 62
    3
 10
383.18331201479214
 20
49.392089132609698
 40
15
 41
1
 50
0
  1
②ゴム栓
  0
ARC
  8
_1-0_containe
  6
CONTINUOUS
 62
    7
 10
574.06786116175067
 20
100.17016011128561
 40
8.3333333333333321
 50
180
 51
270
  0
LINE
  8
_1-0_containe
  6
CONTINUOUS
 62
    7
 10
719.06786116175067
 20
91.836826777952467
 11
574.06786116175067
 21
91.836826777952467
  0
ARC
  8
_1-0_containe
  6
CONTINUOUS
 62
    7
 10
719.06786116175067
 20
100.17016011128561
 40
8.3333333333333321
 50
270
 51
0
  0
ARC
  8
_1-0_containe
  6
CONTINUOUS
 62
    7
 10
646.56786116175067
 20
172.67016011128567
 40
50.833333333333329
 50
180
 51
0
  0
LINE
  8
_1-0_containe
  6
CONTINUOUS
 62
    7
 10
697.40119449508381
 20
172.67016011128567
 11
697.40119449508381
 21
221.83682677795241
  0
LINE
  8
_1-0_containe
  6
CONTINUOUS
 62
    7
 10
595.7345278284173
 20
172.67016011128567
 11
595.7345278284173
 21
221.83682677795241
  0
LINE
  8
_1-0_containe
  6
CONTINUOUS
 62
    7
 10
725.7345278284173
 20
221.83682677795241
 11
697.40119449508381
 21
221.83682677795241
  0
LINE
  8
_1-0_containe
  6
CONTINUOUS
 62
    7
 10
727.40119449508381
 20
220.17016011128575
 11
727.40119449508381
 21
100.17016011128561
  0
ARC
  8
_1-0_containe
  6
CONTINUOUS
 62
    7
 10
725.7345278284173
 20
220.17016011128575
 40
1.6666666666666665
 50
0
 51
90
  0
LINE
  8
_1-0_containe
  6
CONTINUOUS
 62
    7
 10
565.7345278284173
 20
220.17016011128575
 11
565.7345278284173
 21
100.17016011128561
  0
LINE
  8
_1-0_containe
  6
CONTINUOUS
 62
    7
 10
567.40119449508381
 20
221.83682677795241
 11
595.7345278284173
 21
221.83682677795241
  0
ARC
  8
_1-0_containe
  6
CONTINUOUS
 62
    7
 10
567.40119449508381
 20
220.17016011128575
 40
1.6666666666666665
 50
90
 51
180
  0
TEXT
  8
_1-0_containe
 62
    3
 10
593.87010837861669
 20
49.622598834451992
 40
15
 41
1
 50
0
  1
③アジャスター
  0
TEXT
  8
_8-0_free
 62
    7
 10
1960.3284522514191
 20
395.13613517000636
 40
15
 41
1
 50
0
  1
(付属品）
  0
TEXT
  8
_7-0_free
 62
    3
 10
1915.5310509376034
 20
268.12811825830954
 40
15
 41
1
 50
0
  1
寸法誤差／±５
  0
LINE
  8
_0-4_free
  6
CONTINUOUS
 62
    4
 10
465.30482336035948
 20
1287.0484605806018
 11
465.30482336035948
 21
1279.0471351279518
  0
POINT
  8
_0-4_free
 62
    5
 10
465.30482336035948
 20
1287.0484605806018
  0
LINE
  8
_0-4_free
  6
CONTINUOUS
 62
    4
 10
526.30482336035948
 20
1287.0484605806018
 11
526.30482336035948
 21
1279.0471351279518
  0
POINT
  8
_0-4_free
 62
    5
 10
526.30482336035948
 20
1287.0484605806018
  0
TEXT
  8
_0-4_free
 62
    3
 10
482.17626932916403
 20
1289.4094932212136
 40
12.5
 41
1
 50
0
  1
６１
  0
LINE
  8
_0-b_free
  6
CONTINUOUS
 62
    3
 10
805.80490363101603
 20
1206.6095634127478
 11
805.80490363101603
 21
1107.1095564185225
  0
POINT
  8
_0-b_free
 62
    5
 10
805.80490363101603
 20
1206.6095634127478
  0
POINT
  8
_0-b_free
 62
    5
 10
805.80490363101603
 20
1107.1095564185225
  0
LINE
  8
_0-b_free
  6
CONTINUOUS
 62
    4
 10
805.80490363101603
 20
1206.6095634127478
 11
495.80482336035942
 21
1206.6095634127478
  0
LINE
  8
_0-b_free
  6
CONTINUOUS
 62
    4
 10
805.80490363101603
 20
1107.1095564185225
 11
495.80482336035942
 21
1107.1095564185225
  0
TEXT
  8
_0-b_free
 62
    3
 10
804.80490363101603
 20
1131.8595599156351
 40
12.5
 41
1
 50
90
  1
９９．５
  0
LINE
  8
_8-0_free
  6
CONTINUOUS
 62
    7
 10
120.92757954471139
 20
187.58085199339675
 11
120.92757954471139
 21
192.5808684893849
  0
LINE
  8
_8-0_free
  6
CONTINUOUS
 62
    7
 10
240.92760428869354
 20
187.58060455357409
 11
240.92760428869354
 21
192.58062104956224
  0
LINE
  8
_8-0_free
  6
CONTINUOUS
 62
    7
 10
240.92760428869354
 20
187.58085199339675
 11
230.92757129671725
 21
187.58085199339675
  0
LINE
  8
_8-0_free
  6
CONTINUOUS
 62
    7
 10
130.92761253668769
 20
187.58085199339675
 11
120.92757954471139
 21
187.58085199339675
  0
LINE
  8
_8-0_free
  6
CONTINUOUS
 62
    4
 10
240.92760428869354
 20
192.5808684893849
 11
120.92757954471139
 21
192.5808684893849
  0
LINE
  8
_8-0_free
  6
CONTINUOUS
 62
    7
 10
240.92748056878236
 20
192.5808684893849
 11
240.92748056878236
 21
187.58085199339675
  0
LINE
  8
_8-0_free
  6
CONTINUOUS
 62
    7
 10
120.92745582480006
 20
187.58085199339675
 11
120.92745582480006
 21
192.5808684893849
  0
LINE
  8
_8-0_free
  6
CONTINUOUS
 62
    7
 10
120.92745582480006
 20
192.5808684893849
 11
137.17744757680592
 21
192.5808684893849
  0
LINE
  8
_8-0_free
  6
CONTINUOUS
 62
    7
 10
224.67748881677636
 20
192.5808684893849
 11
240.92748056878236
 21
192.5808684893849
  0
LINE
  8
_8-0_free
  6
CONTINUOUS
 62
    7
 10
133.34559448347818
 20
187.58085199339675
 11
120.92745582480006
 21
187.58085199339675
  0
LINE
  8
_8-0_free
  6
CONTINUOUS
 62
    7
 10
240.92748056878236
 20
187.58085199339675
 11
228.50934191010396
 21
187.58085199339675
  0
LINE
  8
_8-0_free
  6
CONTINUOUS
 62
    4
 10
137.17744757680592
 20
192.5808684893849
 11
224.67748881677636
 21
192.5808684893849
  0
LINE
  8
_8-0_free
  6
CONTINUOUS
 62
    4
 10
145.92753830474095
 20
92.580847869399605
 11
215.92752180875266
 21
92.580847869399605
  0
LINE
  8
_8-0_free
  6
CONTINUOUS
 62
    7
 10
140.92752180875266
 20
92.580847869399605
 11
145.92753830474095
 21
92.580847869399605
  0
LINE
  8
_8-0_free
  6
CONTINUOUS
 62
    7
 10
215.92752180875266
 20
92.580847869399605
 11
220.92753830474095
 21
92.580847869399605
  0
LINE
  8
_8-0_free
  6
CONTINUOUS
 62
    7
 10
140.92752180875266
 20
165.0808396214056
 11
140.92752180875266
 21
92.580847869399605
  0
LINE
  8
_8-0_free
  6
CONTINUOUS
 62
    7
 10
133.34559448347818
 20
187.58085199339675
 11
140.92752180875266
 21
165.0808396214056
  0
LINE
  8
_8-0_free
  6
CONTINUOUS
 62
    7
 10
228.50934191010396
 20
187.58085199339675
 11
220.92753830474095
 21
165.0808396214056
  0
LINE
  8
_8-0_free
  6
CONTINUOUS
 62
    7
 10
220.92753830474095
 20
165.0808396214056
 11
220.92753830474095
 21
92.580847869399605
  0
LINE
  8
_8-0_free
  6
CONTINUOUS
 62
    7
 10
240.92748056878222
 20
187.58085199339675
 11
240.92748056878222
 21
192.5808684893849
  0
LINE
  8
_8-0_free
  6
CONTINUOUS
 62
    7
 10
240.92760428869354
 20
187.58085199339675
 11
240.92760428869354
 21
192.5808684893849
  0
LINE
  8
_8-0_free
  6
CONTINUOUS
 62
    4
 10
133.34559448347818
 20
187.58085199339675
 11
230.92757129671725
 21
187.58085199339675
  0
ARC
  8
_8-0_free
  6
CONTINUOUS
 62
    7
 10
180.92753005674695
 20
165.0808396214056
 40
5.0000000644374545
 50
0
 51
180
  0
ARC
  8
_8-0_free
  6
CONTINUOUS
 62
    7
 10
180.92753005674695
 20
165.0808396214056
 40
5.0000000644374545
 50
180
 51
0
  0
LINE
  8
_8-0_free
  6
CONTINUOUS
 62
    4
 10
140.92752180875266
 20
165.0808396214056
 11
175.92752999230953
 21
165.0808396214056
  0
LINE
  8
_8-0_free
  6
CONTINUOUS
 62
    4
 10
185.92753012118436
 20
165.0808396214056
 11
220.92753830474095
 21
165.0808396214056
  0
TEXT
  8
_1-0_containe
 62
    3
 10
143.98364559956065
 20
49.392089132609698
 40
15
 41
1
 50
0
  1
①排水下口
  0
TEXT
  8
_7-0_free
 62
    3
 10
1762.8016545004675
 20
152.93216399873316
 40
15
 41
1
 50
0
  1
2016.9.28
  0
ENDSEC
  0
EOF
