  0
SECTION
  2
HEADER
  9
$ACADVER
  1
AC1015
  9
$ACADMAINTVER
 70
     6
  9
$DWGCODEPAGE
  3
ANSI_932
  9
$INSBASE
 10
0.0
 20
0.0
 30
0.0
  9
$EXTMIN
 10
-64.728676083614
 20
63.2021728326086
 30
0.0
  9
$EXTMAX
 10
220.251410726252
 20
374.439071112191
 30
0.0
  9
$LIMMIN
 10
0.0
 20
0.0
  9
$LIMMAX
 10
12.0
 20
9.0
  9
$ORTHOMODE
 70
     0
  9
$REGENMODE
 70
     1
  9
$FILLMODE
 70
     1
  9
$QTEXTMODE
 70
     0
  9
$MIRRTEXT
 70
     1
  9
$LTSCALE
 40
1.0
  9
$ATTMODE
 70
     1
  9
$TEXTSIZE
 40
0.2
  9
$TRACEWID
 40
0.05
  9
$TEXTSTYLE
  7
Standard
  9
$CLAYER
  8
0
  9
$CELTYPE
  6
ByLayer
  9
$CECOLOR
 62
   256
  9
$CELTSCALE
 40
1.0
  9
$DISPSILH
 70
     0
  9
$DIMSCALE
 40
1.0
  9
$DIMASZ
 40
0.18
  9
$DIMEXO
 40
0.0625
  9
$DIMDLI
 40
0.38
  9
$DIMRND
 40
0.0
  9
$DIMDLE
 40
0.0
  9
$DIMEXE
 40
0.18
  9
$DIMTP
 40
0.0
  9
$DIMTM
 40
0.0
  9
$DIMTXT
 40
0.18
  9
$DIMCEN
 40
0.09
  9
$DIMTSZ
 40
0.0
  9
$DIMTOL
 70
     0
  9
$DIMLIM
 70
     0
  9
$DIMTIH
 70
     1
  9
$DIMTOH
 70
     1
  9
$DIMSE1
 70
     0
  9
$DIMSE2
 70
     0
  9
$DIMTAD
 70
     0
  9
$DIMZIN
 70
     0
  9
$DIMBLK
  1

  9
$DIMASO
 70
     1
  9
$DIMSHO
 70
     1
  9
$DIMPOST
  1

  9
$DIMAPOST
  1

  9
$DIMALT
 70
     0
  9
$DIMALTD
 70
     2
  9
$DIMALTF
 40
25.4
  9
$DIMLFAC
 40
1.0
  9
$DIMTOFL
 70
     0
  9
$DIMTVP
 40
0.0
  9
$DIMTIX
 70
     0
  9
$DIMSOXD
 70
     0
  9
$DIMSAH
 70
     0
  9
$DIMBLK1
  1

  9
$DIMBLK2
  1

  9
$DIMSTYLE
  2
Standard
  9
$DIMCLRD
 70
     0
  9
$DIMCLRE
 70
     0
  9
$DIMCLRT
 70
     0
  9
$DIMTFAC
 40
1.0
  9
$DIMGAP
 40
0.09
  9
$DIMJUST
 70
     0
  9
$DIMSD1
 70
     0
  9
$DIMSD2
 70
     0
  9
$DIMTOLJ
 70
     1
  9
$DIMTZIN
 70
     0
  9
$DIMALTZ
 70
     0
  9
$DIMALTTZ
 70
     0
  9
$DIMUPT
 70
     0
  9
$DIMDEC
 70
     4
  9
$DIMTDEC
 70
     4
  9
$DIMALTU
 70
     2
  9
$DIMALTTD
 70
     2
  9
$DIMTXSTY
  7
Standard
  9
$DIMAUNIT
 70
     0
  9
$DIMADEC
 70
     0
  9
$DIMALTRND
 40
0.0
  9
$DIMAZIN
 70
     0
  9
$DIMDSEP
 70
    46
  9
$DIMATFIT
 70
     3
  9
$DIMFRAC
 70
     0
  9
$DIMLDRBLK
  1

  9
$DIMLUNIT
 70
     2
  9
$DIMLWD
 70
    -2
  9
$DIMLWE
 70
    -2
  9
$DIMTMOVE
 70
     0
  9
$LUNITS
 70
     2
  9
$LUPREC
 70
     4
  9
$SKETCHINC
 40
0.1
  9
$FILLETRAD
 40
0.5
  9
$AUNITS
 70
     0
  9
$AUPREC
 70
     0
  9
$MENU
  1
.
  9
$ELEVATION
 40
0.0
  9
$PELEVATION
 40
0.0
  9
$THICKNESS
 40
0.0
  9
$LIMCHECK
 70
     0
  9
$CHAMFERA
 40
0.5
  9
$CHAMFERB
 40
0.5
  9
$CHAMFERC
 40
1.0
  9
$CHAMFERD
 40
0.0
  9
$SKPOLY
 70
     0
  9
$TDCREATE
 40
2457582.699830185
  9
$TDUCREATE
 40
2457582.324830185
  9
$TDUPDATE
 40
2457582.699830197
  9
$TDUUPDATE
 40
2457582.324830197
  9
$TDINDWG
 40
0.0000000116
  9
$TDUSRTIMER
 40
0.0000000116
  9
$USRTIMER
 70
     1
  9
$ANGBASE
 50
0.0
  9
$ANGDIR
 70
     0
  9
$PDMODE
 70
     0
  9
$PDSIZE
 40
0.0
  9
$PLINEWID
 40
0.0
  9
$SPLFRAME
 70
     0
  9
$SPLINETYPE
 70
     6
  9
$SPLINESEGS
 70
     8
  9
$HANDSEED
  5
230
  9
$SURFTAB1
 70
     6
  9
$SURFTAB2
 70
     6
  9
$SURFTYPE
 70
     6
  9
$SURFU
 70
     6
  9
$SURFV
 70
     6
  9
$UCSBASE
  2

  9
$UCSNAME
  2

  9
$UCSORG
 10
0.0
 20
0.0
 30
0.0
  9
$UCSXDIR
 10
1.0
 20
0.0
 30
0.0
  9
$UCSYDIR
 10
0.0
 20
1.0
 30
0.0
  9
$UCSORTHOREF
  2

  9
$UCSORTHOVIEW
 70
     0
  9
$UCSORGTOP
 10
0.0
 20
0.0
 30
0.0
  9
$UCSORGBOTTOM
 10
0.0
 20
0.0
 30
0.0
  9
$UCSORGLEFT
 10
0.0
 20
0.0
 30
0.0
  9
$UCSORGRIGHT
 10
0.0
 20
0.0
 30
0.0
  9
$UCSORGFRONT
 10
0.0
 20
0.0
 30
0.0
  9
$UCSORGBACK
 10
0.0
 20
0.0
 30
0.0
  9
$PUCSBASE
  2

  9
$PUCSNAME
  2

  9
$PUCSORG
 10
0.0
 20
0.0
 30
0.0
  9
$PUCSXDIR
 10
1.0
 20
0.0
 30
0.0
  9
$PUCSYDIR
 10
0.0
 20
1.0
 30
0.0
  9
$PUCSORTHOREF
  2

  9
$PUCSORTHOVIEW
 70
     0
  9
$PUCSORGTOP
 10
0.0
 20
0.0
 30
0.0
  9
$PUCSORGBOTTOM
 10
0.0
 20
0.0
 30
0.0
  9
$PUCSORGLEFT
 10
0.0
 20
0.0
 30
0.0
  9
$PUCSORGRIGHT
 10
0.0
 20
0.0
 30
0.0
  9
$PUCSORGFRONT
 10
0.0
 20
0.0
 30
0.0
  9
$PUCSORGBACK
 10
0.0
 20
0.0
 30
0.0
  9
$USERI1
 70
     0
  9
$USERI2
 70
     0
  9
$USERI3
 70
     0
  9
$USERI4
 70
     0
  9
$USERI5
 70
     0
  9
$USERR1
 40
18.0
  9
$USERR2
 40
0.0
  9
$USERR3
 40
0.0
  9
$USERR4
 40
0.0
  9
$USERR5
 40
0.0
  9
$WORLDVIEW
 70
     1
  9
$SHADEDGE
 70
     3
  9
$SHADEDIF
 70
    70
  9
$TILEMODE
 70
     1
  9
$MAXACTVP
 70
    64
  9
$PINSBASE
 10
0.0
 20
0.0
 30
0.0
  9
$PLIMCHECK
 70
     0
  9
$PEXTMIN
 10
1.00000000000000E+20
 20
1.00000000000000E+20
 30
1.00000000000000E+20
  9
$PEXTMAX
 10
-1.00000000000000E+20
 20
-1.00000000000000E+20
 30
-1.00000000000000E+20
  9
$PLIMMIN
 10
0.0
 20
0.0
  9
$PLIMMAX
 10
12.0
 20
9.0
  9
$UNITMODE
 70
     0
  9
$VISRETAIN
 70
     1
  9
$PLINEGEN
 70
     0
  9
$PSLTSCALE
 70
     1
  9
$TREEDEPTH
 70
  3020
  9
$CMLSTYLE
  2
Standard
  9
$CMLJUST
 70
     0
  9
$CMLSCALE
 40
1.0
  9
$PROXYGRAPHICS
 70
     1
  9
$MEASUREMENT
 70
     1
  9
$CELWEIGHT
370
    -1
  9
$ENDCAPS
280
     0
  9
$JOINSTYLE
280
     0
  9
$LWDISPLAY
290
     0
  9
$INSUNITS
 70
     1
  9
$HYPERLINKBASE
  1

  9
$STYLESHEET
  1

  9
$XEDIT
290
     1
  9
$CEPSNTYPE
380
     0
  9
$PSTYLEMODE
290
     1
  9
$FINGERPRINTGUID
  2
{3DEB2AC3-E63C-4BDD-86F5-BE89711A7188}
  9
$VERSIONGUID
  2
{FAEB1C32-E019-11D5-929B-00C0DF256EC4}
  9
$EXTNAMES
290
     1
  9
$PSVPSCALE
 40
0.0
  9
$OLESTARTUP
290
     0
  0
ENDSEC
  0
SECTION
  2
CLASSES
  0
CLASS
  1
ACDBDICTIONARYWDFLT
  2
AcDbDictionaryWithDefault
  3
ObjectDBX Classes
 90
        0
280
     0
281
     0
  0
CLASS
  1
VISUALSTYLE
  2
AcDbVisualStyle
  3
ObjectDBX Classes
 90
     4095
280
     0
281
     0
  0
CLASS
  1
MATERIAL
  2
AcDbMaterial
  3
ObjectDBX Classes
 90
     1153
280
     0
281
     0
  0
CLASS
  1
SCALE
  2
AcDbScale
  3
ObjectDBX Classes
 90
     1153
280
     0
281
     0
  0
CLASS
  1

  2
exOdDbCircle
  3

 90
        0
280
     0
281
     1
  0
CLASS
  1

  2
exOdDbSpline
  3

 90
        0
280
     0
281
     1
  0
CLASS
  1
DICTIONARYVAR
  2
AcDbDictionaryVar
  3
ObjectDBX Classes
 90
        0
280
     0
281
     0
  0
CLASS
  1
ACDBPLACEHOLDER
  2
AcDbPlaceHolder
  3
ObjectDBX Classes
 90
        0
280
     0
281
     0
  0
CLASS
  1
LAYOUT
  2
AcDbLayout
  3
ObjectDBX Classes
 90
        0
280
     0
281
     0
  0
ENDSEC
  0
SECTION
  2
TABLES
  0
TABLE
  2
VPORT
  5
8
330
0
100
AcDbSymbolTable
 70
     1
  0
VPORT
  5
29
330
8
100
AcDbSymbolTableRecord
100
AcDbViewportTableRecord
  2
*Active
 70
     0
 10
0.0
 20
0.0
 11
1.0
 21
1.0
 12
77.761367321319
 22
218.8206219723998
 13
0.0
 23
0.0
 14
0.5
 24
0.5
 15
0.5
 25
0.5
 16
0.0
 26
0.0
 36
1.0
 17
0.0
 27
0.0
 37
0.0
 40
342.3605881075407
 41
1.60267857142857
 42
50.0
 43
0.0
 44
0.0
 50
0.0
 51
0.0
 71
     0
 72
   100
 73
     1
 74
     3
 75
     0
 76
     0
 77
     0
 78
     0
281
     0
 65
     1
110
0.0
120
0.0
130
0.0
111
1.0
121
0.0
131
0.0
112
0.0
122
1.0
132
0.0
 79
     0
146
0.0
  0
ENDTAB
  0
TABLE
  2
LTYPE
  5
5
330
0
100
AcDbSymbolTable
 70
     8
  0
LTYPE
  5
14
330
5
100
AcDbSymbolTableRecord
100
AcDbLinetypeTableRecord
  2
ByBlock
 70
     0
  3

 72
    65
 73
     0
 40
0.0
  0
LTYPE
  5
15
330
5
100
AcDbSymbolTableRecord
100
AcDbLinetypeTableRecord
  2
ByLayer
 70
     0
  3

 72
    65
 73
     0
 40
0.0
  0
LTYPE
  5
16
330
5
100
AcDbSymbolTableRecord
100
AcDbLinetypeTableRecord
  2
Continuous
 70
     0
  3
Solid line
 72
    65
 73
     0
 40
0.0
  0
LTYPE
  5
3F
330
5
100
AcDbSymbolTableRecord
100
AcDbLinetypeTableRecord
  2
DASHED
 70
     0
  3
Dashed
 72
    65
 73
     2
 40
15.0
 49
7.0
 74
     0
 49
-8.0
 74
     0
  0
LTYPE
  5
40
330
5
100
AcDbSymbolTableRecord
100
AcDbLinetypeTableRecord
  2
DOTTED
 70
     0
  3
Dotted
 72
    65
 73
     2
 40
1.0
 49
0.0
 74
     0
 49
-1.0
 74
     0
  0
LTYPE
  5
41
330
5
100
AcDbSymbolTableRecord
100
AcDbLinetypeTableRecord
  2
DOT_CENTER
 70
     0
  3
Dot_Center
 72
    65
 73
     4
 40
14.0
 49
12.0
 74
     0
 49
-1.0
 74
     0
 49
0.0
 74
     0
 49
-1.0
 74
     0
  0
LTYPE
  5
42
330
5
100
AcDbSymbolTableRecord
100
AcDbLinetypeTableRecord
  2
LONG_DASHED
 70
     0
  3
Long_Dashed
 72
    65
 73
     2
 40
15.0
 49
10.0
 74
     0
 49
-5.0
 74
     0
  0
LTYPE
  5
43
330
5
100
AcDbSymbolTableRecord
100
AcDbLinetypeTableRecord
  2
DASH_CENTER
 70
     0
  3
Dash_Center
 72
    65
 73
     4
 40
14.0
 49
11.0
 74
     0
 49
-1.0
 74
     0
 49
1.0
 74
     0
 49
-1.0
 74
     0
  0
LTYPE
  5
44
330
5
100
AcDbSymbolTableRecord
100
AcDbLinetypeTableRecord
  2
PHANTOM
 70
     0
  3
Phantom
 72
    65
 73
     6
 40
13.0
 49
10.0
 74
     0
 49
-1.0
 74
     0
 49
0.0
 74
     0
 49
-1.0
 74
     0
 49
0.0
 74
     0
 49
-1.0
 74
     0
  0
LTYPE
  5
45
330
5
100
AcDbSymbolTableRecord
100
AcDbLinetypeTableRecord
  2
CENTER_DASH_DASH
 70
     0
  3
Center_Dash_Dash
 72
    65
 73
     6
 40
14.0
 49
9.0
 74
     0
 49
-1.0
 74
     0
 49
1.0
 74
     0
 49
-1.0
 74
     0
 49
1.0
 74
     0
 49
-1.0
 74
     0
  0
ENDTAB
  0
TABLE
  2
LAYER
  5
2
330
0
100
AcDbSymbolTable
 70
     6
  0
LAYER
  5
10
330
2
100
AcDbSymbolTableRecord
100
AcDbLayerTableRecord
  2
0
 70
     0
 62
     7
  6
Continuous
370
    -3
390
F
  0
LAYER
  5
46
330
2
100
AcDbSymbolTableRecord
100
AcDbLayerTableRecord
  2
1
 70
     0
 62
     7
  6
Continuous
370
    -3
390
F
  0
LAYER
  5
47
330
2
100
AcDbSymbolTableRecord
100
AcDbLayerTableRecord
  2
100
 70
     0
 62
     7
  6
Continuous
370
    -3
390
F
  0
LAYER
  5
48
330
2
100
AcDbSymbolTableRecord
100
AcDbLayerTableRecord
  2
2
 70
     0
 62
     7
  6
Continuous
370
    -3
390
F
  0
LAYER
  5
49
330
2
100
AcDbSymbolTableRecord
100
AcDbLayerTableRecord
  2
BALN
 70
     0
 62
     7
  6
Continuous
370
    -3
390
F
  0
LAYER
  5
4A
330
2
100
AcDbSymbolTableRecord
100
AcDbLayerTableRecord
  2
LEVEL001
 70
     0
 62
     7
  6
Continuous
370
    -3
390
F
  0
ENDTAB
  0
TABLE
  2
STYLE
  5
3
330
0
100
AcDbSymbolTable
 70
     1
  0
STYLE
  5
11
330
3
100
AcDbSymbolTableRecord
100
AcDbTextStyleTableRecord
  2
Standard
 70
     0
 40
0.0
 41
1.0
 50
0.0
 71
     0
 42
0.2
  3
txt
  4

  0
ENDTAB
  0
TABLE
  2
VIEW
  5
6
330
0
100
AcDbSymbolTable
 70
     0
  0
ENDTAB
  0
TABLE
  2
UCS
  5
7
330
0
100
AcDbSymbolTable
 70
     0
  0
ENDTAB
  0
TABLE
  2
APPID
  5
9
330
0
100
AcDbSymbolTable
 70
     1
  0
APPID
  5
12
330
9
100
AcDbSymbolTableRecord
100
AcDbRegAppTableRecord
  2
ACAD
 70
     0
  0
ENDTAB
  0
TABLE
  2
DIMSTYLE
  5
A
330
0
100
AcDbSymbolTable
 70
     1
100
AcDbDimStyleTable
  0
DIMSTYLE
105
27
330
A
100
AcDbSymbolTableRecord
100
AcDbDimStyleTableRecord
  2
Standard
 70
     0
340
11
  0
ENDTAB
  0
TABLE
  2
BLOCK_RECORD
  5
1
330
0
100
AcDbSymbolTable
 70
     2
  0
BLOCK_RECORD
  5
1F
330
1
100
AcDbSymbolTableRecord
100
AcDbBlockTableRecord
  2
*Model_Space
340
22
  0
BLOCK_RECORD
  5
1B
330
1
100
AcDbSymbolTableRecord
100
AcDbBlockTableRecord
  2
*Paper_Space
340
1E
  0
BLOCK_RECORD
  5
23
330
1
100
AcDbSymbolTableRecord
100
AcDbBlockTableRecord
  2
*Paper_Space0
340
26
  0
BLOCK_RECORD
  5
4B
330
1
100
AcDbSymbolTableRecord
100
AcDbBlockTableRecord
  2
TOP__1
340
0
102
{BLKREFS
331
70
102
}
  0
ENDTAB
  0
ENDSEC
  0
SECTION
  2
BLOCKS
  0
BLOCK
  5
20
330
1F
100
AcDbEntity
  8
0
100
AcDbBlockBegin
  2
*Model_Space
 70
     0
 10
0.0
 20
0.0
 30
0.0
  3
*Model_Space
  1

  0
ENDBLK
  5
21
330
1F
100
AcDbEntity
  8
0
100
AcDbBlockEnd
  0
BLOCK
  5
1C
330
1B
100
AcDbEntity
 67
     1
  8
0
100
AcDbBlockBegin
  2
*Paper_Space
 70
     0
 10
0.0
 20
0.0
 30
0.0
  3
*Paper_Space
  1

  0
ENDBLK
  5
1D
330
1B
100
AcDbEntity
 67
     1
  8
0
100
AcDbBlockEnd
  0
BLOCK
  5
24
330
23
100
AcDbEntity
  8
0
100
AcDbBlockBegin
  2
*Paper_Space0
 70
     0
 10
0.0
 20
0.0
 30
0.0
  3
*Paper_Space0
  1

  0
ENDBLK
  5
25
330
23
100
AcDbEntity
  8
0
100
AcDbBlockEnd
  0
BLOCK
  5
4C
330
4B
100
AcDbEntity
  8
0
100
AcDbBlockBegin
  2
TOP__1
 70
     0
 10
161.222052358485
 20
37.3945309916451
 30
0.0
  3
TOP__1
  1

  0
POINT
  5
71
330
4B
100
AcDbEntity
  8
1
 62
     3
 60
     1
100
AcDbPoint
 10
187.256549250709
 20
94.394530991645
 30
0.0
  0
POINT
  5
72
330
4B
100
AcDbEntity
  8
1
 62
     3
 60
     1
100
AcDbPoint
 10
145.006549250924
 20
128.120165268605
 30
0.0
  0
POINT
  5
73
330
4B
100
AcDbEntity
  8
1
 62
     3
 60
     1
100
AcDbPoint
 10
145.006549250924
 20
128.121861611255
 30
0.0
  0
XLINE
  5
74
330
4B
100
AcDbEntity
  8
1
  6
DOT_CENTER
 62
     3
 60
     1
100
AcDbXline
 10
132.786486037614
 20
109.720554597505
 30
0.0
 11
-1.0
 21
0.0
 31
0.0
  0
XLINE
  5
75
330
4B
100
AcDbEntity
  8
1
  6
DOT_CENTER
 62
     3
 60
     1
100
AcDbXline
 10
132.786486037614
 20
109.720554597505
 30
0.0
 11
-1.0
 21
0.0
 31
0.0
  0
XLINE
  5
76
330
4B
100
AcDbEntity
  8
1
  6
DOT_CENTER
 62
     3
 60
     1
100
AcDbXline
 10
145.006549250924
 20
128.120165268605
 30
0.0
 11
0.0
 21
1.0
 31
0.0
  0
XLINE
  5
77
330
4B
100
AcDbEntity
  8
1
  6
DOT_CENTER
 62
     3
 60
     1
100
AcDbXline
 10
132.006549250984
 20
175.905464236805
 30
0.0
 11
0.0
 21
1.0
 31
0.0
  0
XLINE
  5
78
330
4B
100
AcDbEntity
  8
1
  6
DOT_CENTER
 62
     3
 60
     1
100
AcDbXline
 10
132.006549250984
 20
175.905464236805
 30
0.0
 11
0.0
 21
1.0
 31
0.0
  0
XLINE
  5
79
330
4B
100
AcDbEntity
  8
1
  6
DOT_CENTER
 62
     3
 60
     1
100
AcDbXline
 10
132.006549250984
 20
175.905464236805
 30
0.0
 11
0.0
 21
1.0
 31
0.0
  0
XLINE
  5
7A
330
4B
100
AcDbEntity
  8
1
  6
DOT_CENTER
 62
     3
 60
     1
100
AcDbXline
 10
132.006549250984
 20
175.905464236805
 30
0.0
 11
0.0
 21
1.0
 31
0.0
  0
ENDBLK
  5
4D
330
4B
100
AcDbEntity
  8
0
100
AcDbBlockEnd
  0
ENDSEC
  0
SECTION
  2
ENTITIES
  0
INSERT
  5
70
330
1F
100
AcDbEntity
  8
0
100
AcDbBlockReference
  2
TOP__1
 10
161.222052358485
 20
37.3945309916451
 30
0.0
  0
LINE
  5
7B
330
1F
100
AcDbEntity
  8
1
  6
Continuous
 62
     4
100
AcDbLine
 10
218.934262673268
 20
131.452174917449
 30
0.0
 11
219.228380320326
 21
130.618841584116
 31
0.0
  0
LINE
  5
7C
330
1F
100
AcDbEntity
  8
1
  6
Continuous
 62
     4
100
AcDbLine
 10
218.34602737915
 20
131.452174917449
 30
0.0
 11
218.640145026209
 21
130.618841584116
 31
0.0
  0
LINE
  5
7D
330
1F
100
AcDbEntity
  8
1
  6
Continuous
 62
     4
100
AcDbLine
 10
218.051909732091
 20
127.952174917449
 30
0.0
 11
218.787203849738
 21
129.118841584116
 31
0.0
  0
LINE
  5
7E
330
1F
100
AcDbEntity
  8
1
  6
Continuous
 62
     4
100
AcDbLine
 10
217.169556790915
 20
127.285508250782
 30
0.0
 11
218.051909732091
 21
127.952174917449
 31
0.0
  0
LINE
  5
7F
330
1F
100
AcDbEntity
  8
1
  6
Continuous
 62
     4
100
AcDbLine
 10
215.84602737915
 20
126.952174917449
 30
0.0
 11
217.169556790915
 21
127.285508250782
 31
0.0
  0
LINE
  5
80
330
1F
100
AcDbEntity
  8
1
  6
Continuous
 62
     4
100
AcDbLine
 10
215.84602737915
 20
129.118841584116
 30
0.0
 11
216.875439143856
 21
128.785508250782
 31
0.0
  0
LINE
  5
81
330
1F
100
AcDbEntity
  8
1
  6
Continuous
 62
     4
100
AcDbLine
 10
215.993086202679
 20
130.618841584116
 30
0.0
 11
217.022497967385
 21
130.118841584116
 31
0.0
  0
LINE
  5
82
330
1F
100
AcDbEntity
  8
1
  6
Continuous
 62
     4
100
AcDbLine
 10
211.140145026209
 20
130.285508250782
 30
0.0
 11
212.463674437974
 21
130.285508250782
 31
0.0
  0
LINE
  5
83
330
1F
100
AcDbEntity
  8
1
  6
Continuous
 62
     4
100
AcDbLine
 10
211.581321496797
 20
128.785508250782
 30
0.0
 11
212.904850908562
 21
127.785508250782
 31
0.0
  0
LINE
  5
84
330
1F
100
AcDbEntity
  8
1
  6
Continuous
 62
     4
100
AcDbLine
 10
211.140145026209
 20
128.452174917449
 30
0.0
 11
211.140145026209
 21
126.785508250782
 31
0.0
  0
LINE
  5
85
330
1F
100
AcDbEntity
  8
1
  6
Continuous
 62
     4
100
AcDbLine
 10
210.404850908562
 20
128.118841584116
 30
0.0
 11
209.375439143856
 21
127.785508250782
 31
0.0
  0
LINE
  5
86
330
1F
100
AcDbEntity
  8
1
  6
Continuous
 62
     4
100
AcDbLine
 10
211.140145026209
 20
128.452174917449
 30
0.0
 11
210.404850908562
 21
128.118841584116
 31
0.0
  0
LINE
  5
87
330
1F
100
AcDbEntity
  8
1
  6
Continuous
 62
     4
100
AcDbLine
 10
211.581321496797
 20
128.785508250782
 30
0.0
 11
211.140145026209
 21
128.452174917449
 31
0.0
  0
LINE
  5
88
330
1F
100
AcDbEntity
  8
1
  6
Continuous
 62
     4
100
AcDbLine
 10
212.022497967385
 20
129.285508250782
 30
0.0
 11
211.581321496797
 21
128.785508250782
 31
0.0
  0
LINE
  5
89
330
1F
100
AcDbEntity
  8
1
  6
Continuous
 62
     4
100
AcDbLine
 10
212.463674437974
 20
130.285508250782
 30
0.0
 11
212.022497967385
 21
129.285508250782
 31
0.0
  0
LINE
  5
8A
330
1F
100
AcDbEntity
  8
1
  6
Continuous
 62
     4
100
AcDbLine
 10
209.669556790915
 20
130.285508250782
 30
0.0
 11
211.140145026209
 21
130.285508250782
 31
0.0
  0
LINE
  5
8B
330
1F
100
AcDbEntity
  8
1
  6
Continuous
 62
     4
100
AcDbLine
 10
211.140145026209
 20
131.285508250782
 30
0.0
 11
211.140145026209
 21
130.285508250782
 31
0.0
  0
LINE
  5
8C
330
1F
100
AcDbEntity
  8
1
  6
Continuous
 62
     4
100
AcDbLine
 10
204.081321496797
 20
126.452174917449
 30
0.0
 11
207.316615614444
 21
126.452174917449
 31
0.0
  0
LINE
  5
8D
330
1F
100
AcDbEntity
  8
1
  6
Continuous
 62
     4
100
AcDbLine
 10
204.375439143856
 20
127.285508250782
 30
0.0
 11
204.081321496797
 21
126.452174917449
 31
0.0
  0
LINE
  5
8E
330
1F
100
AcDbEntity
  8
1
  6
Continuous
 62
     4
100
AcDbLine
 10
204.669556790915
 20
127.785508250782
 30
0.0
 11
204.375439143856
 21
127.285508250782
 31
0.0
  0
LINE
  5
8F
330
1F
100
AcDbEntity
  8
1
  6
Continuous
 62
     4
100
AcDbLine
 10
205.257792085032
 20
128.285508250782
 30
0.0
 11
204.669556790915
 21
127.785508250782
 31
0.0
  0
LINE
  5
90
330
1F
100
AcDbEntity
  8
1
  6
Continuous
 62
     4
100
AcDbLine
 10
205.84602737915
 20
128.618841584116
 30
0.0
 11
205.257792085032
 21
128.285508250782
 31
0.0
  0
LINE
  5
91
330
1F
100
AcDbEntity
  8
1
  6
Continuous
 62
     4
100
AcDbLine
 10
206.581321496797
 20
129.118841584116
 30
0.0
 11
205.84602737915
 21
128.618841584116
 31
0.0
  0
LINE
  5
92
330
1F
100
AcDbEntity
  8
1
  6
Continuous
 62
     4
100
AcDbLine
 10
207.022497967385
 20
129.785508250782
 30
0.0
 11
206.581321496797
 21
129.118841584116
 31
0.0
  0
LINE
  5
93
330
1F
100
AcDbEntity
  8
1
  6
Continuous
 62
     4
100
AcDbLine
 10
207.169556790915
 20
130.452174917449
 30
0.0
 11
207.022497967385
 21
129.785508250782
 31
0.0
  0
LINE
  5
94
330
1F
100
AcDbEntity
  8
1
  6
Continuous
 62
     4
100
AcDbLine
 10
206.581321496797
 20
131.118841584116
 30
0.0
 11
207.169556790915
 21
130.452174917449
 31
0.0
  0
LINE
  5
95
330
1F
100
AcDbEntity
  8
1
  6
Continuous
 62
     4
100
AcDbLine
 10
205.698968555621
 20
131.452174917449
 30
0.0
 11
206.581321496797
 21
131.118841584116
 31
0.0
  0
LINE
  5
96
330
1F
100
AcDbEntity
  8
1
  6
Continuous
 62
     4
100
AcDbLine
 10
204.816615614444
 20
131.118841584116
 30
0.0
 11
205.698968555621
 21
131.452174917449
 31
0.0
  0
LINE
  5
97
330
1F
100
AcDbEntity
  8
1
  6
Continuous
 62
     4
100
AcDbLine
 10
204.228380320326
 20
130.452174917449
 30
0.0
 11
204.816615614444
 21
131.118841584116
 31
0.0
  0
LINE
  5
98
330
1F
100
AcDbEntity
  8
1
  6
Continuous
 62
     4
100
AcDbLine
 10
202.610733261503
 20
130.952174917449
 30
0.0
 11
199.522497967385
 21
127.285508250782
 31
0.0
  0
LINE
  5
99
330
1F
100
AcDbEntity
  8
1
  6
Continuous
 62
     4
100
AcDbLine
 10
198.051909732091
 20
131.452174917449
 30
0.0
 11
198.051909732091
 21
126.452174917449
 31
0.0
  0
LINE
  5
9A
330
1F
100
AcDbEntity
  8
1
  6
Continuous
 62
     4
100
AcDbLine
 10
197.316615614444
 20
130.952174917449
 30
0.0
 11
198.051909732091
 21
131.452174917449
 31
0.0
  0
LINE
  5
9B
330
1F
100
AcDbEntity
  8
1
  6
Continuous
 62
     4
100
AcDbLine
 10
193.640145026209
 20
127.118841584116
 30
0.0
 11
193.493086202679
 21
127.785508250782
 31
0.0
  0
LINE
  5
9C
330
1F
100
AcDbEntity
  8
1
  6
Continuous
 62
     4
100
AcDbLine
 10
194.081321496797
 20
126.618841584116
 30
0.0
 11
193.640145026209
 21
127.118841584116
 31
0.0
  0
LINE
  5
9D
330
1F
100
AcDbEntity
  8
1
  6
Continuous
 62
     4
100
AcDbLine
 10
194.669556790915
 20
126.452174917449
 30
0.0
 11
194.081321496797
 21
126.618841584116
 31
0.0
  0
LINE
  5
9E
330
1F
100
AcDbEntity
  8
1
  6
Continuous
 62
     4
100
AcDbLine
 10
195.257792085032
 20
126.618841584116
 30
0.0
 11
194.669556790915
 21
126.452174917449
 31
0.0
  0
LINE
  5
9F
330
1F
100
AcDbEntity
  8
1
  6
Continuous
 62
     4
100
AcDbLine
 10
195.698968555621
 20
127.118841584116
 30
0.0
 11
195.257792085032
 21
126.618841584116
 31
0.0
  0
LINE
  5
A0
330
1F
100
AcDbEntity
  8
1
  6
Continuous
 62
     4
100
AcDbLine
 10
195.84602737915
 20
127.785508250782
 30
0.0
 11
195.698968555621
 21
127.118841584116
 31
0.0
  0
LINE
  5
A1
330
1F
100
AcDbEntity
  8
1
  6
Continuous
 62
     4
100
AcDbLine
 10
195.84602737915
 20
131.452174917449
 30
0.0
 11
195.84602737915
 21
127.785508250782
 31
0.0
  0
LINE
  5
A2
330
1F
100
AcDbEntity
  8
1
  6
Continuous
 62
     4
100
AcDbLine
 10
189.081321496797
 20
128.785508250782
 30
0.0
 11
189.081321496797
 21
131.285508250782
 31
0.0
  0
LINE
  5
A3
330
1F
100
AcDbEntity
  8
1
  6
Continuous
 62
     4
100
AcDbLine
 10
190.993086202679
 20
128.785508250782
 30
0.0
 11
189.081321496797
 21
128.785508250782
 31
0.0
  0
LINE
  5
A4
330
1F
100
AcDbEntity
  8
1
  6
Continuous
 62
     4
100
AcDbLine
 10
191.581321496797
 20
129.118841584116
 30
0.0
 11
190.993086202679
 21
128.785508250782
 31
0.0
  0
LINE
  5
A5
330
1F
100
AcDbEntity
  8
1
  6
Continuous
 62
     4
100
AcDbLine
 10
191.875439143856
 20
129.452174917449
 30
0.0
 11
191.581321496797
 21
129.118841584116
 31
0.0
  0
LINE
  5
A6
330
1F
100
AcDbEntity
  8
1
  6
Continuous
 62
     4
100
AcDbLine
 10
192.022497967385
 20
130.118841584116
 30
0.0
 11
191.875439143856
 21
129.452174917449
 31
0.0
  0
LINE
  5
A7
330
1F
100
AcDbEntity
  8
1
  6
Continuous
 62
     4
100
AcDbLine
 10
191.875439143856
 20
130.452174917449
 30
0.0
 11
192.022497967385
 21
130.118841584116
 31
0.0
  0
LINE
  5
A8
330
1F
100
AcDbEntity
  8
1
  6
Continuous
 62
     4
100
AcDbLine
 10
191.581321496797
 20
130.952174917449
 30
0.0
 11
191.875439143856
 21
130.452174917449
 31
0.0
  0
LINE
  5
A9
330
1F
100
AcDbEntity
  8
1
  6
Continuous
 62
     4
100
AcDbLine
 10
190.993086202679
 20
131.285508250782
 30
0.0
 11
191.581321496797
 21
130.952174917449
 31
0.0
  0
LINE
  5
AA
330
1F
100
AcDbEntity
  8
1
  6
Continuous
 62
     4
100
AcDbLine
 10
189.081321496797
 20
131.285508250782
 30
0.0
 11
190.993086202679
 21
131.285508250782
 31
0.0
  0
LINE
  5
AB
330
1F
100
AcDbEntity
  8
1
  6
Continuous
 62
     4
100
AcDbLine
 10
189.081321496797
 20
126.452174917449
 30
0.0
 11
189.081321496797
 21
128.785508250782
 31
0.0
  0
LINE
  5
AC
330
1F
100
AcDbEntity
  8
1
  6
Continuous
 62
     4
100
AcDbLine
 10
170.326230620899
 20
304.729344669519
 30
0.0
 11
169.737995326781
 21
305.396011336186
 31
0.0
  0
LINE
  5
AD
330
1F
100
AcDbEntity
  8
1
  6
Continuous
 62
     4
100
AcDbLine
 10
171.502701209134
 20
304.062678002852
 30
0.0
 11
170.326230620899
 21
304.729344669519
 31
0.0
  0
LINE
  5
AE
330
1F
100
AcDbEntity
  8
1
  6
Continuous
 62
     4
100
AcDbLine
 10
172.973289444429
 20
303.729344669519
 30
0.0
 11
171.502701209134
 21
304.062678002852
 31
0.0
  0
LINE
  5
AF
330
1F
100
AcDbEntity
  8
1
  6
Continuous
 62
     4
100
AcDbLine
 10
174.737995326781
 20
304.062678002852
 30
0.0
 11
172.973289444429
 21
303.729344669519
 31
0.0
  0
LINE
  5
B0
330
1F
100
AcDbEntity
  8
1
  6
Continuous
 62
     4
100
AcDbLine
 10
175.620348267958
 20
304.729344669519
 30
0.0
 11
174.737995326781
 21
304.062678002852
 31
0.0
  0
LINE
  5
B1
330
1F
100
AcDbEntity
  8
1
  6
Continuous
 62
     4
100
AcDbLine
 10
176.208583562076
 20
306.396011336186
 30
0.0
 11
175.620348267958
 21
304.729344669519
 31
0.0
  0
LINE
  5
B2
330
1F
100
AcDbEntity
  8
1
  6
Continuous
 62
     4
100
AcDbLine
 10
175.620348267958
 20
308.062678002852
 30
0.0
 11
176.208583562076
 21
306.396011336186
 31
0.0
  0
LINE
  5
B3
330
1F
100
AcDbEntity
  8
1
  6
Continuous
 62
     4
100
AcDbLine
 10
174.149760032664
 20
309.062678002852
 30
0.0
 11
175.620348267958
 21
308.062678002852
 31
0.0
  0
LINE
  5
B4
330
1F
100
AcDbEntity
  8
1
  6
Continuous
 62
     4
100
AcDbLine
 10
172.67917179737
 20
309.062678002852
 30
0.0
 11
174.149760032664
 21
309.062678002852
 31
0.0
  0
LINE
  5
B5
330
1F
100
AcDbEntity
  8
1
  6
Continuous
 62
     4
100
AcDbLine
 10
174.149760032664
 20
309.062678002852
 30
0.0
 11
172.67917179737
 21
309.062678002852
 31
0.0
  0
LINE
  5
B6
330
1F
100
AcDbEntity
  8
1
  6
Continuous
 62
     4
100
AcDbLine
 10
175.326230620899
 20
309.729344669519
 30
0.0
 11
174.149760032664
 21
309.062678002852
 31
0.0
  0
LINE
  5
B7
330
1F
100
AcDbEntity
  8
1
  6
Continuous
 62
     4
100
AcDbLine
 10
175.914465915017
 20
311.062678002852
 30
0.0
 11
175.326230620899
 21
309.729344669519
 31
0.0
  0
LINE
  5
B8
330
1F
100
AcDbEntity
  8
1
  6
Continuous
 62
     4
100
AcDbLine
 10
175.620348267958
 20
312.062678002852
 30
0.0
 11
175.914465915017
 21
311.062678002852
 31
0.0
  0
LINE
  5
B9
330
1F
100
AcDbEntity
  8
1
  6
Continuous
 62
     4
100
AcDbLine
 10
174.737995326781
 20
313.396011336186
 30
0.0
 11
175.620348267958
 21
312.062678002852
 31
0.0
  0
LINE
  5
BA
330
1F
100
AcDbEntity
  8
1
  6
Continuous
 62
     4
100
AcDbLine
 10
172.973289444429
 20
313.729344669519
 30
0.0
 11
174.737995326781
 21
313.396011336186
 31
0.0
  0
LINE
  5
BB
330
1F
100
AcDbEntity
  8
1
  6
Continuous
 62
     4
100
AcDbLine
 10
171.208583562076
 20
313.396011336186
 30
0.0
 11
172.973289444429
 21
313.729344669519
 31
0.0
  0
LINE
  5
BC
330
1F
100
AcDbEntity
  8
1
  6
Continuous
 62
     4
100
AcDbLine
 10
170.03211297384
 20
312.062678002852
 30
0.0
 11
171.208583562076
 21
313.396011336186
 31
0.0
  0
LINE
  5
BD
330
1F
100
AcDbEntity
  8
1
  6
Continuous
 62
     4
100
AcDbLine
 10
166.796818856193
 20
313.729344669519
 30
0.0
 11
166.796818856193
 21
303.729344669519
 31
0.0
  0
LINE
  5
BE
330
1F
100
AcDbEntity
  8
1
  6
Continuous
 62
     4
100
AcDbLine
 10
165.326230620899
 20
312.729344669519
 30
0.0
 11
166.796818856193
 21
313.729344669519
 31
0.0
  0
LINE
  5
BF
330
1F
100
AcDbEntity
  8
1
  6
Continuous
 62
     4
100
AcDbLine
 10
157.090936503252
 20
308.729344669519
 30
0.0
 11
162.385054150311
 21
308.729344669519
 31
0.0
  0
LINE
  5
C0
330
1F
100
AcDbEntity
  8
1
  6
Continuous
 62
     4
100
AcDbLine
 10
148.267407091487
 20
309.062678002852
 30
0.0
 11
148.267407091487
 21
303.729344669519
 31
0.0
  0
LINE
  5
C1
330
1F
100
AcDbEntity
  8
1
  6
Continuous
 62
     4
100
AcDbLine
 10
148.267407091487
 20
309.062678002852
 30
0.0
 11
153.561524738546
 21
309.062678002852
 31
0.0
  0
LINE
  5
C2
330
1F
100
AcDbEntity
  8
1
  6
Continuous
 62
     4
100
AcDbLine
 10
148.267407091487
 20
303.729344669519
 30
0.0
 11
154.149760032664
 21
303.729344669519
 31
0.0
  0
LINE
  5
C3
330
1F
100
AcDbEntity
  8
1
  6
Continuous
 62
     4
100
AcDbLine
 10
148.267407091487
 20
313.729344669519
 30
0.0
 11
148.267407091487
 21
309.062678002852
 31
0.0
  0
LINE
  5
C4
330
1F
100
AcDbEntity
  8
1
  6
Continuous
 62
     4
100
AcDbLine
 10
154.149760032664
 20
313.729344669519
 30
0.0
 11
148.267407091487
 21
313.729344669519
 31
0.0
  0
LINE
  5
C5
330
1F
100
AcDbEntity
  8
1
  6
Continuous
 62
     4
100
AcDbLine
 10
143.855642385605
 20
313.062678002852
 30
0.0
 11
142.090936503252
 21
313.729344669519
 31
0.0
  0
LINE
  5
C6
330
1F
100
AcDbEntity
  8
1
  6
Continuous
 62
     4
100
AcDbLine
 10
145.03211297384
 20
311.396011336186
 30
0.0
 11
143.855642385605
 21
313.062678002852
 31
0.0
  0
LINE
  5
C7
330
1F
100
AcDbEntity
  8
1
  6
Continuous
 62
     4
100
AcDbLine
 10
145.326230620899
 20
308.729344669519
 30
0.0
 11
145.03211297384
 21
311.396011336186
 31
0.0
  0
LINE
  5
C8
330
1F
100
AcDbEntity
  8
1
  6
Continuous
 62
     4
100
AcDbLine
 10
145.03211297384
 20
306.062678002852
 30
0.0
 11
145.326230620899
 21
308.729344669519
 31
0.0
  0
LINE
  5
C9
330
1F
100
AcDbEntity
  8
1
  6
Continuous
 62
     4
100
AcDbLine
 10
143.855642385605
 20
304.396011336186
 30
0.0
 11
145.03211297384
 21
306.062678002852
 31
0.0
  0
LINE
  5
CA
330
1F
100
AcDbEntity
  8
1
  6
Continuous
 62
     4
100
AcDbLine
 10
142.090936503252
 20
303.729344669519
 30
0.0
 11
143.855642385605
 21
304.396011336186
 31
0.0
  0
LINE
  5
CB
330
1F
100
AcDbEntity
  8
1
  6
Continuous
 62
     4
100
AcDbLine
 10
140.326230620899
 20
304.396011336186
 30
0.0
 11
142.090936503252
 21
303.729344669519
 31
0.0
  0
LINE
  5
CC
330
1F
100
AcDbEntity
  8
1
  6
Continuous
 62
     4
100
AcDbLine
 10
139.443877679723
 20
306.062678002852
 30
0.0
 11
140.326230620899
 21
304.396011336186
 31
0.0
  0
LINE
  5
CD
330
1F
100
AcDbEntity
  8
1
  6
Continuous
 62
     4
100
AcDbLine
 10
138.855642385605
 20
308.729344669519
 30
0.0
 11
139.443877679723
 21
306.062678002852
 31
0.0
  0
LINE
  5
CE
330
1F
100
AcDbEntity
  8
1
  6
Continuous
 62
     4
100
AcDbLine
 10
139.443877679723
 20
311.396011336186
 30
0.0
 11
138.855642385605
 21
308.729344669519
 31
0.0
  0
LINE
  5
CF
330
1F
100
AcDbEntity
  8
1
  6
Continuous
 62
     4
100
AcDbLine
 10
140.326230620899
 20
313.062678002852
 30
0.0
 11
139.443877679723
 21
311.396011336186
 31
0.0
  0
LINE
  5
D0
330
1F
100
AcDbEntity
  8
1
  6
Continuous
 62
     4
100
AcDbLine
 10
142.090936503252
 20
313.729344669519
 30
0.0
 11
140.326230620899
 21
313.062678002852
 31
0.0
  0
LINE
  5
D1
330
1F
100
AcDbEntity
  8
1
  6
Continuous
 62
     4
100
AcDbLine
 10
135.914465915017
 20
313.729344669519
 30
0.0
 11
135.914465915017
 21
303.729344669519
 31
0.0
  0
LINE
  5
D2
330
1F
100
AcDbEntity
  8
1
  6
Continuous
 62
     4
100
AcDbLine
 10
134.443877679723
 20
312.729344669519
 30
0.0
 11
135.914465915017
 21
313.729344669519
 31
0.0
  0
LINE
  5
D3
330
1F
100
AcDbEntity
  8
1
  6
Continuous
 62
     4
100
AcDbLine
 10
126.208583562076
 20
308.729344669519
 30
0.0
 11
131.502701209134
 21
308.729344669519
 31
0.0
  0
LINE
  5
D4
330
1F
100
AcDbEntity
  8
1
  6
Continuous
 62
     4
100
AcDbLine
 10
117.385054150311
 20
303.729344669519
 30
0.0
 11
123.267407091487
 21
303.729344669519
 31
0.0
  0
LINE
  5
D5
330
1F
100
AcDbEntity
  8
1
  6
Continuous
 62
     4
100
AcDbLine
 10
117.385054150311
 20
313.729344669519
 30
0.0
 11
117.385054150311
 21
303.729344669519
 31
0.0
  0
LINE
  5
D6
330
1F
100
AcDbEntity
  8
1
  6
Continuous
 62
     4
100
AcDbLine
 10
111.208583562076
 20
313.396011336186
 30
0.0
 11
114.443877679723
 21
313.396011336186
 31
0.0
  0
LINE
  5
D7
330
1F
100
AcDbEntity
  8
1
  6
Continuous
 62
     4
100
AcDbLine
 10
111.208583562076
 20
313.396011336186
 30
0.0
 11
111.208583562076
 21
303.729344669519
 31
0.0
  0
LINE
  5
D8
330
1F
100
AcDbEntity
  8
1
  6
Continuous
 62
     4
100
AcDbLine
 10
107.973289444429
 20
313.396011336186
 30
0.0
 11
111.208583562076
 21
313.396011336186
 31
0.0
  0
LINE
  5
D9
330
1F
100
AcDbEntity
  8
1
  6
Continuous
 62
     4
100
AcDbLine
 10
98.855642385605
 20
307.729344669519
 30
0.0
 11
98.855642385605
 21
303.729344669519
 31
0.0
  0
LINE
  5
DA
330
1F
100
AcDbEntity
  8
1
  6
Continuous
 62
     4
100
AcDbLine
 10
100.326230620899
 20
309.396011336186
 30
0.0
 11
105.03211297384
 21
303.729344669519
 31
0.0
  0
LINE
  5
DB
330
1F
100
AcDbEntity
  8
1
  6
Continuous
 62
     4
100
AcDbLine
 10
104.443877679723
 20
313.729344669519
 30
0.0
 11
98.855642385605
 21
307.729344669519
 31
0.0
  0
LINE
  5
DC
330
1F
100
AcDbEntity
  8
1
  6
Continuous
 62
     4
100
AcDbLine
 10
98.855642385605
 20
313.729344669519
 30
0.0
 11
98.855642385605
 21
307.729344669519
 31
0.0
  0
LINE
  5
DD
330
1F
100
AcDbEntity
  8
1
  6
DOT_CENTER
 62
     1
100
AcDbLine
 10
-37.7286760836139
 20
374.439071112191
 30
0.0
 11
-37.7286760836139
 21
230.456567834937
 31
0.0
  0
LINE
  5
DE
330
1F
100
AcDbEntity
  8
1
  6
DOT_CENTER
 62
     1
100
AcDbLine
 10
-21.9514636770427
 20
314.894530991653
 30
0.0
 11
-53.5058884901852
 21
314.894530991653
 31
0.0
  0
LINE
  5
DF
330
1F
100
AcDbEntity
  8
1
  6
DOT_CENTER
 62
     1
100
AcDbLine
 10
-37.7286760836139
 20
172.08239217245
 30
0.0
 11
-37.7286760836139
 21
208.031511503516
 31
0.0
  0
LINE
  5
E0
330
1F
100
AcDbEntity
  8
1
  6
Continuous
 62
     3
100
AcDbLine
 10
-36.1286760836139
 20
205.031511503516
 30
0.0
 11
-39.328676083614
 21
205.031511503516
 31
0.0
  0
LINE
  5
E1
330
1F
100
AcDbEntity
  8
1
  6
Continuous
 62
     3
100
AcDbLine
 10
-36.1286760836139
 20
191.08239217245
 30
0.0
 11
-36.1286760836139
 21
189.08239217245
 31
0.0
  0
LINE
  5
E2
330
1F
100
AcDbEntity
  8
1
  6
Continuous
 62
     3
100
AcDbLine
 10
-39.328676083614
 20
191.08239217245
 30
0.0
 11
-39.328676083614
 21
189.08239217245
 31
0.0
  0
LINE
  5
E3
330
1F
100
AcDbEntity
  8
1
  6
Continuous
 62
     3
100
AcDbLine
 10
-36.1286760836139
 20
191.08239217245
 30
0.0
 11
-39.328676083614
 21
191.08239217245
 31
0.0
  0
LINE
  5
E4
330
1F
100
AcDbEntity
  8
BALN
  6
Continuous
 62
     3
100
AcDbLine
 10
-44.2286760836139
 20
175.08239217245
 30
0.0
 11
-37.7286760836139
 21
175.08239217245
 31
0.0
  0
LINE
  5
E5
330
1F
100
AcDbEntity
  8
BALN
  6
Continuous
 62
     3
100
AcDbLine
 10
-44.2286760836139
 20
175.08239217245
 30
0.0
 11
-44.2286760836139
 21
189.08239217245
 31
0.0
  0
LINE
  5
E6
330
1F
100
AcDbEntity
  8
BALN
  6
Continuous
 62
     3
100
AcDbLine
 10
-44.2286760836139
 20
189.08239217245
 30
0.0
 11
-37.7286760836139
 21
189.08239217245
 31
0.0
  0
LINE
  5
E7
330
1F
100
AcDbEntity
  8
BALN
  6
Continuous
 62
     3
100
AcDbLine
 10
-31.228676083614
 20
175.08239217245
 30
0.0
 11
-37.7286760836139
 21
175.08239217245
 31
0.0
  0
LINE
  5
E8
330
1F
100
AcDbEntity
  8
BALN
  6
Continuous
 62
     3
100
AcDbLine
 10
-31.228676083614
 20
175.08239217245
 30
0.0
 11
-31.228676083614
 21
189.08239217245
 31
0.0
  0
LINE
  5
E9
330
1F
100
AcDbEntity
  8
BALN
  6
Continuous
 62
     3
100
AcDbLine
 10
-31.228676083614
 20
189.08239217245
 30
0.0
 11
-37.7286760836139
 21
189.08239217245
 31
0.0
  0
LINE
  5
EA
330
1F
100
AcDbEntity
  8
1
  6
Continuous
 62
     3
100
AcDbLine
 10
-39.328676083614
 20
191.08239217245
 30
0.0
 11
-39.328676083614
 21
205.031511503516
 31
0.0
  0
LINE
  5
EB
330
1F
100
AcDbEntity
  8
1
  6
Continuous
 62
     3
100
AcDbLine
 10
-36.1286760836139
 20
205.031511503516
 30
0.0
 11
-36.1286760836139
 21
191.08239217245
 31
0.0
  0
LINE
  5
EC
330
1F
100
AcDbEntity
  8
1
  6
DOT_CENTER
 62
     1
100
AcDbLine
 10
-1.88727642493842
 20
314.894530991653
 30
0.0
 11
17.1127235750616
 21
314.894530991653
 31
0.0
  0
LINE
  5
ED
330
1F
100
AcDbEntity
  8
1
  6
DOT_CENTER
 62
     1
100
AcDbLine
 10
7.61272357506158
 20
334.894530991653
 30
0.0
 11
7.61272357506158
 21
294.894530991653
 31
0.0
  0
LINE
  5
EE
330
1F
100
AcDbEntity
  8
1
  6
Continuous
 62
     3
100
AcDbLine
 10
6.01272357506159
 20
321.194530991653
 30
0.0
 11
6.01272357506159
 21
331.894530991653
 31
0.0
  0
LINE
  5
EF
330
1F
100
AcDbEntity
  8
1
  6
Continuous
 62
     3
100
AcDbLine
 10
9.21272357506157
 20
308.594530991653
 30
0.0
 11
9.21272357506157
 21
297.894530991653
 31
0.0
  0
LINE
  5
F0
330
1F
100
AcDbEntity
  8
1
  6
Continuous
 62
     3
100
AcDbLine
 10
6.01272357506159
 20
297.894530991653
 30
0.0
 11
6.01272357506159
 21
321.194530991653
 31
0.0
  0
LINE
  5
F1
330
1F
100
AcDbEntity
  8
1
  6
Continuous
 62
     3
100
AcDbLine
 10
9.21272357506157
 20
297.894530991653
 30
0.0
 11
6.01272357506159
 21
297.894530991653
 31
0.0
  0
LINE
  5
F2
330
1F
100
AcDbEntity
  8
1
  6
Continuous
 62
     3
100
AcDbLine
 10
9.21272357506157
 20
331.894530991653
 30
0.0
 11
9.21272357506157
 21
308.594530991653
 31
0.0
  0
LINE
  5
F3
330
1F
100
AcDbEntity
  8
1
  6
Continuous
 62
     3
100
AcDbLine
 10
6.01272357506159
 20
331.894530991653
 30
0.0
 11
9.21272357506157
 21
331.894530991653
 31
0.0
  0
LINE
  5
F4
330
1F
100
AcDbEntity
  8
1
  6
Continuous
 62
     3
100
AcDbLine
 10
-26.3171225382874
 20
306.72914045814
 30
0.0
 11
-36.3630172221221
 21
300.929140458028
 31
0.0
  0
LINE
  5
F5
330
1F
100
AcDbEntity
  8
1
  6
Continuous
 62
     3
100
AcDbLine
 10
-39.0943349447938
 20
300.929140457998
 30
0.0
 11
-49.1402296287581
 21
306.729140457886
 31
0.0
  0
LINE
  5
F6
330
1F
100
AcDbEntity
  8
1
  6
Continuous
 62
     3
100
AcDbLine
 10
-50.5058884901204
 20
309.09453099151
 30
0.0
 11
-50.50588849025
 21
320.694530991511
 31
0.0
  0
LINE
  5
F7
330
1F
100
AcDbEntity
  8
1
  6
Continuous
 62
     3
100
AcDbLine
 10
-49.1402296289406
 20
323.059921525166
 30
0.0
 11
-39.0943349451058
 21
328.859921525278
 31
0.0
  0
LINE
  5
F8
330
1F
100
AcDbEntity
  8
1
  6
Continuous
 62
     3
100
AcDbLine
 10
-36.3630172224341
 20
328.859921525309
 30
0.0
 11
-26.3171225384698
 21
323.059921525421
 31
0.0
  0
LINE
  5
F9
330
1F
100
AcDbEntity
  8
1
  6
Continuous
 62
     3
100
AcDbLine
 10
-24.9514636771075
 20
320.694530991796
 30
0.0
 11
-24.9514636769779
 21
309.094530991796
 31
0.0
  0
LINE
  5
FA
330
1F
100
AcDbEntity
  8
1
  6
Continuous
 62
     3
100
AcDbLine
 10
-33.8283057832106
 20
312.183514297028
 30
0.0
 11
-33.828445784134
 21
317.60574909609
 31
0.0
  0
LINE
  5
FB
330
1F
100
AcDbEntity
  8
1
  6
Continuous
 62
     3
100
AcDbLine
 10
-40.4398941880505
 20
310.994300692173
 30
0.0
 11
-35.0176593889886
 21
310.99416069125
 31
0.0
  0
LINE
  5
FC
330
1F
100
AcDbEntity
  8
1
  6
Continuous
 62
     3
100
AcDbLine
 10
-35.0061990152992
 20
318.786910548082
 30
0.0
 11
-40.4509521475114
 21
318.787051130424
 31
0.0
  0
LINE
  5
FD
330
1F
100
AcDbEntity
  8
1
  6
Continuous
 62
     3
100
AcDbLine
 10
-41.6211962223848
 20
317.616807055551
 30
0.0
 11
-41.6210556400429
 21
312.172053923339
 31
0.0
  0
LINE
  5
FE
330
1F
100
AcDbEntity
  8
1
  6
Continuous
 62
     3
100
AcDbLine
 10
-47.2286760835461
 20
160.394530991375
 30
0.0
 11
-28.2286760835462
 21
160.394530991375
 31
0.0
  0
LINE
  5
FF
330
1F
100
AcDbEntity
  8
1
  6
Continuous
 62
     3
100
AcDbLine
 10
-28.2286760835462
 20
157.394530991375
 30
0.0
 11
-47.2286760835461
 21
157.394530991375
 31
0.0
  0
LINE
  5
100
330
1F
100
AcDbEntity
  8
1
  6
Continuous
 62
     3
100
AcDbLine
 10
-47.2286760835461
 20
157.394530991375
 30
0.0
 11
-47.2286760835511
 21
144.314536482213
 31
0.0
  0
LINE
  5
101
330
1F
100
AcDbEntity
  8
1
  6
Continuous
 62
     3
100
AcDbLine
 10
-28.2286760835462
 20
157.394530991375
 30
0.0
 11
-28.2286760835511
 21
144.314536482404
 31
0.0
  0
LINE
  5
102
330
1F
100
AcDbEntity
  8
1
  6
Continuous
 62
     3
100
AcDbLine
 10
-34.2286760835462
 20
160.394530991375
 30
0.0
 11
-34.2286760835462
 21
160.894530991375
 31
0.0
  0
LINE
  5
103
330
1F
100
AcDbEntity
  8
1
  6
Continuous
 62
     3
100
AcDbLine
 10
-41.2286760835462
 20
160.394530991375
 30
0.0
 11
-41.2286760835462
 21
160.894530991375
 31
0.0
  0
LINE
  5
104
330
1F
100
AcDbEntity
  8
1
  6
Continuous
 62
     3
100
AcDbLine
 10
-41.2286760835462
 20
160.894530991375
 30
0.0
 11
-34.2286760835462
 21
160.894530991375
 31
0.0
  0
LINE
  5
105
330
1F
100
AcDbEntity
  8
1
  6
Continuous
 62
     3
100
AcDbLine
 10
-34.7286760835462
 20
160.894530991375
 30
0.0
 11
-34.2286760835462
 21
160.394530991375
 31
0.0
  0
LINE
  5
106
330
1F
100
AcDbEntity
  8
1
  6
Continuous
 62
     3
100
AcDbLine
 10
-41.2286760835462
 20
160.394530991375
 30
0.0
 11
-40.7286760835462
 21
160.894530991375
 31
0.0
  0
LINE
  5
107
330
1F
100
AcDbEntity
  8
1
  6
Continuous
 62
     4
100
AcDbLine
 10
-47.2286760835512
 20
142.97354455046
 30
0.0
 11
-28.2286760835512
 21
142.97354455046
 31
0.0
  0
LINE
  5
108
330
1F
100
AcDbEntity
  8
1
  6
DOT_CENTER
 62
     1
100
AcDbLine
 10
-37.7286760836139
 20
164.17935768391
 30
0.0
 11
-37.7286760836139
 21
63.2021728326086
 31
0.0
  0
LINE
  5
109
330
1F
100
AcDbEntity
  8
1
  6
Continuous
 62
     3
100
AcDbLine
 10
122.851726933166
 20
192.08239217245
 30
0.0
 11
139.690920899566
 21
192.08239217245
 31
0.0
  0
LINE
  5
10A
330
1F
100
AcDbEntity
  8
1
  6
DOT_CENTER
 62
     1
100
AcDbLine
 10
131.271323916366
 20
208.08239217245
 30
0.0
 11
131.271323916366
 21
172.08239217245
 31
0.0
  0
LINE
  5
10B
330
1F
100
AcDbEntity
  8
1
  6
Continuous
 62
     3
100
AcDbLine
 10
124.771323916366
 20
175.08239217245
 30
0.0
 11
124.771323916366
 21
189.08239217245
 31
0.0
  0
LINE
  5
10C
330
1F
100
AcDbEntity
  8
1
  6
Continuous
 62
     3
100
AcDbLine
 10
137.771323916366
 20
175.08239217245
 30
0.0
 11
124.771323916366
 21
175.08239217245
 31
0.0
  0
LINE
  5
10D
330
1F
100
AcDbEntity
  8
1
  6
Continuous
 62
     3
100
AcDbLine
 10
137.771323916366
 20
189.08239217245
 30
0.0
 11
137.771323916366
 21
175.08239217245
 31
0.0
  0
LINE
  5
10E
330
1F
100
AcDbEntity
  8
1
  6
Continuous
 62
     3
100
AcDbLine
 10
124.771323916366
 20
189.08239217245
 30
0.0
 11
137.771323916366
 21
189.08239217245
 31
0.0
  0
LINE
  5
10F
330
1F
100
AcDbEntity
  8
1
  6
Continuous
 62
     3
100
AcDbLine
 10
116.032899585296
 20
192.42980226584
 30
0.0
 11
114.360989539374
 21
198.279206213019
 31
0.0
  0
LINE
  5
110
330
1F
100
AcDbEntity
  8
1
  6
Continuous
 62
     3
100
AcDbLine
 10
121.618305553357
 20
194.010017695835
 30
0.0
 11
124.771323916366
 21
189.08239217245
 31
0.0
  0
LINE
  5
111
330
1F
100
AcDbEntity
  8
1
  6
Continuous
 62
     3
100
AcDbLine
 10
117.575971479172
 20
191.749809155756
 30
0.0
 11
119.573151132564
 21
194.375835590829
 31
0.0
  0
LINE
  5
112
330
1F
100
AcDbEntity
  8
1
  6
Continuous
 62
     3
100
AcDbLine
 10
142.969496700168
 20
194.375835590829
 30
0.0
 11
144.96667635356
 21
191.749809155756
 31
0.0
  0
LINE
  5
113
330
1F
100
AcDbEntity
  8
1
  6
Continuous
 62
     3
100
AcDbLine
 10
137.771323916366
 20
189.08239217245
 30
0.0
 11
140.924342279375
 21
194.010017695835
 31
0.0
  0
LINE
  5
114
330
1F
100
AcDbEntity
  8
1
  6
Continuous
 62
     3
100
AcDbLine
 10
148.181658293358
 20
198.279206213019
 30
0.0
 11
146.509748247436
 21
192.42980226584
 31
0.0
  0
LINE
  5
115
330
1F
100
AcDbEntity
  8
1
  6
Continuous
 62
     4
100
AcDbLine
 10
121.771323916366
 20
142.97354455046
 30
0.0
 11
140.771323916366
 21
142.97354455046
 31
0.0
  0
LINE
  5
116
330
1F
100
AcDbEntity
  8
1
  6
Continuous
 62
     3
100
AcDbLine
 10
127.771323916371
 20
160.394530991375
 30
0.0
 11
128.271323916371
 21
160.894530991375
 31
0.0
  0
LINE
  5
117
330
1F
100
AcDbEntity
  8
1
  6
Continuous
 62
     3
100
AcDbLine
 10
134.271323916371
 20
160.894530991375
 30
0.0
 11
134.771323916371
 21
160.394530991375
 31
0.0
  0
LINE
  5
118
330
1F
100
AcDbEntity
  8
1
  6
Continuous
 62
     3
100
AcDbLine
 10
127.771323916371
 20
160.894530991375
 30
0.0
 11
134.771323916371
 21
160.894530991375
 31
0.0
  0
LINE
  5
119
330
1F
100
AcDbEntity
  8
1
  6
Continuous
 62
     3
100
AcDbLine
 10
127.771323916371
 20
160.394530991375
 30
0.0
 11
127.771323916371
 21
160.894530991375
 31
0.0
  0
LINE
  5
11A
330
1F
100
AcDbEntity
  8
1
  6
Continuous
 62
     3
100
AcDbLine
 10
134.771323916371
 20
160.394530991375
 30
0.0
 11
134.771323916371
 21
160.894530991375
 31
0.0
  0
LINE
  5
11B
330
1F
100
AcDbEntity
  8
1
  6
Continuous
 62
     3
100
AcDbLine
 10
140.771323916366
 20
157.394530991375
 30
0.0
 11
140.771323916366
 21
144.314536482404
 31
0.0
  0
LINE
  5
11C
330
1F
100
AcDbEntity
  8
1
  6
Continuous
 62
     3
100
AcDbLine
 10
121.771323916366
 20
157.394530991375
 30
0.0
 11
121.771323916366
 21
144.314536482214
 31
0.0
  0
LINE
  5
11D
330
1F
100
AcDbEntity
  8
1
  6
Continuous
 62
     3
100
AcDbLine
 10
140.771323916366
 20
157.394530991375
 30
0.0
 11
121.771323916366
 21
157.394530991375
 31
0.0
  0
LINE
  5
11E
330
1F
100
AcDbEntity
  8
1
  6
Continuous
 62
     3
100
AcDbLine
 10
121.771323916371
 20
160.394530991375
 30
0.0
 11
140.771323916371
 21
160.394530991375
 31
0.0
  0
LINE
  5
11F
330
1F
100
AcDbEntity
  8
2
  6
Continuous
 62
     3
100
AcDbLine
 10
118.692941084814
 20
132.394530991375
 30
0.0
 11
143.849706748352
 21
132.394530991375
 31
0.0
  0
LINE
  5
120
330
1F
100
AcDbEntity
  8
LEVEL001
  6
DOT_CENTER
 62
     1
100
AcDbLine
 10
131.271323916287
 20
164.17935768391
 30
0.0
 11
131.271323916398
 21
94.1218616111839
 31
0.0
  0
LINE
  5
121
330
1F
100
AcDbEntity
  8
1
  6
Continuous
 62
     4
100
AcDbLine
 10
181.282920827851
 20
115.394530991645
 30
0.0
 11
182.094163283874
 21
117.743027334235
 31
0.0
  0
LINE
  5
122
330
1F
100
AcDbEntity
  8
1
  6
Continuous
 62
     3
100
AcDbLine
 10
181.282920827851
 20
115.394530991645
 30
0.0
 11
183.159725574691
 21
117.022767257011
 31
0.0
  0
LINE
  5
123
330
1F
100
AcDbEntity
  8
100
  6
Continuous
 62
     3
100
AcDbLine
 10
-24.7286760836139
 20
132.894530991255
 30
0.0
 11
-24.7286760836139
 21
140.894530992034
 31
0.0
  0
LINE
  5
124
330
1F
100
AcDbEntity
  8
1
  6
Continuous
 62
     3
100
AcDbLine
 10
-45.7286760836139
 20
234.98872832786
 30
0.0
 11
-45.7286760836139
 21
234.095994770746
 31
0.0
  0
LINE
  5
125
330
1F
100
AcDbEntity
  8
1
  6
DOT_CENTER
 62
     1
100
AcDbLine
 10
-64.728676083614
 20
104.894530991645
 30
0.0
 11
-51.7286760836139
 21
104.894530991645
 31
0.0
  0
LINE
  5
126
330
1F
100
AcDbEntity
  8
LEVEL001
  6
Continuous
 62
     3
100
AcDbLine
 10
-50.7286760835509
 20
127.892834649064
 30
0.0
 11
-50.7286760834179
 21
117.835502500015
 31
0.0
  0
LINE
  5
127
330
1F
100
AcDbEntity
  8
LEVEL001
  6
Continuous
 62
     3
100
AcDbLine
 10
-25.7286760835939
 20
128.894530991634
 30
0.0
 11
-25.7286760835789
 21
132.394530991367
 31
0.0
  0
LINE
  5
128
330
1F
100
AcDbEntity
  8
LEVEL001
  6
Continuous
 62
     3
100
AcDbLine
 10
-26.5286943941139
 20
132.394530991375
 30
0.0
 11
-26.5286943941139
 21
130.280203352554
 31
0.0
  0
LINE
  5
129
330
1F
100
AcDbEntity
  8
LEVEL001
  6
Continuous
 62
     3
100
AcDbLine
 10
-48.9286577732239
 20
130.280203352554
 30
0.0
 11
-48.9286577732239
 21
132.394530991375
 31
0.0
  0
LINE
  5
12A
330
1F
100
AcDbEntity
  8
LEVEL001
  6
Continuous
 62
     3
100
AcDbLine
 10
-49.7286760835239
 20
128.894530991624
 30
0.0
 11
-49.728676083543
 21
132.394530991633
 31
0.0
  0
LINE
  5
12B
330
1F
100
AcDbEntity
  8
LEVEL001
  6
Continuous
 62
     3
100
AcDbLine
 10
-24.7286760838099
 20
117.835502500015
 30
0.0
 11
-24.7286760836769
 21
127.892834649065
 31
0.0
  0
LINE
  5
12C
330
1F
100
AcDbEntity
  8
LEVEL001
  6
Continuous
 62
     3
100
AcDbLine
 10
-24.7286760836739
 20
127.894530991715
 30
0.0
 11
-25.7286760835939
 21
128.894530991634
 31
0.0
  0
LINE
  5
12D
330
1F
100
AcDbEntity
  8
LEVEL001
  6
Continuous
 62
     3
100
AcDbLine
 10
-49.7286760835239
 20
128.894530991624
 30
0.0
 11
-50.7303724260339
 21
127.892834649064
 31
0.0
  0
LINE
  5
12E
330
1F
100
AcDbEntity
  8
LEVEL001
  6
Continuous
 62
     3
100
AcDbLine
 10
-49.7286455659839
 20
130.280203352554
 30
0.0
 11
-25.7286760835879
 21
130.280203352554
 31
0.0
  0
LINE
  5
12F
330
1F
100
AcDbEntity
  8
1
  6
Continuous
 62
     3
100
AcDbLine
 10
-24.7286760836769
 20
127.892834649065
 30
0.0
 11
-50.7303724260339
 21
127.892834649064
 31
0.0
  0
LINE
  5
130
330
1F
100
AcDbEntity
  8
1
  6
Continuous
 62
     3
100
AcDbLine
 10
-51.7286760836139
 20
284.457611955156
 30
0.0
 11
-51.7286760836139
 21
276.668923372531
 31
0.0
  0
LINE
  5
131
330
1F
100
AcDbEntity
  8
1
  6
Continuous
 62
     3
100
AcDbLine
 10
-23.7286760836139
 20
284.457611955159
 30
0.0
 11
-23.7286760836139
 21
276.668923372529
 31
0.0
  0
LINE
  5
132
330
1F
100
AcDbEntity
  8
1
  6
Continuous
 62
     3
100
AcDbLine
 10
-49.2286760836139
 20
275.988984988561
 30
0.0
 11
-49.8267522949659
 21
275.988984988561
 31
0.0
  0
LINE
  5
133
330
1F
100
AcDbEntity
  8
1
  6
Continuous
 62
     3
100
AcDbLine
 10
-25.6305998722589
 20
275.988984988561
 30
0.0
 11
-26.2286760836139
 21
275.988984988561
 31
0.0
  0
LINE
  5
134
330
1F
100
AcDbEntity
  8
1
  6
Continuous
 62
     3
100
AcDbLine
 10
92.3657779130869
 20
97.2964547802918
 30
0.0
 11
92.3657779130869
 21
97.8945309916463
 31
0.0
  0
LINE
  5
135
330
1F
100
AcDbEntity
  8
1
  6
Continuous
 62
     3
100
AcDbLine
 10
92.3657779130869
 20
120.894530991646
 30
0.0
 11
92.3657779130869
 21
121.492607202998
 31
0.0
  0
LINE
  5
136
330
1F
100
AcDbEntity
  8
LEVEL001
  6
Continuous
 62
     3
100
AcDbLine
 10
-51.1973030502099
 20
284.988984988561
 30
0.0
 11
-24.2600491170159
 21
284.988984988561
 31
0.0
  0
LINE
  5
137
330
1F
100
AcDbEntity
  8
LEVEL001
  6
Continuous
 62
     3
100
AcDbLine
 10
-24.7286760836159
 20
286.874625634618
 30
0.0
 11
-25.6927776987259
 21
288.544498615594
 31
0.0
  0
LINE
  5
138
330
1F
100
AcDbEntity
  8
1
  6
Continuous
 62
     3
100
AcDbLine
 10
-29.7286760836139
 20
234.98872832786
 30
0.0
 11
-29.7286760836139
 21
234.095994770746
 31
0.0
  0
LINE
  5
139
330
1F
100
AcDbEntity
  8
LEVEL001
  6
Continuous
 62
     3
100
AcDbLine
 10
-25.4286760835349
 20
286.874625634618
 30
0.0
 11
-25.4286760835349
 21
284.988984988561
 31
0.0
  0
LINE
  5
13A
330
1F
100
AcDbEntity
  8
LEVEL001
  6
Continuous
 62
     3
100
AcDbLine
 10
-49.7645744685019
 20
288.544498615594
 30
0.0
 11
-50.7286760836129
 21
286.874625634618
 31
0.0
  0
LINE
  5
13B
330
1F
100
AcDbEntity
  8
LEVEL001
  6
Continuous
 62
     3
100
AcDbLine
 10
-50.0286760836929
 20
286.874625634618
 30
0.0
 11
-50.0286760836929
 21
284.988984988561
 31
0.0
  0
LINE
  5
13C
330
1F
100
AcDbEntity
  8
LEVEL001
  6
Continuous
 62
     3
100
AcDbLine
 10
-27.2286760836139
 20
274.988984988561
 30
0.0
 11
-48.2286760836139
 21
274.988984988561
 31
0.0
  0
LINE
  5
13D
330
1F
100
AcDbEntity
  8
LEVEL001
  6
Continuous
 62
     3
100
AcDbLine
 10
-50.7286760836129
 20
284.988984988561
 30
0.0
 11
-50.7286760836129
 21
286.874625634618
 31
0.0
  0
LINE
  5
13E
330
1F
100
AcDbEntity
  8
LEVEL001
  6
Continuous
 62
     3
100
AcDbLine
 10
-24.7286760836159
 20
286.874625634618
 30
0.0
 11
-24.7286760836159
 21
284.988984988561
 31
0.0
  0
LINE
  5
13F
330
1F
100
AcDbEntity
  8
1
  6
Continuous
 62
     3
100
AcDbLine
 10
-24.7286760836159
 20
286.874625634618
 30
0.0
 11
-50.7286760836129
 21
286.874625634618
 31
0.0
  0
LINE
  5
140
330
1F
100
AcDbEntity
  8
1
  6
Continuous
 62
     3
100
AcDbLine
 10
-29.7286760836139
 20
70.9791102700648
 30
0.0
 11
-29.7286760836139
 21
72.7210294058977
 31
0.0
  0
LINE
  5
141
330
1F
100
AcDbEntity
  8
1
  6
Continuous
 62
     3
100
AcDbLine
 10
-45.7286760836139
 20
72.7210294058977
 30
0.0
 11
-45.7286760836139
 21
70.9791102700648
 31
0.0
  0
LINE
  5
142
330
1F
100
AcDbEntity
  8
LEVEL001
  6
Continuous
 62
     3
100
AcDbLine
 10
57.8972336748939
 20
67.1935567055095
 30
0.0
 11
58.7899672320079
 21
68.9354758413423
 31
0.0
  0
LINE
  5
143
330
1F
100
AcDbEntity
  8
1
  6
Continuous
 62
     3
100
AcDbLine
 10
58.8207312468489
 20
70.7495399184269
 30
0.0
 11
58.9023812964209
 21
70.775856876553
 31
0.0
  0
LINE
  5
144
330
1F
100
AcDbEntity
  8
1
  6
Continuous
 62
     3
100
AcDbLine
 10
58.9136661856189
 20
70.4612033135235
 30
0.0
 11
58.8207312468489
 21
70.7495399184269
 31
0.0
  0
LINE
  5
145
330
1F
100
AcDbEntity
  8
LEVEL001
  6
Continuous
 62
     3
100
AcDbLine
 10
54.7166207208329
 20
96.7259810462628
 30
0.0
 11
45.5381897454899
 21
78.8168474358395
 31
0.0
  0
LINE
  5
146
330
1F
100
AcDbEntity
  8
1
  6
Continuous
 62
     3
100
AcDbLine
 10
45.4717324884109
 20
77.590901782125
 30
0.0
 11
45.1833958835079
 21
77.4979668433538
 31
0.0
  0
LINE
  5
147
330
1F
100
AcDbEntity
  8
1
  6
Continuous
 62
     3
100
AcDbLine
 10
45.4454155302839
 20
77.6725518316962
 30
0.0
 11
45.4717324884109
 21
77.590901782125
 31
0.0
  0
LINE
  5
148
330
1F
100
AcDbEntity
  8
1
  6
Continuous
 62
     3
100
AcDbLine
 10
58.8207312468489
 20
70.7495399184269
 30
0.0
 11
45.4717324884109
 21
77.590901782125
 31
0.0
  0
LINE
  5
149
330
1F
100
AcDbEntity
  8
1
  6
Continuous
 62
     3
100
AcDbLine
 10
103.251418559144
 20
96.3945309916459
 30
0.0
 11
103.251418559144
 21
122.394530991644
 31
0.0
  0
LINE
  5
14A
330
1F
100
AcDbEntity
  8
LEVEL001
  6
Continuous
 62
     3
100
AcDbLine
 10
103.251418559144
 20
96.3945309916459
 30
0.0
 11
101.365777913087
 21
96.3945309916464
 31
0.0
  0
LINE
  5
14B
330
1F
100
AcDbEntity
  8
LEVEL001
  6
Continuous
 62
     3
100
AcDbLine
 10
101.365777913087
 20
122.394530991644
 30
0.0
 11
103.251418559144
 21
122.394530991644
 31
0.0
  0
LINE
  5
14C
330
1F
100
AcDbEntity
  8
LEVEL001
  6
Continuous
 62
     3
100
AcDbLine
 10
44.0170752727639
 20
76.506582970453
 30
0.0
 11
43.1243417156499
 21
74.7646638346201
 31
0.0
  0
LINE
  5
14D
330
1F
100
AcDbEntity
  8
LEVEL001
  6
Continuous
 62
     3
100
AcDbLine
 10
68.9555527298219
 20
89.4285283916558
 30
0.0
 11
59.7771217544789
 21
71.5193947812338
 31
0.0
  0
LINE
  5
14E
330
1F
100
AcDbEntity
  8
LEVEL001
  6
DOT_CENTER
 62
     1
100
AcDbLine
 10
48.1611908150829
 20
66.3945309916451
 30
0.0
 11
61.8360867253249
 21
93.0772547189552
 31
0.0
  0
LINE
  5
14F
330
1F
100
AcDbEntity
  8
LEVEL001
  6
Continuous
 62
     3
100
AcDbLine
 10
56.7309130641519
 20
66.2021728326093
 30
0.0
 11
49.8657779130869
 21
69.7205545975079
 31
0.0
  0
LINE
  5
150
330
1F
100
AcDbEntity
  8
LEVEL001
  6
Continuous
 62
     3
100
AcDbLine
 10
49.8657779130869
 20
69.7205545975079
 30
0.0
 11
43.0006427620399
 21
73.2389363624389
 31
0.0
  0
LINE
  5
151
330
1F
100
AcDbEntity
  8
LEVEL001
  6
Continuous
 62
     3
100
AcDbLine
 10
91.3657779130869
 20
98.8945309916463
 30
0.0
 11
91.3657779130869
 21
119.894530991646
 31
0.0
  0
LINE
  5
152
330
1F
100
AcDbEntity
  8
LEVEL001
  6
Continuous
 62
     3
100
AcDbLine
 10
91.3657779130869
 20
101.394530991646
 30
0.0
 11
88.5340842420829
 21
101.394530991646
 31
0.0
  0
LINE
  5
153
330
1F
100
AcDbEntity
  8
LEVEL001
  6
Continuous
 62
     3
100
AcDbLine
 10
91.3657779130869
 20
117.394530991646
 30
0.0
 11
88.5340842419829
 21
117.394530991646
 31
0.0
  0
LINE
  5
154
330
1F
100
AcDbEntity
  8
LEVEL001
  6
Continuous
 62
     3
100
AcDbLine
 10
101.365777913087
 20
122.863157958242
 30
0.0
 11
101.365777913087
 21
95.9259040250482
 31
0.0
  0
LINE
  5
155
330
1F
100
AcDbEntity
  8
1
  6
Continuous
 62
     3
100
AcDbLine
 10
144.271323916387
 20
127.894528283503
 30
0.0
 11
118.269627574027
 21
127.894528283503
 31
0.0
  0
LINE
  5
156
330
1F
100
AcDbEntity
  8
LEVEL001
  6
Continuous
 62
     3
100
AcDbLine
 10
120.071342226837
 20
130.280203352554
 30
0.0
 11
120.071342226837
 21
132.394530991375
 31
0.0
  0
LINE
  5
157
330
1F
100
AcDbEntity
  8
LEVEL001
  6
Continuous
 62
     3
100
AcDbLine
 10
171.271323916332
 20
83.394530991645
 30
0.0
 11
171.271323916332
 21
126.394530991645
 31
0.0
  0
LINE
  5
158
330
1F
100
AcDbEntity
  8
LEVEL001
  6
Continuous
 62
     3
100
AcDbLine
 10
119.271354434077
 20
130.280203352554
 30
0.0
 11
143.271323916473
 21
130.280203352554
 31
0.0
  0
LINE
  5
159
330
1F
100
AcDbEntity
  8
LEVEL001
  6
Continuous
 62
     3
100
AcDbLine
 10
119.271323916537
 20
128.894530991624
 30
0.0
 11
119.271323916517
 21
132.394530991633
 31
0.0
  0
LINE
  5
15A
330
1F
100
AcDbEntity
  8
LEVEL001
  6
Continuous
 62
     3
100
AcDbLine
 10
103.251418559144
 20
121.694530991724
 30
0.0
 11
101.365777913087
 21
121.694530991724
 31
0.0
  0
LINE
  5
15B
330
1F
100
AcDbEntity
  8
LEVEL001
  6
Continuous
 62
     3
100
AcDbLine
 10
104.92129154012
 20
121.430429376533
 30
0.0
 11
103.251418559144
 21
122.394530991644
 31
0.0
  0
LINE
  5
15C
330
1F
100
AcDbEntity
  8
LEVEL001
  6
Continuous
 62
     3
100
AcDbLine
 10
103.251418559144
 20
97.0945309915655
 30
0.0
 11
101.365777913087
 21
97.0945309915655
 31
0.0
  0
LINE
  5
15D
330
1F
100
AcDbEntity
  8
LEVEL001
  6
Continuous
 62
     3
100
AcDbLine
 10
187.771323916172
 20
115.394530991645
 30
0.0
 11
173.771323916348
 21
115.394530991645
 31
0.0
  0
LINE
  5
15E
330
1F
100
AcDbEntity
  8
LEVEL001
  6
Continuous
 62
     3
100
AcDbLine
 10
172.771323916332
 20
127.894530991645
 30
0.0
 11
173.771323916348
 21
127.894530991645
 31
0.0
  0
LINE
  5
15F
330
1F
100
AcDbEntity
  8
LEVEL001
  6
Continuous
 62
     3
100
AcDbLine
 10
175.93638742583
 20
114.144530991645
 30
0.0
 11
187.771323916172
 21
114.144530991645
 31
0.0
  0
LINE
  5
160
330
1F
100
AcDbEntity
  8
LEVEL001
  6
Continuous
 62
     3
100
AcDbLine
 10
175.93638742583
 20
95.644530991645
 30
0.0
 11
187.771323916172
 21
95.644530991645
 31
0.0
  0
LINE
  5
161
330
1F
100
AcDbEntity
  8
LEVEL001
  6
Continuous
 62
     3
100
AcDbLine
 10
187.771323916172
 20
94.394530991645
 30
0.0
 11
173.771323916348
 21
94.394530991645
 31
0.0
  0
LINE
  5
162
330
1F
100
AcDbEntity
  8
LEVEL001
  6
Continuous
 62
     3
100
AcDbLine
 10
175.93638742583
 20
115.394530991645
 30
0.0
 11
175.93638742583
 21
94.394530991645
 31
0.0
  0
LINE
  5
163
330
1F
100
AcDbEntity
  8
LEVEL001
  6
Continuous
 62
     3
100
AcDbLine
 10
173.771323916348
 20
127.894530991645
 30
0.0
 11
173.771323916348
 21
81.894530991645
 31
0.0
  0
LINE
  5
164
330
1F
100
AcDbEntity
  8
LEVEL001
  6
Continuous
 62
     3
100
AcDbLine
 10
173.771323916348
 20
81.894530991645
 30
0.0
 11
172.771323916332
 21
81.894530991645
 31
0.0
  0
LINE
  5
165
330
1F
100
AcDbEntity
  8
LEVEL001
  6
Continuous
 62
     3
100
AcDbLine
 10
187.771323916172
 20
94.394530991645
 30
0.0
 11
187.771323916172
 21
115.394530991645
 31
0.0
  0
LINE
  5
166
330
1F
100
AcDbEntity
  8
LEVEL001
  6
DOT_CENTER
 62
     1
100
AcDbLine
 10
192.578525477621
 20
104.894530991645
 30
0.0
 11
173.771323916369
 21
104.894530991645
 31
0.0
  0
LINE
  5
167
330
1F
100
AcDbEntity
  8
LEVEL001
  6
Continuous
 62
     3
100
AcDbLine
 10
107.454417131297
 20
98.2023311952065
 30
0.0
 11
124.965588612244
 21
98.2023311952065
 31
0.0
  0
LINE
  5
168
330
1F
100
AcDbEntity
  8
LEVEL001
  6
Continuous
 62
     3
100
AcDbLine
 10
105.45441713125
 20
97.6664328103172
 30
0.0
 11
103.251418559144
 21
96.3945309916459
 31
0.0
  0
LINE
  5
169
330
1F
100
AcDbEntity
  8
LEVEL001
  6
Continuous
 62
     3
100
AcDbLine
 10
168.428331785061
 20
95.9245453439727
 30
0.0
 11
124.965588612244
 21
98.2023311952065
 31
0.0
  0
LINE
  5
16A
330
1F
100
AcDbEntity
  8
LEVEL001
  6
Continuous
 62
     3
100
AcDbLine
 10
113.053976395863
 20
120.894530991644
 30
0.0
 11
106.921291540167
 21
120.894530991644
 31
0.0
  0
LINE
  5
16B
330
1F
100
AcDbEntity
  8
LEVEL001
  6
Continuous
 62
     3
100
AcDbLine
 10
119.271323916537
 20
128.894530991624
 30
0.0
 11
118.256986775089
 21
127.880193850125
 31
0.0
  0
LINE
  5
16C
330
1F
100
AcDbEntity
  8
LEVEL001
  6
Continuous
 62
     3
100
AcDbLine
 10
168.271323916332
 20
114.308593491635
 30
0.0
 11
156.590956485226
 21
114.920735609916
 31
0.0
  0
LINE
  5
16D
330
1F
100
AcDbEntity
  8
LEVEL001
  6
Continuous
 62
     3
100
AcDbLine
 10
144.271326624598
 20
127.894528283503
 30
0.0
 11
143.271323916467
 21
128.894530991634
 31
0.0
  0
LINE
  5
16E
330
1F
100
AcDbEntity
  8
LEVEL001
  6
Continuous
 62
     3
100
AcDbLine
 10
143.271323916467
 20
128.894530991634
 30
0.0
 11
143.271323916482
 21
132.394530991367
 31
0.0
  0
LINE
  5
16F
330
1F
100
AcDbEntity
  8
LEVEL001
  6
DOT_CENTER
 62
     1
100
AcDbLine
 10
88.5340842420339
 20
109.394530991646
 30
0.0
 11
132.051260703077
 21
109.394530991644
 31
0.0
  0
LINE
  5
170
330
1F
100
AcDbEntity
  8
LEVEL001
  6
Continuous
 62
     1
100
AcDbLine
 10
154.59323211708
 20
105.899612193725
 30
0.0
 11
154.59323211708
 21
105.899612193725
 31
0.0
  0
LINE
  5
171
330
1F
100
AcDbEntity
  8
LEVEL001
  6
DOT_CENTER
 62
     1
100
AcDbLine
 10
173.771323916369
 20
104.894530991645
 30
0.0
 11
131.271323916177
 21
107.121861611185
 31
0.0
  0
LINE
  5
172
330
1F
100
AcDbEntity
  8
LEVEL001
  6
Continuous
 62
     3
100
AcDbLine
 10
142.471305605947
 20
132.394530991375
 30
0.0
 11
142.471305605947
 21
130.280203352554
 31
0.0
  0
LINE
  5
173
330
1F
100
AcDbEntity
  8
100
  6
Continuous
 62
     3
100
AcDbLine
 10
-50.3070589153376
 20
132.394530991644
 30
0.0
 11
-25.1502932512983
 21
132.394530991644
 31
0.0
  0
LINE
  5
174
330
1F
100
AcDbEntity
  8
100
  6
Continuous
 62
     3
100
AcDbLine
 10
-50.7286760836139
 20
132.894530992032
 30
0.0
 11
-50.7286760836139
 21
140.894530991257
 31
0.0
  0
LINE
  5
175
330
1F
100
AcDbEntity
  8
1
  6
DOT_CENTER
 62
     1
100
AcDbLine
 10
-54.7286760836139
 20
109.394530991645
 30
0.0
 11
-20.7286760836139
 21
109.394530991645
 31
0.0
  0
LINE
  5
176
330
1F
100
AcDbEntity
  8
100
  6
Continuous
 62
     3
100
AcDbLine
 10
-29.7286760836139
 20
97.8475256078523
 30
0.0
 11
-24.9678167727129
 21
100.596209012575
 31
0.0
  0
LINE
  5
177
330
1F
100
AcDbEntity
  8
100
  6
Continuous
 62
     3
100
AcDbLine
 10
-23.7286760836139
 20
102.74246364382
 30
0.0
 11
-23.7286760836139
 21
116.04659833947
 31
0.0
  0
LINE
  5
178
330
1F
100
AcDbEntity
  8
100
  6
Continuous
 62
     3
100
AcDbLine
 10
-24.9678167727119
 20
118.192852970715
 30
0.0
 11
-36.4895353945149
 21
124.84492031854
 31
0.0
  0
LINE
  5
179
330
1F
100
AcDbEntity
  8
100
  6
Continuous
 62
     3
100
AcDbLine
 10
-51.7286760836139
 20
116.04659833947
 30
0.0
 11
-51.7286760836139
 21
102.742463643821
 31
0.0
  0
LINE
  5
17A
330
1F
100
AcDbEntity
  8
100
  6
Continuous
 62
     3
100
AcDbLine
 10
-38.9678167727119
 20
124.84492031854
 30
0.0
 11
-50.4895353945149
 21
118.192852970715
 31
0.0
  0
LINE
  5
17B
330
1F
100
AcDbEntity
  8
100
  6
Continuous
 62
     3
100
AcDbLine
 10
-50.4895353945149
 20
100.596209012576
 30
0.0
 11
-45.7286760836139
 21
97.847525607852
 31
0.0
  0
LINE
  5
17C
330
1F
100
AcDbEntity
  8
100
  6
Continuous
 62
     3
100
AcDbLine
 10
-29.7286760836139
 20
109.394530991645
 30
0.0
 11
-29.7286760836139
 21
75.1681211085354
 31
0.0
  0
LINE
  5
17D
330
1F
100
AcDbEntity
  8
100
  6
Continuous
 62
     3
100
AcDbLine
 10
-45.7286760836139
 20
109.394530991645
 30
0.0
 11
-45.7286760836139
 21
75.1681211085354
 31
0.0
  0
LINE
  5
17E
330
1F
100
AcDbEntity
  8
1
  6
Continuous
 62
     3
100
AcDbLine
 10
-28.413176083614
 20
359.559594501304
 30
0.0
 11
-28.413176083614
 21
371.394530991646
 31
0.0
  0
LINE
  5
17F
330
1F
100
AcDbEntity
  8
100
  6
Continuous
 62
     3
100
AcDbLine
 10
-27.2511760836139
 20
371.394530991646
 30
0.0
 11
-48.2061760836139
 21
371.394530991646
 31
0.0
  0
LINE
  5
180
330
1F
100
AcDbEntity
  8
100
  6
Continuous
 62
     3
100
AcDbLine
 10
-27.2511760836139
 20
357.394530991646
 30
0.0
 11
-27.2511760836139
 21
371.394530991646
 31
0.0
  0
LINE
  5
181
330
1F
100
AcDbEntity
  8
100
  6
Continuous
 62
     3
100
AcDbLine
 10
-16.2286760836139
 20
354.894530991646
 30
0.0
 11
-59.2286760836139
 21
354.894530991646
 31
0.0
  0
LINE
  5
182
330
1F
100
AcDbEntity
  8
100
  6
Continuous
 62
     3
100
AcDbLine
 10
-14.7286760836139
 20
357.394530991646
 30
0.0
 11
-60.7286760836139
 21
357.394530991646
 31
0.0
  0
LINE
  5
183
330
1F
100
AcDbEntity
  8
100
  6
Continuous
 62
     3
100
AcDbLine
 10
-14.7286760836139
 20
356.394530991646
 30
0.0
 11
-14.7286760836139
 21
357.394530991646
 31
0.0
  0
LINE
  5
184
330
1F
100
AcDbEntity
  8
1
  6
Continuous
 62
     3
100
AcDbLine
 10
-47.0441760836139
 20
359.559594501304
 30
0.0
 11
-47.0441760836139
 21
371.394530991646
 31
0.0
  0
LINE
  5
185
330
1F
100
AcDbEntity
  8
100
  6
Continuous
 62
     3
100
AcDbLine
 10
-27.2511760836139
 20
359.559594501304
 30
0.0
 11
-48.2061760836139
 21
359.559594501304
 31
0.0
  0
LINE
  5
186
330
1F
100
AcDbEntity
  8
100
  6
Continuous
 62
     3
100
AcDbLine
 10
-48.2061760836139
 20
357.394530991646
 30
0.0
 11
-48.2061760836139
 21
371.394530991646
 31
0.0
  0
LINE
  5
187
330
1F
100
AcDbEntity
  8
100
  6
Continuous
 62
     3
100
AcDbLine
 10
-60.7286760836139
 20
356.394530991646
 30
0.0
 11
-60.7286760836139
 21
357.394530991646
 31
0.0
  0
LINE
  5
188
330
1F
100
AcDbEntity
  8
100
  6
Continuous
 62
     3
100
AcDbLine
 10
-28.7286760836139
 20
346.101563874499
 30
0.0
 11
-28.7286760836139
 21
350.394530991646
 31
0.0
  0
LINE
  5
189
330
1F
100
AcDbEntity
  8
100
  6
Continuous
 62
     3
100
AcDbLine
 10
-46.7286760836129
 20
346.101563874499
 30
0.0
 11
-46.7286760836139
 21
350.394530991646
 31
0.0
  0
LINE
  5
18A
330
1F
100
AcDbEntity
  8
100
  6
Continuous
 62
     3
100
AcDbLine
 10
-45.7286760836139
 20
236.242862825462
 30
0.0
 11
-45.7286760836139
 21
274.988984988561
 31
0.0
  0
LINE
  5
18B
330
1F
100
AcDbEntity
  8
100
  6
Continuous
 62
     3
100
AcDbLine
 10
-29.7286760836139
 20
236.242862825462
 30
0.0
 11
-29.7286760836139
 21
274.988984988561
 31
0.0
  0
LINE
  5
18C
330
1F
100
AcDbEntity
  8
1
  6
Continuous
 62
     3
100
AcDbLine
 10
-49.2286760836129
 20
290.544498615641
 30
0.0
 11
-49.2286760836129
 21
306.854185421801
 31
0.0
  0
LINE
  5
18D
330
1F
100
AcDbEntity
  8
1
  6
Continuous
 62
     3
100
AcDbLine
 10
-26.2286760836149
 20
290.544498615641
 30
0.0
 11
-26.2286760836149
 21
306.8541854218
 31
0.0
  0
LINE
  5
18E
330
1F
100
AcDbEntity
  8
1
  6
DOT_CENTER
 62
     1
100
AcDbLine
 10
-23.7286760836139
 20
104.894530991645
 30
0.0
 11
-10.7286760836139
 21
104.894530991645
 31
0.0
  0
LINE
  5
18F
330
1F
100
AcDbEntity
  8
1
  6
Continuous
 62
     3
100
AcDbLine
 10
-49.7286760836139
 20
326.67122446977
 30
0.0
 11
-49.7286760836139
 21
322.167574156838
 31
0.0
  0
LINE
  5
190
330
1F
100
AcDbEntity
  8
1
  6
Continuous
 62
     3
100
AcDbLine
 10
-25.7286760836139
 20
326.671224469774
 30
0.0
 11
-25.7286760836139
 21
322.167574156838
 31
0.0
  0
ARC
  5
191
330
1F
100
AcDbEntity
  8
1
  6
Continuous
 62
     3
100
AcDbCircle
 10
142.271323916366
 20
144.314536482404
 30
0.0
 40
1.5
100
AcDbArc
 50
180.0
 51
246.340339019072
  0
ARC
  5
192
330
1F
100
AcDbEntity
  8
1
  6
Continuous
 62
     3
100
AcDbCircle
 10
120.271323916366
 20
144.314536482214
 30
0.0
 40
1.500000000000323
100
AcDbArc
 50
293.6596609842643
 51
0.0
  0
ARC
  5
193
330
1F
100
AcDbEntity
  8
1
  6
Continuous
 62
     3
100
AcDbCircle
 10
-48.7286760835349
 20
144.314536482214
 30
0.0
 40
1.500000000000243
100
AcDbArc
 50
293.6596609842574
 51
359.9999999999609
  0
ARC
  5
194
330
1F
100
AcDbEntity
  8
1
  6
Continuous
 62
     3
100
AcDbCircle
 10
-26.7286760835349
 20
144.314536482404
 30
0.0
 40
1.5000000000162
100
AcDbArc
 50
180.0
 51
246.3403390190921
  0
ARC
  5
195
330
1F
100
AcDbEntity
  8
1
  6
Continuous
 62
     3
100
AcDbCircle
 10
7.61272357506158
 20
314.894530991653
 30
0.0
 40
6.499999999999954
100
AcDbArc
 50
104.2500326978036
 51
255.7499673021967
  0
ARC
  5
196
330
1F
100
AcDbEntity
  8
1
  6
Continuous
 62
     3
100
AcDbCircle
 10
7.61272357506158
 20
314.894530991653
 30
0.0
 40
6.50000000000002
100
AcDbArc
 50
0.0
 51
75.74996730219638
  0
ARC
  5
197
330
1F
100
AcDbEntity
  8
1
  6
Continuous
 62
     3
100
AcDbCircle
 10
7.61272357506158
 20
314.894530991653
 30
0.0
 40
6.500000000000009
100
AcDbArc
 50
284.2500326978035
 51
0.0
  0
ARC
  5
198
330
1F
100
AcDbEntity
  8
1
  6
Continuous
 62
     3
100
AcDbCircle
 10
-37.7286760836139
 20
314.894530991653
 30
0.0
 40
14.03200473498493
100
AcDbArc
 50
24.41487185488349
 51
35.58512814639794
  0
ARC
  5
199
330
1F
100
AcDbEntity
  8
1
  6
Continuous
 62
     3
100
AcDbCircle
 10
-37.7286760836139
 20
314.894530991653
 30
0.0
 40
14.03200473498519
100
AcDbArc
 50
84.41487185488296
 51
95.58512814639771
  0
ARC
  5
19A
330
1F
100
AcDbEntity
  8
1
  6
Continuous
 62
     3
100
AcDbCircle
 10
-37.7286760836139
 20
314.894530991653
 30
0.0
 40
14.03200473498486
100
AcDbArc
 50
324.414871854882
 51
335.5851281463983
  0
ARC
  5
19B
330
1F
100
AcDbEntity
  8
1
  6
Continuous
 62
     3
100
AcDbCircle
 10
-37.7286760836139
 20
314.894530991653
 30
0.0
 40
14.03200473498424
100
AcDbArc
 50
264.4148718548822
 51
275.5851281463972
  0
ARC
  5
19C
330
1F
100
AcDbEntity
  8
1
  6
Continuous
 62
     3
100
AcDbCircle
 10
-37.7286760836139
 20
314.894530991653
 30
0.0
 40
14.03200473498505
100
AcDbArc
 50
204.4148718548835
 51
215.5851281463947
  0
ARC
  5
19D
330
1F
100
AcDbEntity
  8
1
  6
Continuous
 62
     3
100
AcDbCircle
 10
-37.7286760836139
 20
314.894530991653
 30
0.0
 40
14.032004734985
100
AcDbArc
 50
144.4148718548827
 51
155.5851281463951
  0
ARC
  5
19E
330
1F
100
AcDbEntity
  8
1
  6
Continuous
 62
     3
100
AcDbCircle
 10
-37.7286760836139
 20
314.894530991653
 30
0.0
 40
4.74999999987402
100
AcDbArc
 50
304.8018692332696
 51
325.198130766735
  0
ARC
  5
19F
330
1F
100
AcDbEntity
  8
1
  6
Continuous
 62
     3
100
AcDbCircle
 10
-37.7286760836139
 20
314.894530991653
 30
0.0
 40
4.749999999874511
100
AcDbArc
 50
34.80482796240705
 51
44.99999999999461
  0
ARC
  5
1A0
330
1F
100
AcDbEntity
  8
1
  6
Continuous
 62
     3
100
AcDbCircle
 10
-37.7286760836139
 20
314.894530991653
 30
0.0
 40
4.749999999874396
100
AcDbArc
 50
44.99999999999461
 51
55.02960731025769
  0
ARC
  5
1A1
330
1F
100
AcDbEntity
  8
1
  6
Continuous
 62
     3
100
AcDbCircle
 10
-37.7286760836139
 20
314.894530991653
 30
0.0
 40
4.749999999873923
100
AcDbArc
 50
214.9703926897358
 51
235.1951720375974
  0
ARC
  5
1A2
330
1F
100
AcDbEntity
  8
1
  6
Continuous
 62
     3
100
AcDbCircle
 10
-37.7286760836139
 20
314.894530991653
 30
0.0
 40
4.749999999874411
100
AcDbArc
 50
124.9674339606074
 51
145.0325660393873
  0
ARC
  5
1A3
330
1F
100
AcDbEntity
  8
1
  6
Continuous
 62
     3
100
AcDbCircle
 10
-28.8536760835462
 20
158.894530991375
 30
0.0
 40
1.625
100
AcDbArc
 50
292.6198649480405
 51
67.38013505195957
  0
ARC
  5
1A4
330
1F
100
AcDbEntity
  8
1
  6
Continuous
 62
     3
100
AcDbCircle
 10
-46.6036760835461
 20
158.894530991375
 30
0.0
 40
1.625
100
AcDbArc
 50
112.6198649480404
 51
247.3801350519595
  0
ARC
  5
1A5
330
1F
100
AcDbEntity
  8
1
  6
Continuous
 62
     3
100
AcDbCircle
 10
139.1920534971
 20
348.696815109422
 30
0.0
 40
145.3304293719023
100
AcDbArc
 50
262.6120928501639
 51
266.8757447908379
  0
ARC
  5
1A6
330
1F
100
AcDbEntity
  8
1
  6
Continuous
 62
     3
100
AcDbCircle
 10
123.350594335633
 20
348.696815109422
 30
0.0
 40
145.3304293719023
100
AcDbArc
 50
273.1242552091617
 51
277.3879071498355
  0
ARC
  5
1A7
330
1F
100
AcDbEntity
  8
1
  6
Continuous
 62
     3
100
AcDbCircle
 10
122.396323916371
 20
158.894530991375
 30
0.0
 40
1.625
100
AcDbArc
 50
112.6198649480404
 51
247.3801350517968
  0
ARC
  5
1A8
330
1F
100
AcDbEntity
  8
1
  6
Continuous
 62
     3
100
AcDbCircle
 10
140.146323916371
 20
158.894530991375
 30
0.0
 40
1.624999999998076
100
AcDbArc
 50
292.6198649478777
 51
67.38013505195957
  0
ARC
  5
1A9
330
1F
100
AcDbEntity
  8
1
  6
Continuous
 62
     3
100
AcDbCircle
 10
117.021271282947
 20
192.581859450094
 30
0.0
 40
1.000000000000388
100
AcDbArc
 50
188.7461622625539
 51
303.6900675259642
  0
ARC
  5
1AA
330
1F
100
AcDbEntity
  8
1
  6
Continuous
 62
     3
100
AcDbCircle
 10
120.405201426902
 20
193.127760149322
 30
0.0
 40
1.500000000000429
100
AcDbArc
 50
36.02737338511151
 51
123.6900675259792
  0
ARC
  5
1AB
330
1F
100
AcDbEntity
  8
1
  6
Continuous
 62
     3
100
AcDbCircle
 10
119.95809215994
 20
198.960946337642
 30
0.0
 40
5.638468528126051
100
AcDbArc
 50
84.4383663861337
 51
186.944551428548
  0
ARC
  5
1AC
330
1F
100
AcDbEntity
  8
1
  6
Continuous
 62
     3
100
AcDbCircle
 10
142.584555672793
 20
198.960946337642
 30
0.0
 40
5.638468528125054
100
AcDbArc
 50
353.0554485714508
 51
95.56163361387735
  0
ARC
  5
1AD
330
1F
100
AcDbEntity
  8
1
  6
Continuous
 62
     3
100
AcDbCircle
 10
142.13744640583
 20
193.127760149322
 30
0.0
 40
1.500000000000302
100
AcDbArc
 50
56.30993247401992
 51
143.9726266148882
  0
ARC
  5
1AE
330
1F
100
AcDbEntity
  8
1
  6
Continuous
 62
     3
100
AcDbCircle
 10
145.521376549785
 20
192.581859450094
 30
0.0
 40
1.000000000000002
100
AcDbArc
 50
236.3099324740351
 51
351.253837737446
  0
ARC
  5
1AF
330
1F
100
AcDbEntity
  8
1
  6
Continuous
 62
     3
100
AcDbCircle
 10
-36.7176062424369
 20
234.48951126988
 30
0.0
 40
6.99999999999912
100
AcDbArc
 50
329.8353364686232
 51
356.7773246679048
  0
ARC
  5
1B0
330
1F
100
AcDbEntity
  8
1
  6
Continuous
 62
     3
100
AcDbCircle
 10
-31.7286760836139
 20
234.98872832786
 30
0.0
 40
2.0
100
AcDbArc
 50
0.0
 51
14.93831576153272
  0
ARC
  5
1B1
330
1F
100
AcDbEntity
  8
1
  6
Continuous
 62
     3
100
AcDbCircle
 10
-34.7279512064459
 20
236.327999458191
 30
0.0
 40
5.000000000000457
100
AcDbArc
 50
330.2874493796708
 51
359.024358904082
  0
ARC
  5
1B2
330
1F
100
AcDbEntity
  8
1
  6
Continuous
 62
     3
100
AcDbCircle
 10
-43.7286760836139
 20
234.98872832786
 30
0.0
 40
1.999999999999874
100
AcDbArc
 50
165.0616842384665
 51
180.0
  0
ARC
  5
1B3
330
1F
100
AcDbEntity
  8
1
  6
Continuous
 62
     3
100
AcDbCircle
 10
-40.7294009607819
 20
236.327999458191
 30
0.0
 40
4.99999999999993
100
AcDbArc
 50
180.975641095918
 51
210.454462168643
  0
ARC
  5
1B4
330
1F
100
AcDbEntity
  8
1
  6
Continuous
 62
     3
100
AcDbCircle
 10
-38.7397459247909
 20
234.48951126988
 30
0.0
 40
6.999999999999737
100
AcDbArc
 50
183.2226753320951
 51
210.1646635313735
  0
ARC
  5
1B5
330
1F
100
AcDbEntity
  8
1
  6
Continuous
 62
     3
100
AcDbCircle
 10
-34.7251080200179
 20
71.1679697545642
 30
0.0
 40
4.999999999999942
100
AcDbArc
 50
338.2185533001397
 51
357.8353147832983
  0
ARC
  5
1B6
330
1F
100
AcDbEntity
  8
1
  6
Continuous
 62
     3
100
AcDbCircle
 10
-31.2234786608589
 20
75.2928818999004
 30
0.0
 40
1.500000000000184
100
AcDbArc
 50
318.778162552861
 51
355.2289770805285
  0
ARC
  5
1B7
330
1F
100
AcDbEntity
  8
1
  6
Continuous
 62
     3
100
AcDbCircle
 10
-33.7276352351819
 20
72.629413320596
 30
0.0
 40
4.000008475365453
100
AcDbArc
 50
1.31241573945312
 51
40.17801146102019
  0
ARC
  5
1B8
330
1F
100
AcDbEntity
  8
1
  6
Continuous
 62
     3
100
AcDbCircle
 10
-41.7297169320459
 20
72.629413320596
 30
0.0
 40
4.000008475366195
100
AcDbArc
 50
139.8219885389861
 51
178.6875842605469
  0
ARC
  5
1B9
330
1F
100
AcDbEntity
  8
1
  6
Continuous
 62
     3
100
AcDbCircle
 10
-40.7322441472099
 20
71.1679697545642
 30
0.0
 40
5.000000000000322
100
AcDbArc
 50
182.1646852167018
 51
201.7814466998612
  0
ARC
  5
1BA
330
1F
100
AcDbEntity
  8
1
  6
Continuous
 62
     3
100
AcDbCircle
 10
-49.7286760836139
 20
326.67122446977
 30
0.0
 40
24.0
100
AcDbArc
 50
0.00000000000963
 51
16.94581792734708
  0
ARC
  5
1BB
330
1F
100
AcDbEntity
  8
1
  6
Continuous
 62
     3
100
AcDbCircle
 10
-25.7286760836139
 20
326.671224469774
 30
0.0
 40
23.99999999999917
100
AcDbArc
 50
163.0541820726692
 51
180.0000000000096
  0
ARC
  5
1BC
330
1F
100
AcDbEntity
  8
1
  6
Continuous
 62
     3
100
AcDbCircle
 10
91.3657779130869
 20
120.894530991646
 30
0.0
 40
1.0
100
AcDbArc
 50
270.0
 51
0.0
  0
ARC
  5
1BD
330
1F
100
AcDbEntity
  8
1
  6
Continuous
 62
     3
100
AcDbCircle
 10
91.3657779130869
 20
97.8945309916463
 30
0.0
 40
1.0
100
AcDbArc
 50
0.0
 51
90.0
  0
ARC
  5
1BE
330
1F
100
AcDbEntity
  8
1
  6
Continuous
 62
     3
100
AcDbCircle
 10
-26.2286760836139
 20
274.988984988561
 30
0.0
 40
1.0
100
AcDbArc
 50
90.0
 51
180.0
  0
ARC
  5
1BF
330
1F
100
AcDbEntity
  8
1
  6
Continuous
 62
     3
100
AcDbCircle
 10
-49.2286760836139
 20
274.988984988561
 30
0.0
 40
1.0
100
AcDbArc
 50
0.0
 51
90.0
  0
ARC
  5
1C0
330
1F
100
AcDbEntity
  8
1
  6
Continuous
 62
     3
100
AcDbCircle
 10
-47.2286760836129
 20
280.488984988561
 30
0.0
 40
6.000000000000071
100
AcDbArc
 50
131.4096221092716
 51
138.5903778907492
  0
ARC
  5
1C1
330
1F
100
AcDbEntity
  8
1
  6
Continuous
 62
     3
100
AcDbCircle
 10
-28.2286760836129
 20
280.488984988561
 30
0.0
 40
5.999999999999972
100
AcDbArc
 50
41.40962210928503
 51
48.59037789072832
  0
ARC
  5
1C2
330
1F
100
AcDbEntity
  8
1
  6
Continuous
 62
     3
100
AcDbCircle
 10
96.8657779130869
 20
99.8945309916451
 30
0.0
 40
5.999999999999975
100
AcDbArc
 50
239.9999999999998
 51
318.5903778907297
  0
ARC
  5
1C3
330
1F
100
AcDbEntity
  8
1
  6
Continuous
 62
     3
100
AcDbCircle
 10
96.8657779130869
 20
118.894530991645
 30
0.0
 40
6.00000000000015
100
AcDbArc
 50
41.40962210927105
 51
119.9999999999982
  0
ARC
  5
1C4
330
1F
100
AcDbEntity
  8
1
  6
Continuous
 62
     3
100
AcDbCircle
 10
-37.7286760836139
 20
109.394530991645
 30
0.0
 40
15.49999999999998
100
AcDbArc
 50
25.41462091516085
 51
34.58537908483902
  0
ARC
  5
1C5
330
1F
100
AcDbEntity
  8
1
  6
Continuous
 62
     3
100
AcDbCircle
 10
-37.7286760836139
 20
109.394530991645
 30
0.0
 40
15.49999999999983
100
AcDbArc
 50
325.4146209151589
 51
334.5853790848392
  0
ARC
  5
1C6
330
1F
100
AcDbEntity
  8
1
  6
Continuous
 62
     3
100
AcDbCircle
 10
-37.7286760836139
 20
109.394530991645
 30
0.0
 40
15.49999999999956
100
AcDbArc
 50
205.4146209151575
 51
214.5853790848381
  0
ARC
  5
1C7
330
1F
100
AcDbEntity
  8
1
  6
Continuous
 62
     3
100
AcDbCircle
 10
-37.7286760836139
 20
109.394530991645
 30
0.0
 40
15.49999999999984
100
AcDbArc
 50
145.4146209151589
 51
154.5853790848392
  0
ARC
  5
1C8
330
1F
100
AcDbEntity
  8
1
  6
Continuous
 62
     3
100
AcDbCircle
 10
-37.7286760836139
 20
109.394530991645
 30
0.0
 40
15.50000000000038
100
AcDbArc
 50
85.41462091515942
 51
94.58537908483692
  0
ARC
  5
1C9
330
1F
100
AcDbEntity
  8
LEVEL001
  6
Continuous
 62
     3
100
AcDbCircle
 10
-22.2286760836149
 20
290.544498615641
 30
0.0
 40
4.0
100
AcDbArc
 50
180.0
 51
210.000000000774
  0
ARC
  5
1CA
330
1F
100
AcDbEntity
  8
LEVEL001
  6
Continuous
 62
     3
100
AcDbCircle
 10
-53.2286760836129
 20
290.544498615641
 30
0.0
 40
4.000000000000311
100
AcDbArc
 50
329.999999999226
 51
0.0
  0
ARC
  5
1CB
330
1F
100
AcDbEntity
  8
1
  6
Continuous
 62
     3
100
AcDbCircle
 10
-44.2338735063689
 20
75.2928818999004
 30
0.0
 40
1.500000000000101
100
AcDbArc
 50
184.7710229194715
 51
221.2218374471361
  0
ARC
  5
1CC
330
1F
100
AcDbEntity
  8
LEVEL001
  6
Continuous
 62
     3
100
AcDbCircle
 10
88.5340842420329
 20
79.3945309916464
 30
0.0
 40
37.99999999999959
100
AcDbArc
 50
90.0000000000754
 51
152.8648603779212
  0
ARC
  5
1CD
330
1F
100
AcDbEntity
  8
LEVEL001
  6
Continuous
 62
     3
100
AcDbCircle
 10
88.5340842420329
 20
79.3945309916464
 30
0.0
 40
21.99999999999959
100
AcDbArc
 50
89.9999999998698
 51
152.8648603779202
  0
ARC
  5
1CE
330
1F
100
AcDbEntity
  8
LEVEL001
  6
DOT_CENTER
 62
     1
100
AcDbCircle
 10
88.5340842420329
 20
79.3945309916464
 30
0.0
 40
29.99999999999959
100
AcDbArc
 50
89.9999999999981
 51
152.8648603779301
  0
ARC
  5
1CF
330
1F
100
AcDbEntity
  8
LEVEL001
  6
Continuous
 62
     3
100
AcDbCircle
 10
106.921291540167
 20
124.894530991644
 30
0.0
 40
4.000000000000339
100
AcDbArc
 50
239.9999999992253
 51
270.0
  0
ARC
  5
1D0
330
1F
100
AcDbEntity
  8
LEVEL001
  6
Continuous
 62
     3
100
AcDbCircle
 10
168.271323916332
 20
117.308593491635
 30
0.0
 40
3.0
100
AcDbArc
 50
270.0
 51
0.0
  0
ARC
  5
1D1
330
1F
100
AcDbEntity
  8
LEVEL001
  6
Continuous
 62
     3
100
AcDbCircle
 10
107.454417131297
 20
94.2023311952065
 30
0.0
 40
4.0
100
AcDbArc
 50
90.0
 51
120.0000000007769
  0
ARC
  5
1D2
330
1F
100
AcDbEntity
  8
LEVEL001
  6
Continuous
 62
     3
100
AcDbCircle
 10
168.271323916332
 20
92.928656739709
 30
0.0
 40
3.0
100
AcDbArc
 50
0.0
 51
86.99999999999656
  0
ARC
  5
1D3
330
1F
100
AcDbEntity
  8
LEVEL001
  6
Continuous
 62
     3
100
AcDbCircle
 10
108.277873167197
 20
128.526174964985
 30
0.0
 40
9.999999999998177
100
AcDbArc
 50
322.7514390342179
 51
356.2962218693601
  0
ARC
  5
1D4
330
1F
100
AcDbEntity
  8
LEVEL001
  6
Continuous
 62
     3
100
AcDbCircle
 10
157.271323916384
 20
127.902919561725
 30
0.0
 40
12.99999999999975
100
AcDbArc
 50
180.0369834507866
 51
267.000000000001
  0
ARC
  5
1D5
330
1F
100
AcDbEntity
  8
LEVEL001
  6
Continuous
 62
     3
100
AcDbCircle
 10
139.020397990658
 20
136.894530991644
 30
0.0
 40
6.600925925925893
100
AcDbArc
 50
317.021604384346
 51
66.34033901909835
  0
ARC
  5
1D6
330
1F
100
AcDbEntity
  8
LEVEL001
  6
Continuous
 62
     3
100
AcDbCircle
 10
123.522249842508
 20
136.894530991644
 30
0.0
 40
6.600925925926384
100
AcDbArc
 50
113.659660984256
 51
222.9783956156539
  0
ARC
  5
1D7
330
1F
100
AcDbEntity
  8
100
  6
Continuous
 62
     3
100
AcDbCircle
 10
-37.7286760836139
 20
109.394530991645
 30
0.0
 40
7.999999999999996
100
AcDbArc
 50
0.0
 51
180.0
  0
ARC
  5
1D8
330
1F
100
AcDbEntity
  8
100
  6
Continuous
 62
     3
100
AcDbCircle
 10
16.5021822836601
 20
346.851563874503
 30
0.0
 40
45.23707603990787
100
AcDbArc
 50
180.9499686381109
 51
196.9458179273381
  0
ARC
  5
1D9
330
1F
100
AcDbEntity
  8
100
  6
Continuous
 62
     3
100
AcDbCircle
 10
-91.9595344508879
 20
346.851563874503
 30
0.0
 40
45.23707603990855
100
AcDbArc
 50
343.0541820726581
 51
359.0500313618892
  0
ARC
  5
1DA
330
1F
100
AcDbEntity
  8
100
  6
Continuous
 62
     3
100
AcDbCircle
 10
-16.2286760836139
 20
356.394530991646
 30
0.0
 40
1.5
100
AcDbArc
 50
270.0
 51
0.0
  0
ARC
  5
1DB
330
1F
100
AcDbEntity
  8
100
  6
Continuous
 62
     3
100
AcDbCircle
 10
-59.2286760836139
 20
356.394530991646
 30
0.0
 40
1.5
100
AcDbArc
 50
180.0
 51
270.0
  0
ARC
  5
1DC
330
1F
100
AcDbEntity
  8
100
  6
Continuous
 62
     3
100
AcDbCircle
 10
-24.2286760836139
 20
350.394530991646
 30
0.0
 40
4.5
100
AcDbArc
 50
90.0
 51
180.0
  0
ARC
  5
1DD
330
1F
100
AcDbEntity
  8
100
  6
Continuous
 62
     3
100
AcDbCircle
 10
-51.2286760836139
 20
350.394530991646
 30
0.0
 40
4.5
100
AcDbArc
 50
0.0
 51
90.0
  0
ARC
  5
1DE
330
1F
100
AcDbEntity
  8
100
  6
Continuous
 62
     3
100
AcDbCircle
 10
-37.7286760836139
 20
104.894530991645
 30
0.0
 40
23.00000000000021
100
AcDbArc
 50
124.4173887100909
 51
249.6455936017625
  0
ARC
  5
1DF
330
1F
100
AcDbEntity
  8
100
  6
Continuous
 62
     3
100
AcDbCircle
 10
-37.7286760836139
 20
104.894530991645
 30
0.0
 40
22.99999999999998
100
AcDbArc
 50
290.3544063982372
 51
55.58261128990908
  0
ARC
  5
1E0
330
1F
100
AcDbEntity
  8
1
  6
Continuous
 62
     3
100
AcDbCircle
 10
172.771323916332
 20
83.394530991645
 30
0.0
 40
1.5
100
AcDbArc
 50
180.0
 51
270.0
  0
ARC
  5
1E1
330
1F
100
AcDbEntity
  8
1
  6
Continuous
 62
     3
100
AcDbCircle
 10
172.771323916332
 20
126.394530991645
 30
0.0
 40
1.5
100
AcDbArc
 50
90.0
 51
180.0
  0
ARC
  5
1E2
330
1F
100
AcDbEntity
  8
1
  6
Continuous
 62
     3
100
AcDbCircle
 10
-49.8267522949659
 20
278.988984988561
 30
0.0
 40
3.00000000000014
100
AcDbArc
 50
230.6560263905536
 51
270.0
  0
ARC
  5
1E3
330
1F
100
AcDbEntity
  8
1
  6
Continuous
 62
     3
100
AcDbCircle
 10
-25.6305998722589
 20
278.988984988561
 30
0.0
 40
3.0
100
AcDbArc
 50
270.0
 51
309.3439736093773
  0
ARC
  5
1E4
330
1F
100
AcDbEntity
  8
1
  6
Continuous
 62
     3
100
AcDbCircle
 10
95.3657779130869
 20
97.2964547802918
 30
0.0
 40
3.0
100
AcDbArc
 50
180.0
 51
239.9999999999998
  0
ARC
  5
1E5
330
1F
100
AcDbEntity
  8
1
  6
Continuous
 62
     3
100
AcDbCircle
 10
95.3657779130869
 20
121.492607202998
 30
0.0
 40
3.000000000000591
100
AcDbArc
 50
119.9999999999935
 51
180.0
  0
ARC
  5
1E6
330
1F
100
AcDbEntity
  8
1
  6
Continuous
 62
     3
100
AcDbCircle
 10
113.053976395863
 20
124.894530991644
 30
0.0
 40
4.0
100
AcDbArc
 50
270.0
 51
322.751439034208
  0
ARC
  5
1E7
330
1F
100
AcDbEntity
  8
1
  6
Continuous
 62
     3
100
AcDbCircle
 10
57.0101007308939
 20
69.8476574231628
 30
0.0
 40
2.000000000000088
100
AcDbArc
 50
332.8648603779338
 51
17.86486037778104
  0
ARC
  5
1E8
330
1F
100
AcDbEntity
  8
1
  6
Continuous
 62
     3
100
AcDbCircle
 10
58.4422218786499
 20
72.2035309675965
 30
0.0
 40
1.500000000000088
100
AcDbArc
 50
287.864860377801
 51
332.8648603779113
  0
ARC
  5
1E9
330
1F
100
AcDbEntity
  8
1
  6
Continuous
 62
     3
100
AcDbCircle
 10
56.1173671737799
 20
68.1057382873304
 30
0.0
 40
1.99999999999997
100
AcDbArc
 50
287.8648603781236
 51
332.8648603779237
  0
ARC
  5
1EA
330
1F
100
AcDbEntity
  8
1
  6
Continuous
 62
     3
100
AcDbCircle
 10
44.9042082167639
 20
73.8524822527998
 30
0.0
 40
1.999999999999991
100
AcDbArc
 50
152.8648603779393
 51
197.8648603777953
  0
ARC
  5
1EB
330
1F
100
AcDbEntity
  8
1
  6
Continuous
 62
     3
100
AcDbCircle
 10
46.8730896213249
 20
78.1327112494739
 30
0.0
 40
1.499999999999724
100
AcDbArc
 50
152.8648603779174
 51
197.8648603780743
  0
ARC
  5
1EC
330
1F
100
AcDbEntity
  8
1
  6
Continuous
 62
     3
100
AcDbCircle
 10
45.7969417738779
 20
75.5944013886322
 30
0.0
 40
1.999999999999829
100
AcDbArc
 50
107.8648603780646
 51
152.8648603779266
  0
ARC
  5
1ED
330
1F
100
AcDbEntity
  8
1
  6
Continuous
 62
     3
100
AcDbCircle
 10
-37.7286760836139
 20
109.394530991645
 30
0.0
 40
10.50000000000017
100
AcDbArc
 50
319.6324064558133
 51
220.3675935441867
  0
ARC
  5
1EE
330
1F
100
AcDbEntity
  8
LEVEL001
  6
Continuous
 62
     3
100
AcDbCircle
 10
-45.4777501573929
 20
136.894530991644
 30
0.0
 40
6.600925925925527
100
AcDbArc
 50
217.2990775038716
 51
222.9783956156533
  0
ARC
  5
1EF
330
1F
100
AcDbEntity
  8
LEVEL001
  6
Continuous
 62
     3
100
AcDbCircle
 10
-29.9796020092428
 20
136.894530991644
 30
0.0
 40
6.600925925925978
100
AcDbArc
 50
37.299077512358
 51
66.34033901909437
  0
ARC
  5
1F0
330
1F
100
AcDbEntity
  8
LEVEL001
  6
Continuous
 62
     3
100
AcDbCircle
 10
-29.9796020092428
 20
136.894530991644
 30
0.0
 40
6.600925925925761
100
AcDbArc
 50
317.0216043843449
 51
322.7009224876491
  0
ARC
  5
1F1
330
1F
100
AcDbEntity
  8
LEVEL001
  6
Continuous
 62
     3
100
AcDbCircle
 10
-45.4777501573929
 20
136.894530991644
 30
0.0
 40
6.600925925926464
100
AcDbArc
 50
113.6596609842576
 51
142.7009224961213
  0
CIRCLE
  5
1F2
330
1F
100
AcDbEntity
  8
1
  6
Continuous
 62
     3
100
AcDbCircle
 10
-37.7286760836139
 20
314.894530991653
 30
0.0
 40
10.4999999999322
  0
CIRCLE
  5
1F3
330
1F
100
AcDbEntity
  8
1
  6
Continuous
 62
     3
100
AcDbCircle
 10
-37.7286760836139
 20
314.894530991653
 30
0.0
 40
6.000000000015199
  0
CIRCLE
  5
1F4
330
1F
100
AcDbEntity
  8
1
  6
Continuous
 62
     3
100
AcDbCircle
 10
131.271323916366
 20
198.08239217245
 30
0.0
 40
2.25
  0
SPLINE
  5
1F5
330
1F
100
AcDbEntity
  8
1
  6
Continuous
 62
     3
100
AcDbSpline
210
0.0
220
0.0
230
1.0
 70
    11
 71
     3
 72
   135
 73
   131
 74
   129
 42
0.0000000001
 43
0.0000000001
 44
0.00000001
 40
0.0
 40
0.0
 40
0.0
 40
0.0
 40
0.1940601174407542
 40
0.387941408058272
 40
0.5818226986757334
 40
0.7758828161166027
 40
0.9710142399015337
 40
1.166106203671768
 40
1.366971542666396
 40
1.5678331554703
 40
1.768324855803786
 40
1.968835026921387
 40
2.189809087385613
 40
2.410774656661768
 40
2.631717643146401
 40
2.852658494404423
 40
3.071243913749115
 40
3.289830179935339
 40
3.508491342038585
 40
3.727162928488966
 40
3.9954568330358
 40
4.263750820966464
 40
4.532024325581577
 40
4.800297989622356
 40
5.068715543354879
 40
5.337134935549509
 40
5.605509553310007
 40
5.87387518181568
 40
6.131739903392972
 40
6.389609444398447
 40
6.647502328573017
 40
6.905394047694535
 40
7.163750788318587
 40
7.422106791653205
 40
7.680480715749105
 40
7.938859355986275
 40
8.197237996223462
 40
8.455611920319368
 40
8.71396792365396
 40
8.972324664277984
 40
9.230216383399473
 40
9.48810926757405
 40
9.745978808579515
 40
10.00384353015682
 40
10.27220915866251
 40
10.54058377642306
 40
10.80900316861763
 40
11.07742072235013
 40
11.34569438639091
 40
11.61396789100606
 40
11.88226187893674
 40
12.15055578348359
 40
12.36922736993394
 40
12.58788853203723
 40
12.80647479822342
 40
13.02506021756815
 40
13.24600106882612
 40
13.46694405531079
 40
13.68790962458695
 40
13.90888368505112
 40
14.10939385616848
 40
14.30988555650192
 40
14.51074716930574
 40
14.71161250830027
 40
14.90670447207059
 40
15.10183589585551
 40
15.29589601329637
 40
15.48977730391378
 40
15.68365859453124
 40
15.87771871197215
 40
16.07285013575719
 40
16.26794209952752
 40
16.46880743852194
 40
16.66966905132566
 40
16.87016075165916
 40
17.07067092277667
 40
17.29164498324077
 40
17.51261055251686
 40
17.73355353900147
 40
17.95449439025951
 40
18.17307980960447
 40
18.39166607579101
 40
18.6103272378944
 40
18.82899882434471
 40
19.09729272889138
 40
19.36558671682186
 40
19.6338602214369
 40
19.90213388547761
 40
20.17055143921014
 40
20.43897083140481
 40
20.70734544916535
 40
20.97571107767105
 40
21.23357579924831
 40
21.49144534025372
 40
21.74933822442826
 40
22.00722994354971
 40
22.26558668417378
 40
22.52394268750842
 40
22.78231661160433
 40
23.04069525184151
 40
23.2990738920787
 40
23.5574478161746
 40
23.81580381950923
 40
24.07416056013329
 40
24.33205227925471
 40
24.58994516342921
 40
24.84781470443466
 40
25.10567942601192
 40
25.37404505451764
 40
25.64241967227829
 40
25.91083906447295
 40
26.1792566182055
 40
26.44753028224624
 40
26.71580378686127
 40
26.98409777479173
 40
27.25239167933833
 40
27.4710632657887
 40
27.68972442789201
 40
27.90831069407862
 40
28.12689611342361
 40
28.34783696468163
 40
28.5687799511662
 40
28.78974552044238
 40
29.0107195809065
 40
29.21122975202416
 40
29.41172145235771
 40
29.61258306516163
 40
29.81344840415621
 40
30.00854036792644
 40
30.20367179171143
 40
30.20367179171143
 40
30.20367179171143
 40
30.20367179171143
 10
-25.01072645874688
 20
280.9482805384921
 30
0.0
 10
-24.99877318572523
 20
280.8846551243034
 30
0.0
 10
-24.97487765464917
 20
280.7574629268843
 30
0.0
 10
-24.96410688587877
 20
280.5632218454919
 30
0.0
 10
-24.97560228175328
 20
280.3692557587335
 30
0.0
 10
-25.00788414397679
 20
280.1772596389799
 30
0.0
 10
-25.05775392380938
 20
279.9887437878984
 30
0.0
 10
-25.12363553209608
 20
279.8028522685755
 30
0.0
 10
-25.20349740090235
 20
279.6204716094026
 30
0.0
 10
-25.29616158994351
 20
279.4422462289172
 30
0.0
 10
-25.39934789081039
 20
279.2700688287672
 30
0.0
 10
-25.51527770131304
 20
279.0980865301661
 30
0.0
 10
-25.64349297664621
 20
278.9264500591172
 30
0.0
 10
-25.78433466624293
 20
278.7560810800705
 30
0.0
 10
-25.93312605274197
 20
278.5926316216853
 30
0.0
 10
-26.08875905339599
 20
278.4368071536889
 30
0.0
 10
-26.25062484481935
 20
278.2886424851146
 30
0.0
 10
-26.41786852236131
 20
278.1477698644014
 30
0.0
 10
-26.59035680379034
 20
278.0133360538882
 30
0.0
 10
-26.78081895956245
 20
277.8752550036242
 30
0.0
 10
-26.98975712724115
 20
277.7346959787321
 30
0.0
 10
-27.21807893280392
 20
277.5936866305502
 30
0.0
 10
-27.4517524791152
 20
277.4617459892327
 30
0.0
 10
-27.69049756732628
 20
277.3391284632215
 30
0.0
 10
-27.93399299801601
 20
277.2261176442346
 30
0.0
 10
-28.18191346737643
 20
277.1230809655272
 30
0.0
 10
-28.43387331096946
 20
277.0304021407157
 30
0.0
 10
-28.68617996578424
 20
276.9495306865706
 30
0.0
 10
-28.93830255726137
 20
276.8803580735774
 30
0.0
 10
-29.18958605651845
 20
276.8221281771563
 30
0.0
 10
-29.44293551261072
 20
276.773645978632
 30
0.0
 10
-29.69807280003408
 20
276.7346193865681
 30
0.0
 10
-29.95459997597496
 20
276.7047919150746
 30
0.0
 10
-30.21216433591982
 20
276.6838767365037
 30
0.0
 10
-30.47028777812322
 20
276.6715835514854
 30
0.0
 10
-30.72867608361392
 20
276.6675932709121
 30
0.0
 10
-30.98706438910463
 20
276.6715835514854
 30
0.0
 10
-31.24518783130802
 20
276.6838767365036
 30
0.0
 10
-31.50275219125286
 20
276.7047919150747
 30
0.0
 10
-31.7592793671937
 20
276.7346193865682
 30
0.0
 10
-32.01441665461705
 20
276.7736459786321
 30
0.0
 10
-32.26776611070931
 20
276.8221281771563
 30
0.0
 10
-32.51904960996644
 20
276.8803580735774
 30
0.0
 10
-32.77117220144353
 20
276.9495306865704
 30
0.0
 10
-33.02347885625836
 20
277.0304021407158
 30
0.0
 10
-33.27543869985134
 20
277.1230809655273
 30
0.0
 10
-33.52335916921183
 20
277.2261176442346
 30
0.0
 10
-33.76685459990151
 20
277.3391284632215
 30
0.0
 10
-34.0055996881126
 20
277.4617459892327
 30
0.0
 10
-34.23927323442388
 20
277.5936866305502
 30
0.0
 10
-34.4675950399866
 20
277.7346959787321
 30
0.0
 10
-34.67653320766558
 20
277.8752550036244
 30
0.0
 10
-34.86699536343689
 20
278.0133360538879
 30
0.0
 10
-35.03948364486897
 20
278.1477698644019
 30
0.0
 10
-35.20672732239937
 20
278.2886424851126
 30
0.0
 10
-35.36859311386619
 20
278.4368071536963
 30
0.0
 10
-35.524226114356
 20
278.5926316216569
 30
0.0
 10
-35.6730175014696
 20
278.7560810801767
 30
0.0
 10
-35.81385918877241
 20
278.9264500587209
 30
0.0
 10
-35.94207447240237
 20
279.0980865315877
 30
0.0
 10
-36.05800425468735
 20
279.2700688240056
 30
0.0
 10
-36.16119065869894
 20
279.4422462467571
 30
0.0
 10
-36.25385446178085
 20
279.6204715426696
 30
0.0
 10
-36.33371775787022
 20
279.8028525145948
 30
0.0
 10
-36.39959418681151
 20
279.9887428989977
 30
0.0
 10
-36.44948314568101
 20
280.177262952671
 30
0.0
 10
-36.48169381094026
 20
280.3692434714449
 30
0.0
 10
-36.49345437895992
 20
280.5632676638439
 30
0.0
 10
-36.48169381094028
 20
280.7572918562431
 30
0.0
 10
-36.44948314568102
 20
280.9492723750171
 30
0.0
 10
-36.39959418681151
 20
281.1377924286903
 30
0.0
 10
-36.33371775787018
 20
281.3236828130932
 30
0.0
 10
-36.25385446178081
 20
281.5060637850184
 30
0.0
 10
-36.1611906586989
 20
281.6842890809308
 30
0.0
 10
-36.05800425468725
 20
281.8564665036822
 30
0.0
 10
-35.94207447240237
 20
282.0284487961002
 30
0.0
 10
-35.81385918877237
 20
282.2000852689672
 30
0.0
 10
-35.67301750146963
 20
282.3704542475113
 30
0.0
 10
-35.52422611435598
 20
282.5339037060311
 30
0.0
 10
-35.36859311386622
 20
282.6897281739916
 30
0.0
 10
-35.2067273223993
 20
282.8378928425757
 30
0.0
 10
-35.03948364486904
 20
282.978765463287
 30
0.0
 10
-34.86699536343693
 20
283.113199273801
 30
0.0
 10
-34.67653320766555
 20
283.2512803240646
 30
0.0
 10
-34.46759503998659
 20
283.3918393489564
 30
0.0
 10
-34.23927323442378
 20
283.532848697138
 30
0.0
 10
-34.00559968811257
 20
283.6647893384555
 30
0.0
 10
-33.76685459990153
 20
283.7874068644666
 30
0.0
 10
-33.52335916921177
 20
283.9004176834533
 30
0.0
 10
-33.27543869985131
 20
284.0034543621607
 30
0.0
 10
-33.02347885625826
 20
284.0961331869723
 30
0.0
 10
-32.77117220144344
 20
284.1770046411174
 30
0.0
 10
-32.5190496099664
 20
284.2461772541108
 30
0.0
 10
-32.26776611070931
 20
284.3044071505317
 30
0.0
 10
-32.01441665461711
 20
284.3528893490559
 30
0.0
 10
-31.75927936719376
 20
284.3919159411199
 30
0.0
 10
-31.50275219125291
 20
284.4217434126135
 30
0.0
 10
-31.24518783130803
 20
284.4426585911843
 30
0.0
 10
-30.98706438910462
 20
284.4549517762026
 30
0.0
 10
-30.72867608361391
 20
284.458942056776
 30
0.0
 10
-30.47028777812319
 20
284.4549517762026
 30
0.0
 10
-30.21216433591978
 20
284.4426585911844
 30
0.0
 10
-29.95459997597492
 20
284.4217434126134
 30
0.0
 10
-29.69807280003409
 20
284.3919159411198
 30
0.0
 10
-29.44293551261076
 20
284.3528893490559
 30
0.0
 10
-29.18958605651853
 20
284.3044071505318
 30
0.0
 10
-28.9383025572614
 20
284.2461772541112
 30
0.0
 10
-28.68617996578421
 20
284.1770046411182
 30
0.0
 10
-28.43387331096945
 20
284.0961331869728
 30
0.0
 10
-28.18191346737653
 20
284.0034543621608
 30
0.0
 10
-27.93399299801595
 20
283.9004176834533
 30
0.0
 10
-27.69049756732651
 20
283.7874068644664
 30
0.0
 10
-27.45175247911436
 20
283.6647893384556
 30
0.0
 10
-27.21807893280736
 20
283.5328486971371
 30
0.0
 10
-26.98975712722884
 20
283.3918393489593
 30
0.0
 10
-26.78081895960504
 20
283.2512803240552
 30
0.0
 10
-26.59035680366371
 20
283.1131992738289
 30
0.0
 10
-26.41786852283699
 20
282.9787654631822
 30
0.0
 10
-26.2506248430436
 20
282.8378928429668
 30
0.0
 10
-26.08875906005367
 20
282.6897281725253
 30
0.0
 10
-25.93312602759655
 20
282.5339037115696
 30
0.0
 10
-25.78433476005829
 20
282.3704542268479
 30
0.0
 10
-25.64349262648582
 20
282.2000853460922
 30
0.0
 10
-25.51527895702688
 20
282.0284485195214
 30
0.0
 10
-25.39934368500103
 20
281.8564674300385
 30
0.0
 10
-25.29617734785219
 20
281.6842856101513
 30
0.0
 10
-25.20343845642661
 20
281.5060767679138
 30
0.0
 10
-25.1238528382903
 20
281.3236349500225
 30
0.0
 10
-25.05696876767194
 20
281.1379653643208
 30
0.0
 10
-25.02614160081941
 20
281.0115130761212
 30
0.0
 10
-25.01072645874687
 20
280.9482805384922
 30
0.0
 11
-25.01072645874688
 21
280.9482805384921
 31
0.0
 11
-24.97904897159076
 21
280.7568233213688
 31
0.0
 11
-24.96781677271223
 21
280.563267663844
 31
0.0
 11
-24.97904897159077
 21
280.3697120063192
 31
0.0
 11
-25.01072645874691
 21
280.1782547891958
 31
0.0
 11
-25.06030460424959
 21
279.9895267307709
 31
0.0
 11
-25.12514083911435
 21
279.8055236411873
 31
0.0
 11
-25.20551247438626
 21
279.6214386481728
 31
0.0
 11
-25.29798504195133
 21
279.4431293333682
 31
0.0
 11
-25.40084281431027
 21
279.271032847152
 31
0.0
 11
-25.51272092996676
 21
279.1046368857864
 31
0.0
 11
-25.64491954823771
 21
278.9275689306808
 31
0.0
 11
-25.78566575224984
 21
278.7572272479906
 31
0.0
 11
-25.93436024540665
 21
278.5938083048366
 31
0.0
 11
-26.09045964549175
 21
278.4374502636372
 31
0.0
 11
-26.25161428338143
 21
278.2897723430237
 31
0.0
 11
-26.41871949991498
 21
278.1488617246427
 31
0.0
 11
-26.59111359072332
 21
278.0143515716181
 31
0.0
 11
-26.76808530736931
 21
277.8859059635651
 31
0.0
 11
-26.99070072018512
 21
277.7361595205562
 31
0.0
 11
-27.21897773659675
 21
277.5951940363483
 31
0.0
 11
-27.45259155996074
 21
277.4633029645818
 31
0.0
 11
-27.69123891077296
 21
277.340754195644
 31
0.0
 11
-27.93472489462144
 21
277.2277827000307
 31
0.0
 11
-28.18260328591812
 21
277.1248007927154
 31
0.0
 11
-28.43449247011718
 21
277.0321899167794
 31
0.0
 11
-28.69006434987642
 21
276.9503173032901
 31
0.0
 11
-28.9387223782944
 21
276.8820282153081
 31
0.0
 11
-29.18992130329999
 21
276.8237547200087
 31
0.0
 11
-29.44320711379199
 21
276.7752259871663
 31
0.0
 11
-29.69812531723415
 21
276.7361766805748
 31
0.0
 11
-29.95474646580015
 21
276.7062803340664
 31
0.0
 11
-30.21225034026695
 21
276.6853141924657
 31
0.0
 11
-30.47032909413342
 21
276.6729674740577
 31
0.0
 11
-30.72867608361391
 21
276.6689233725292
 31
0.0
 11
-30.98702307309443
 21
276.6729674740576
 31
0.0
 11
-31.2451018269609
 21
276.6853141924656
 31
0.0
 11
-31.50260570142767
 21
276.7062803340664
 31
0.0
 11
-31.75922684999363
 21
276.7361766805749
 31
0.0
 11
-32.01414505343578
 21
276.7752259871663
 31
0.0
 11
-32.26743086392779
 21
276.8237547200087
 31
0.0
 11
-32.51862978893337
 21
276.882028215308
 31
0.0
 11
-32.76728781735136
 21
276.9503173032901
 31
0.0
 11
-33.02285969711062
 21
277.0321899167794
 31
0.0
 11
-33.2747488813097
 21
277.1248007927155
 31
0.0
 11
-33.52262727260637
 21
277.2277827000307
 31
0.0
 11
-33.76611325645482
 21
277.3407541956439
 31
0.0
 11
-34.00476060726704
 21
277.4633029645817
 31
0.0
 11
-34.23837443063104
 21
277.5951940363483
 31
0.0
 11
-34.46665144704269
 21
277.7361595205562
 31
0.0
 11
-34.68926685985852
 21
277.8859059635651
 31
0.0
 11
-34.86623857650451
 21
278.014351571618
 31
0.0
 11
-35.03863266731287
 21
278.1488617246427
 31
0.0
 11
-35.20573788384642
 21
278.2897723430236
 31
0.0
 11
-35.3668925217361
 21
278.4374502636372
 31
0.0
 11
-35.52299192182118
 21
278.5938083048365
 31
0.0
 11
-35.67168641497798
 21
278.7572272479906
 31
0.0
 11
-35.81243261899005
 21
278.9275689306808
 31
0.0
 11
-35.94463123726091
 21
279.1046368857865
 31
0.0
 11
-36.05650935291723
 21
279.2710328471518
 31
0.0
 11
-36.15936712527597
 21
279.4431293333681
 31
0.0
 11
-36.25183969284087
 21
279.6214386481728
 31
0.0
 11
-36.33221132811265
 21
279.8055236411872
 31
0.0
 11
-36.39704756297735
 21
279.9895267307709
 31
0.0
 11
-36.44662570848
 21
280.1782547891958
 31
0.0
 11
-36.47830319563609
 21
280.3697120063192
 31
0.0
 11
-36.4895353945146
 21
280.5632676638439
 31
0.0
 11
-36.47830319563609
 21
280.7568233213687
 31
0.0
 11
-36.44662570848001
 21
280.9482805384922
 31
0.0
 11
-36.39704756297733
 21
281.1370085969172
 31
0.0
 11
-36.33221132811261
 21
281.3210116865009
 31
0.0
 11
-36.25183969284083
 21
281.5050966795152
 31
0.0
 11
-36.15936712527595
 21
281.6834059943197
 31
0.0
 11
-36.05650935291717
 21
281.8555024805361
 31
0.0
 11
-35.94463123726084
 21
282.0218984419016
 31
0.0
 11
-35.81243261899003
 21
282.1989663970072
 31
0.0
 11
-35.671686414978
 21
282.3693080796974
 31
0.0
 11
-35.52299192182122
 21
282.5327270228514
 31
0.0
 11
-35.36689252173615
 21
282.6890850640508
 31
0.0
 11
-35.20573788384642
 21
282.8367629846647
 31
0.0
 11
-35.03863266731284
 21
282.9776736030461
 31
0.0
 11
-34.86623857650449
 21
283.112183756071
 31
0.0
 11
-34.68926685985846
 21
283.2406293641238
 31
0.0
 11
-34.46665144704266
 21
283.3903758071324
 31
0.0
 11
-34.238374430631
 21
283.5313412913399
 31
0.0
 11
-34.00476060726703
 21
283.6632323631063
 31
0.0
 11
-33.76611325645486
 21
283.7857811320441
 31
0.0
 11
-33.52262727260635
 21
283.8987526276572
 31
0.0
 11
-33.27474888130963
 21
284.0017345349726
 31
0.0
 11
-33.02285969711053
 21
284.0943454109085
 31
0.0
 11
-32.76728781735126
 21
284.1762180243979
 31
0.0
 11
-32.51862978893333
 21
284.24450711238
 31
0.0
 11
-32.26743086392779
 21
284.3027806076793
 31
0.0
 11
-32.01414505343583
 21
284.3513093405218
 31
0.0
 11
-31.75922684999372
 21
284.3903586471131
 31
0.0
 11
-31.50260570142772
 21
284.4202549936217
 31
0.0
 11
-31.24510182696089
 21
284.4412211352223
 31
0.0
 11
-30.98702307309442
 21
284.4535678536303
 31
0.0
 11
-30.72867608361391
 21
284.4576119551588
 31
0.0
 11
-30.47032909413339
 21
284.4535678536303
 31
0.0
 11
-30.21225034026692
 21
284.4412211352224
 31
0.0
 11
-29.95474646580011
 21
284.4202549936216
 31
0.0
 11
-29.69812531723412
 21
284.3903586471131
 31
0.0
 11
-29.44320711379203
 21
284.3513093405218
 31
0.0
 11
-29.18992130330007
 21
284.3027806076796
 31
0.0
 11
-28.93872237829444
 21
284.2445071123804
 31
0.0
 11
-28.69006434987644
 21
284.1762180243986
 31
0.0
 11
-28.43449247011721
 21
284.0943454109091
 31
0.0
 11
-28.18260328591815
 21
284.0017345349727
 31
0.0
 11
-27.93472489462145
 21
283.8987526276573
 31
0.0
 11
-27.69123891077294
 21
283.7857811320441
 31
0.0
 11
-27.45259155996077
 21
283.6632323631063
 31
0.0
 11
-27.21897773659681
 21
283.5313412913398
 31
0.0
 11
-26.99070072018517
 21
283.3903758071324
 31
0.0
 11
-26.76808530736938
 21
283.2406293641238
 31
0.0
 11
-26.59111359072336
 21
283.1121837560709
 31
0.0
 11
-26.41871949991503
 21
282.9776736030462
 31
0.0
 11
-26.2516142833814
 21
282.8367629846647
 31
0.0
 11
-26.09045964549163
 21
282.6890850640508
 31
0.0
 11
-25.93436024540658
 21
282.5327270228514
 31
0.0
 11
-25.78566575224981
 21
282.3693080796974
 31
0.0
 11
-25.64491954823772
 21
282.1989663970072
 31
0.0
 11
-25.51272092996679
 21
282.0218984419017
 31
0.0
 11
-25.40084281431028
 21
281.8555024805361
 31
0.0
 11
-25.29798504195131
 21
281.6834059943198
 31
0.0
 11
-25.20551247438622
 21
281.5050966795151
 31
0.0
 11
-25.12514083911429
 21
281.3210116865007
 31
0.0
 11
-25.06030460424954
 21
281.1370085969172
 31
0.0
 11
-25.01072645874687
 21
280.9482805384922
 31
0.0
  0
SPLINE
  5
1F6
330
1F
100
AcDbEntity
  8
1
  6
Continuous
 62
     3
100
AcDbSpline
210
0.0
220
0.0
230
1.0
 70
    11
 71
     3
 72
   135
 73
   131
 74
   129
 42
0.0000000001
 43
0.0000000001
 44
0.00000001
 40
0.0
 40
0.0
 40
0.0
 40
0.0
 40
0.1940601174409219
 40
0.3879414080584954
 40
0.581822698675899
 40
0.7758828161167648
 40
0.9710142399015922
 40
1.166106203671997
 40
1.36697154266658
 40
1.567833155470533
 40
1.768324855804071
 40
1.968835026921621
 40
2.18980908738575
 40
2.410774656661991
 40
2.631717643146635
 40
2.852658494404622
 40
3.071243913749313
 40
3.289830179935535
 40
3.508491342038819
 40
3.727162928489181
 40
3.995456833036024
 40
4.263750820966675
 40
4.532024325581807
 40
4.80029798962257
 40
5.068715543355043
 40
5.337134935549695
 40
5.605509553310243
 40
5.873875181815916
 40
6.131739903393203
 40
6.389609444398641
 40
6.647502328573186
 40
6.90539404769468
 40
7.163750788318728
 40
7.422106791653317
 40
7.680480715749262
 40
7.938859355986464
 40
8.197237996223667
 40
8.455611920319596
 40
8.71396792365419
 40
8.972324664278203
 40
9.230216383399718
 40
9.488109267574263
 40
9.745978808579709
 40
10.003843530157
 40
10.27220915866266
 40
10.54058377642319
 40
10.80900316861786
 40
11.07742072235035
 40
11.34569438639109
 40
11.6139678910061
 40
11.88226187893656
 40
12.15055578348319
 40
12.36922736993353
 40
12.5878885320369
 40
12.8064747982234
 40
13.02506021756834
 40
13.24600106882646
 40
13.46694405531109
 40
13.68790962458723
 40
13.90888368505136
 40
14.109393856169
 40
14.30988555650253
 40
14.51074716930645
 40
14.71161250830104
 40
14.90670447207139
 40
15.10183589585632
 40
15.29589601329713
 40
15.48977730391453
 40
15.68365859453205
 40
15.87771871197292
 40
16.07285013575791
 40
16.2679420995282
 40
16.46880743852272
 40
16.66966905132661
 40
16.87016075166018
 40
17.07067092277772
 40
17.2916449832419
 40
17.51261055251804
 40
17.73355353900275
 40
17.95449439026081
 40
18.17307980960575
 40
18.39166607579225
 40
18.61032723789563
 40
18.82899882434604
 40
19.09729272889263
 40
19.36558671682304
 40
19.63386022143807
 40
19.9021338854788
 40
20.17055143921134
 40
20.438970831406
 40
20.70734544916662
 40
20.97571107767231
 40
21.23357579924957
 40
21.49144534025496
 40
21.74933822442953
 40
22.00722994355108
 40
22.2655866841751
 40
22.52394268750971
 40
22.78231661160565
 40
23.04069525184287
 40
23.29907389208005
 40
23.55744781617596
 40
23.81580381951053
 40
24.07416056013449
 40
24.33205227925602
 40
24.58994516343057
 40
24.84781470443597
 40
25.10567942601323
 40
25.37404505451896
 40
25.64241967227959
 40
25.91083906447421
 40
26.17925661820669
 40
26.44753028224752
 40
26.71580378686267
 40
26.98409777479331
 40
27.25239167934013
 40
27.47106326579051
 40
27.68972442789384
 40
27.90831069408005
 40
28.12689611342475
 40
28.34783696468275
 40
28.56877995116743
 40
28.78974552044359
 40
29.01071958090772
 40
29.21122975202535
 40
29.4117214523589
 40
29.61258306516274
 40
29.81344840415726
 40
30.00854036792756
 40
30.20367179171249
 40
30.20367179171249
 40
30.20367179171249
 40
30.20367179171249
 10
-50.44662570848097
 20
280.9482805384923
 30
0.0
 10
-50.45857898150263
 20
280.8846551243034
 30
0.0
 10
-50.48247451257867
 20
280.7574629268843
 30
0.0
 10
-50.49324528134905
 20
280.5632218454919
 30
0.0
 10
-50.48174988547456
 20
280.3692557587336
 30
0.0
 10
-50.4494680232511
 20
280.17725963898
 30
0.0
 10
-50.39959824341841
 20
279.9887437878984
 30
0.0
 10
-50.33371663513179
 20
279.8028522685755
 30
0.0
 10
-50.25385476632541
 20
279.6204716094026
 30
0.0
 10
-50.16119057728429
 20
279.442246228917
 30
0.0
 10
-50.05800427641742
 20
279.2700688287671
 30
0.0
 10
-49.94207446591479
 20
279.0980865301661
 30
0.0
 10
-49.81385919058154
 20
278.9264500591173
 30
0.0
 10
-49.67301750098495
 20
278.7560810800704
 30
0.0
 10
-49.52422611448586
 20
278.5926316216853
 30
0.0
 10
-49.36859311383178
 20
278.436807153689
 30
0.0
 10
-49.20672732240845
 20
278.2886424851146
 30
0.0
 10
-49.03948364486646
 20
278.1477698644013
 30
0.0
 10
-48.8669953634375
 20
278.0133360538881
 30
0.0
 10
-48.6765332076653
 20
277.8752550036243
 30
0.0
 10
-48.46759503998661
 20
277.734695978732
 30
0.0
 10
-48.23927323442386
 20
277.5936866305503
 30
0.0
 10
-48.00559968811258
 20
277.4617459892326
 30
0.0
 10
-47.76685459990156
 20
277.3391284632214
 30
0.0
 10
-47.52335916921174
 20
277.2261176442347
 30
0.0
 10
-47.27543869985135
 20
277.1230809655273
 30
0.0
 10
-47.02347885625831
 20
277.0304021407156
 30
0.0
 10
-46.77117220144352
 20
276.9495306865706
 30
0.0
 10
-46.51904960996642
 20
276.8803580735773
 30
0.0
 10
-46.26776611070936
 20
276.8221281771563
 30
0.0
 10
-46.01441665461707
 20
276.7736459786322
 30
0.0
 10
-45.75927936719376
 20
276.7346193865681
 30
0.0
 10
-45.50275219125291
 20
276.7047919150745
 30
0.0
 10
-45.24518783130804
 20
276.6838767365036
 30
0.0
 10
-44.98706438910462
 20
276.6715835514855
 30
0.0
 10
-44.7286760836139
 20
276.6675932709121
 30
0.0
 10
-44.47028777812315
 20
276.6715835514854
 30
0.0
 10
-44.21216433591977
 20
276.6838767365037
 30
0.0
 10
-43.95459997597489
 20
276.7047919150745
 30
0.0
 10
-43.69807280003407
 20
276.7346193865682
 30
0.0
 10
-43.44293551261071
 20
276.7736459786321
 30
0.0
 10
-43.18958605651846
 20
276.8221281771563
 30
0.0
 10
-42.93830255726138
 20
276.8803580735773
 30
0.0
 10
-42.68617996578427
 20
276.9495306865705
 30
0.0
 10
-42.4338733109695
 20
277.0304021407157
 30
0.0
 10
-42.18191346737646
 20
277.1230809655273
 30
0.0
 10
-41.93399299801604
 20
277.2261176442348
 30
0.0
 10
-41.69049756732623
 20
277.3391284632215
 30
0.0
 10
-41.45175247911526
 20
277.4617459892326
 30
0.0
 10
-41.21807893280403
 20
277.5936866305501
 30
0.0
 10
-40.98975712724128
 20
277.7346959787316
 30
0.0
 10
-40.7808189595623
 20
277.8752550036234
 30
0.0
 10
-40.59035680379093
 20
278.013336053887
 30
0.0
 10
-40.41786852235877
 20
278.1477698644009
 30
0.0
 10
-40.2506248448285
 20
278.2886424851122
 30
0.0
 10
-40.08875905336158
 20
278.4368071536962
 30
0.0
 10
-39.93312605287191
 20
278.5926316216568
 30
0.0
 10
-39.78433466575818
 20
278.7560810801768
 30
0.0
 10
-39.6434929784554
 20
278.9264500587208
 30
0.0
 10
-39.51527769482521
 20
279.0980865315877
 30
0.0
 10
-39.39934791254026
 20
279.2700688240056
 30
0.0
 10
-39.29616150852839
 20
279.4422462467572
 30
0.0
 10
-39.20349770544628
 20
279.6204715426697
 30
0.0
 10
-39.12363440935674
 20
279.8028525145947
 30
0.0
 10
-39.05775798041537
 20
279.9887428989978
 30
0.0
 10
-39.00786902154586
 20
280.1772629526708
 30
0.0
 10
-38.97565835628657
 20
280.369243471445
 30
0.0
 10
-38.96389778826691
 20
280.5632676638439
 30
0.0
 10
-38.97565835628656
 20
280.7572918562431
 30
0.0
 10
-39.00786902154589
 20
280.9492723750171
 30
0.0
 10
-39.05775798041542
 20
281.1377924286903
 30
0.0
 10
-39.12363440935681
 20
281.3236828130932
 30
0.0
 10
-39.2034977054463
 20
281.5060637850183
 30
0.0
 10
-39.29616150852834
 20
281.6842890809309
 30
0.0
 10
-39.39934791254013
 20
281.8564665036823
 30
0.0
 10
-39.51527769482519
 20
282.0284487961002
 30
0.0
 10
-39.6434929784553
 20
282.2000852689672
 30
0.0
 10
-39.78433466575814
 20
282.3704542475112
 30
0.0
 10
-39.93312605287183
 20
282.5339037060311
 30
0.0
 10
-40.08875905336163
 20
282.6897281739917
 30
0.0
 10
-40.25062484482851
 20
282.8378928425757
 30
0.0
 10
-40.41786852235879
 20
282.978765463287
 30
0.0
 10
-40.590356803791
 20
283.1131992738011
 30
0.0
 10
-40.78081895956229
 20
283.2512803240646
 30
0.0
 10
-40.98975712724124
 20
283.3918393489564
 30
0.0
 10
-41.21807893280403
 20
283.5328486971379
 30
0.0
 10
-41.45175247911521
 20
283.6647893384553
 30
0.0
 10
-41.69049756732626
 20
283.7874068644666
 30
0.0
 10
-41.93399299801599
 20
283.9004176834533
 30
0.0
 10
-42.18191346737647
 20
284.0034543621608
 30
0.0
 10
-42.43387331096939
 20
284.0961331869727
 30
0.0
 10
-42.68617996578415
 20
284.1770046411181
 30
0.0
 10
-42.9383025572613
 20
284.2461772541113
 30
0.0
 10
-43.18958605651842
 20
284.3044071505318
 30
0.0
 10
-43.4429355126107
 20
284.3528893490558
 30
0.0
 10
-43.69807280003408
 20
284.39191594112
 30
0.0
 10
-43.95459997597493
 20
284.4217434126134
 30
0.0
 10
-44.2121643359198
 20
284.4426585911843
 30
0.0
 10
-44.47028777812321
 20
284.4549517762026
 30
0.0
 10
-44.72867608361395
 20
284.458942056776
 30
0.0
 10
-44.98706438910466
 20
284.4549517762026
 30
0.0
 10
-45.24518783130807
 20
284.4426585911843
 30
0.0
 10
-45.50275219125288
 20
284.4217434126134
 30
0.0
 10
-45.75927936719371
 20
284.3919159411199
 30
0.0
 10
-46.01441665461704
 20
284.3528893490558
 30
0.0
 10
-46.2677661107093
 20
284.3044071505318
 30
0.0
 10
-46.51904960996645
 20
284.2461772541112
 30
0.0
 10
-46.77117220144359
 20
284.1770046411181
 30
0.0
 10
-47.02347885625838
 20
284.0961331869728
 30
0.0
 10
-47.27543869985128
 20
284.0034543621608
 30
0.0
 10
-47.52335916921186
 20
283.9004176834535
 30
0.0
 10
-47.76685459990127
 20
283.7874068644665
 30
0.0
 10
-48.00559968811347
 20
283.6647893384555
 30
0.0
 10
-48.23927323442053
 20
283.532848697137
 30
0.0
 10
-48.467595039999
 20
283.3918393489586
 30
0.0
 10
-48.67653320762268
 20
283.2512803240543
 30
0.0
 10
-48.86699536356414
 20
283.1131992738279
 30
0.0
 10
-49.03948364439074
 20
282.9787654631814
 30
0.0
 10
-49.20672732418431
 20
282.8378928429665
 30
0.0
 10
-49.36859310717418
 20
282.6897281725252
 30
0.0
 10
-49.52422613963129
 20
282.5339037115695
 30
0.0
 10
-49.67301740716951
 20
282.3704542268478
 30
0.0
 10
-49.81385954074199
 20
282.2000853460921
 30
0.0
 10
-49.94207321020094
 20
282.0284485195213
 30
0.0
 10
-50.05800848222683
 20
281.8564674300385
 30
0.0
 10
-50.16117481937567
 20
281.6842856101513
 30
0.0
 10
-50.25391371080119
 20
281.5060767679139
 30
0.0
 10
-50.33349932893749
 20
281.3236349500226
 30
0.0
 10
-50.40038339955588
 20
281.1379653643211
 30
0.0
 10
-50.43121056640841
 20
281.0115130761212
 30
0.0
 10
-50.44662570848097
 20
280.9482805384923
 30
0.0
 11
-50.44662570848097
 21
280.9482805384923
 31
0.0
 11
-50.47830319563709
 21
280.7568233213688
 31
0.0
 11
-50.4895353945156
 21
280.5632676638439
 31
0.0
 11
-50.47830319563708
 21
280.3697120063192
 31
0.0
 11
-50.44662570848097
 21
280.1782547891958
 31
0.0
 11
-50.39704756297825
 21
279.989526730771
 31
0.0
 11
-50.33221132811347
 21
279.8055236411873
 31
0.0
 11
-50.25183969284154
 21
279.6214386481728
 31
0.0
 11
-50.15936712527648
 21
279.4431293333681
 31
0.0
 11
-50.05650935291753
 21
279.2710328471518
 31
0.0
 11
-49.94463123726104
 21
279.1046368857864
 31
0.0
 11
-49.8124326189901
 21
278.9275689306808
 31
0.0
 11
-49.67168641497798
 21
278.7572272479906
 31
0.0
 11
-49.52299192182115
 21
278.5938083048365
 31
0.0
 11
-49.36689252173604
 21
278.4374502636372
 31
0.0
 11
-49.20573788384636
 21
278.2897723430237
 31
0.0
 11
-49.03863266731282
 21
278.1488617246427
 31
0.0
 11
-48.86623857650447
 21
278.014351571618
 31
0.0
 11
-48.68926685985846
 21
277.8859059635651
 31
0.0
 11
-48.46665144704264
 21
277.7361595205562
 31
0.0
 11
-48.23837443063103
 21
277.5951940363483
 31
0.0
 11
-48.00476060726705
 21
277.4633029645817
 31
0.0
 11
-47.76611325645484
 21
277.3407541956439
 31
0.0
 11
-47.52262727260637
 21
277.2277827000308
 31
0.0
 11
-47.27474888130966
 21
277.1248007927155
 31
0.0
 11
-47.02285969711058
 21
277.0321899167794
 31
0.0
 11
-46.76728781735134
 21
276.9503173032901
 31
0.0
 11
-46.51862978893337
 21
276.882028215308
 31
0.0
 11
-46.26743086392781
 21
276.8237547200087
 31
0.0
 11
-46.01414505343583
 21
276.7752259871663
 31
0.0
 11
-45.75922684999369
 21
276.7361766805748
 31
0.0
 11
-45.50260570142771
 21
276.7062803340663
 31
0.0
 11
-45.24510182696093
 21
276.6853141924656
 31
0.0
 11
-44.98702307309442
 21
276.6729674740577
 31
0.0
 11
-44.72867608361389
 21
276.6689233725292
 31
0.0
 11
-44.47032909413336
 21
276.6729674740577
 31
0.0
 11
-44.21225034026686
 21
276.6853141924656
 31
0.0
 11
-43.95474646580008
 21
276.7062803340664
 31
0.0
 11
-43.69812531723413
 21
276.7361766805748
 31
0.0
 11
-43.44320711379198
 21
276.7752259871663
 31
0.0
 11
-43.18992130329999
 21
276.8237547200087
 31
0.0
 11
-42.93872237829442
 21
276.882028215308
 31
0.0
 11
-42.69006434987646
 21
276.9503173032901
 31
0.0
 11
-42.43449247011723
 21
277.0321899167794
 31
0.0
 11
-42.18260328591816
 21
277.1248007927155
 31
0.0
 11
-41.93472489462144
 21
277.2277827000308
 31
0.0
 11
-41.69123891077294
 21
277.3407541956439
 31
0.0
 11
-41.45259155996076
 21
277.4633029645817
 31
0.0
 11
-41.21897773659683
 21
277.5951940363482
 31
0.0
 11
-40.99070072018519
 21
277.7361595205556
 31
0.0
 11
-40.7680853073694
 21
277.8859059635642
 31
0.0
 11
-40.59111359072334
 21
278.014351571617
 31
0.0
 11
-40.41871949991497
 21
278.1488617246418
 31
0.0
 11
-40.2516142833814
 21
278.2897723430232
 31
0.0
 11
-40.09045964549169
 21
278.4374502636371
 31
0.0
 11
-39.93436024540663
 21
278.5938083048366
 31
0.0
 11
-39.78566575224982
 21
278.7572272479906
 31
0.0
 11
-39.64491954823771
 21
278.9275689306808
 31
0.0
 11
-39.51272092996678
 21
279.1046368857863
 31
0.0
 11
-39.40084281431029
 21
279.2710328471519
 31
0.0
 11
-39.29798504195136
 21
279.4431293333682
 31
0.0
 11
-39.20551247438626
 21
279.6214386481728
 31
0.0
 11
-39.12514083911431
 21
279.8055236411873
 31
0.0
 11
-39.06030460424954
 21
279.9895267307709
 31
0.0
 11
-39.01072645874687
 21
280.1782547891959
 31
0.0
 11
-38.97904897159076
 21
280.3697120063192
 31
0.0
 11
-38.96781677271223
 21
280.5632676638439
 31
0.0
 11
-38.97904897159076
 21
280.7568233213688
 31
0.0
 11
-39.01072645874689
 21
280.9482805384922
 31
0.0
 11
-39.0603046042496
 21
281.1370085969172
 31
0.0
 11
-39.12514083911438
 21
281.3210116865008
 31
0.0
 11
-39.20551247438627
 21
281.5050966795151
 31
0.0
 11
-39.29798504195131
 21
281.6834059943198
 31
0.0
 11
-39.40084281431022
 21
281.8555024805361
 31
0.0
 11
-39.5127209299667
 21
282.0218984419016
 31
0.0
 11
-39.64491954823765
 21
282.1989663970072
 31
0.0
 11
-39.78566575224975
 21
282.3693080796974
 31
0.0
 11
-39.9343602454066
 21
282.5327270228515
 31
0.0
 11
-40.09045964549171
 21
282.6890850640509
 31
0.0
 11
-40.25161428338141
 21
282.8367629846647
 31
0.0
 11
-40.41871949991499
 21
282.9776736030461
 31
0.0
 11
-40.59111359072337
 21
283.1121837560709
 31
0.0
 11
-40.76808530736944
 21
283.2406293641238
 31
0.0
 11
-40.99070072018518
 21
283.3903758071324
 31
0.0
 11
-41.21897773659679
 21
283.5313412913398
 31
0.0
 11
-41.45259155996075
 21
283.6632323631063
 31
0.0
 11
-41.69123891077292
 21
283.7857811320441
 31
0.0
 11
-41.93472489462142
 21
283.8987526276573
 31
0.0
 11
-42.18260328591811
 21
284.0017345349727
 31
0.0
 11
-42.43449247011716
 21
284.094345410909
 31
0.0
 11
-42.69006434987637
 21
284.1762180243985
 31
0.0
 11
-42.93872237829434
 21
284.2445071123804
 31
0.0
 11
-43.18992130329993
 21
284.3027806076795
 31
0.0
 11
-43.44320711379196
 21
284.3513093405217
 31
0.0
 11
-43.69812531723415
 21
284.3903586471131
 31
0.0
 11
-43.95474646580012
 21
284.4202549936216
 31
0.0
 11
-44.21225034026691
 21
284.4412211352223
 31
0.0
 11
-44.47032909413342
 21
284.4535678536303
 31
0.0
 11
-44.72867608361396
 21
284.4576119551588
 31
0.0
 11
-44.98702307309447
 21
284.4535678536303
 31
0.0
 11
-45.24510182696095
 21
284.4412211352223
 31
0.0
 11
-45.5026057014277
 21
284.4202549936216
 31
0.0
 11
-45.75922684999361
 21
284.3903586471131
 31
0.0
 11
-46.01414505343578
 21
284.3513093405217
 31
0.0
 11
-46.2674308639278
 21
284.3027806076795
 31
0.0
 11
-46.51862978893339
 21
284.2445071123804
 31
0.0
 11
-46.76728781735137
 21
284.1762180243985
 31
0.0
 11
-47.02285969711061
 21
284.094345410909
 31
0.0
 11
-47.27474888130968
 21
284.0017345349727
 31
0.0
 11
-47.52262727260636
 21
283.8987526276574
 31
0.0
 11
-47.76611325645479
 21
283.7857811320441
 31
0.0
 11
-48.00476060726704
 21
283.6632323631063
 31
0.0
 11
-48.23837443063104
 21
283.5313412913396
 31
0.0
 11
-48.46665144704264
 21
283.3903758071318
 31
0.0
 11
-48.68926685985844
 21
283.2406293641229
 31
0.0
 11
-48.86623857650447
 21
283.11218375607
 31
0.0
 11
-49.03863266731287
 21
282.9776736030453
 31
0.0
 11
-49.20573788384645
 21
282.8367629846643
 31
0.0
 11
-49.36689252173613
 21
282.6890850640508
 31
0.0
 11
-49.52299192182122
 21
282.5327270228515
 31
0.0
 11
-49.67168641497803
 21
282.3693080796974
 31
0.0
 11
-49.81243261899009
 21
282.1989663970072
 31
0.0
 11
-49.94463123726104
 21
282.0218984419016
 31
0.0
 11
-50.05650935291758
 21
281.8555024805361
 31
0.0
 11
-50.15936712527655
 21
281.6834059943198
 31
0.0
 11
-50.25183969284159
 21
281.5050966795152
 31
0.0
 11
-50.33221132811349
 21
281.3210116865008
 31
0.0
 11
-50.39704756297828
 21
281.1370085969172
 31
0.0
 11
-50.44662570848097
 21
280.9482805384923
 31
0.0
  0
SPLINE
  5
1F7
330
1F
100
AcDbEntity
  8
1
  6
Continuous
 62
     3
100
AcDbSpline
210
0.0
220
0.0
230
1.0
 70
    11
 71
     3
 72
   135
 73
   131
 74
   129
 42
0.0000000001
 43
0.0000000001
 44
0.00000001
 40
0.0
 40
0.0
 40
0.0
 40
0.0
 40
0.1963486088210144
 40
0.3925938402373627
 40
0.5888390716535123
 40
0.7851876804743574
 40
0.9821774013585451
 40
1.179144904680328
 40
1.379872706489929
 40
1.580598057654606
 40
1.781113092219315
 40
1.98164044272913
 40
2.197162224770751
 40
2.412679187849968
 40
2.62816848281087
 40
2.843656376291475
 40
3.057739081115192
 40
3.271821822722043
 40
3.485963432276542
 40
3.700113747964598
 40
3.947699630305222
 40
4.195285262614748
 40
4.442854327031655
 40
4.69042344830899
 40
4.938018963310322
 40
5.185615850302906
 40
5.433184159644321
 40
5.680746293858067
 40
5.920561227732978
 40
6.160379049677748
 40
6.400216968933941
 40
6.640054140635103
 40
6.880110568597765
 40
7.120166970054592
 40
7.360221182193305
 40
7.600276417441801
 40
7.840331652690205
 40
8.080385864828802
 40
8.320442266285523
 40
8.560498694248121
 40
8.80033586594941
 40
9.040173785205727
 40
9.27999160715058
 40
9.519806541025583
 40
9.767368675239245
 40
10.01493698458056
 40
10.26253387157304
 40
10.5101293865743
 40
10.75769850785174
 40
11.00526757226874
 40
11.25285320457838
 40
11.50043908691906
 40
11.714589402607
 40
11.92873101216137
 40
12.14281375376813
 40
12.35689645859171
 40
12.57238435207243
 40
12.78787364703343
 40
13.0033906101128
 40
13.21891239215452
 40
13.41943974266436
 40
13.61995477722912
 40
13.82068012839378
 40
14.02140793020336
 40
14.21837543352522
 40
14.41536515440938
 40
14.61171376323017
 40
14.80795899464615
 40
15.00420422606218
 40
15.20055283488303
 40
15.39754255576725
 40
15.59451005908909
 40
15.79523786089865
 40
15.99596321206334
 40
16.19647824662803
 40
16.3970055971378
 40
16.61252737917948
 40
16.82804434225888
 40
17.04353363722004
 40
17.25902153070092
 40
17.47310423552467
 40
17.68718697713153
 40
17.90132858668602
 40
18.11547890237403
 40
18.36306478471466
 40
18.61065041702412
 40
18.85821948144107
 40
19.10578860271847
 40
19.35338411771979
 40
19.60098100471229
 40
19.84854931405358
 40
20.09611144826724
 40
20.33592638214219
 40
20.57574420408699
 40
20.81558212334321
 40
21.05541929504442
 40
21.29547572300705
 40
21.53553212446386
 40
21.7755863366026
 40
22.01564157185112
 40
22.25569680709968
 40
22.49575101923845
 40
22.73580742069528
 40
22.97586384865795
 40
23.21570102035913
 40
23.45553893961532
 40
23.69535676156013
 40
23.9351716954351
 40
24.18273382964874
 40
24.43030213899002
 40
24.67789902598253
 40
24.92549454098388
 40
25.17306366226125
 40
25.42063272667817
 40
25.66821835898764
 40
25.91580424132826
 40
26.12995455701622
 40
26.34409616657071
 40
26.55817890817762
 40
26.77226161300144
 40
26.9877495064823
 40
27.20323880144338
 40
27.41875576452279
 40
27.63427754656446
 40
27.83480489707429
 40
28.03531993163903
 40
28.23604528280363
 40
28.43677308461307
 40
28.63374058793455
 40
28.83073030881855
 40
28.83073030881855
 40
28.83073030881855
 40
28.83073030881855
 10
-26.0033151075035
 20
137.284974999199
 30
0.0
 10
-25.99297479800758
 20
137.22030704548
 30
0.0
 10
-25.97229962318142
 20
137.0910051856743
 30
0.0
 10
-25.9632418162964
 20
136.894495913799
 30
0.0
 10
-25.9729508865324
 20
136.6981971461974
 30
0.0
 10
-26.00073866940769
 20
136.5033836473312
 30
0.0
 10
-26.04425946364857
 20
136.3112916062011
 30
0.0
 10
-26.10226615715716
 20
136.1215709840802
 30
0.0
 10
-26.17323725003175
 20
135.9350017458551
 30
0.0
 10
-26.25618351083951
 20
135.7521598621917
 30
0.0
 10
-26.34946565405458
 20
135.5744661196445
 30
0.0
 10
-26.45440132411108
 20
135.3976577641239
 30
0.0
 10
-26.57059439374195
 20
135.2220013379882
 30
0.0
 10
-26.69819601895923
 20
135.0482252401954
 30
0.0
 10
-26.83389320022211
 20
134.880715482824
 30
0.0
 10
-26.97685160267232
 20
134.7200026068024
 30
0.0
 10
-27.12652375072174
 20
134.5661865498832
 30
0.0
 10
-27.28219553034041
 20
134.4191103093422
 30
0.0
 10
-27.44357495489698
 20
134.2782954092058
 30
0.0
 10
-27.61874319005255
 20
134.1365432136951
 30
0.0
 10
-27.80802377856049
 20
133.9947421975912
 30
0.0
 10
-28.01205479019621
 20
133.8543826517768
 30
0.0
 10
-28.22162851824042
 20
133.7224498237678
 30
0.0
 10
-28.43644995256713
 20
133.5992369793916
 30
0.0
 10
-28.65621260940713
 20
133.4850461180215
 30
0.0
 10
-28.88059774400248
 20
133.3802243520547
 30
0.0
 10
-29.10926389091013
 20
133.2851259233859
 30
0.0
 10
-29.33943536107999
 20
133.2010024490708
 30
0.0
 10
-29.57061086993223
 20
133.1278525094874
 30
0.0
 10
-29.80219761069253
 20
133.0652665308066
 30
0.0
 10
-30.03620632127379
 20
133.012427349481
 30
0.0
 10
-30.27227425432386
 20
132.9692842167528
 30
0.0
 10
-30.50997774705006
 20
132.9358064468551
 30
0.0
 10
-30.74891061413511
 20
132.9119548785523
 30
0.0
 10
-30.98860539128041
 20
132.8976886759914
 30
0.0
 10
-31.22867608361371
 20
132.8929521461069
 30
0.0
 10
-31.46874677594701
 20
132.8976886759914
 30
0.0
 10
-31.70844155309216
 20
132.9119548785523
 30
0.0
 10
-31.94737442017714
 20
132.9358064468551
 30
0.0
 10
-32.18507791290333
 20
132.9692842167528
 30
0.0
 10
-32.42114584595345
 20
133.012427349481
 30
0.0
 10
-32.65515455653482
 20
133.0652665308066
 30
0.0
 10
-32.88674129729525
 20
133.1278525094875
 30
0.0
 10
-33.11791680614748
 20
133.2010024490708
 30
0.0
 10
-33.34808827631732
 20
133.2851259233859
 30
0.0
 10
-33.57675442322488
 20
133.3802243520548
 30
0.0
 10
-33.80113955782016
 20
133.4850461180215
 30
0.0
 10
-34.02090221466008
 20
133.5992369793916
 30
0.0
 10
-34.23572364898682
 20
133.7224498237679
 30
0.0
 10
-34.44529737703121
 20
133.8543826517767
 30
0.0
 10
-34.64932838866694
 20
133.9947421975912
 30
0.0
 10
-34.83860897717513
 20
134.1365432136951
 30
0.0
 10
-35.0137772123299
 20
134.2782954092057
 30
0.0
 10
-35.17515663688901
 20
134.4191103093426
 30
0.0
 10
-35.33082841649754
 20
134.5661865498818
 30
0.0
 10
-35.48050056458423
 20
134.7200026068078
 30
0.0
 10
-35.62345896689452
 20
134.8807154828034
 30
0.0
 10
-35.75915614868046
 20
135.0482252402724
 30
0.0
 10
-35.88675777194639
 20
135.222001337701
 30
0.0
 10
-36.00295084869194
 20
135.3976577651645
 30
0.0
 10
-36.10788649397102
 20
135.5744661160608
 30
0.0
 10
-36.20116872825125
 20
135.7521598756031
 30
0.0
 10
-36.28411464863849
 20
135.9350016957357
 30
0.0
 10
-36.35508700439689
 20
136.1215711696454
 30
0.0
 10
-36.41308906984176
 20
136.3112909280583
 30
0.0
 10
-36.45662705070104
 20
136.5033861766245
 30
0.0
 10
-36.48435089300375
 20
136.6981877426431
 30
0.0
 10
-36.49429831110858
 20
136.894530991685
 30
0.0
 10
-36.48435089300379
 20
137.0908742407268
 30
0.0
 10
-36.45662705070113
 20
137.2856758067455
 30
0.0
 10
-36.41308906984181
 20
137.4777710553117
 30
0.0
 10
-36.35508700439688
 20
137.6674908137247
 30
0.0
 10
-36.28411464863847
 20
137.8540602876343
 30
0.0
 10
-36.20116872825126
 20
138.036902107767
 30
0.0
 10
-36.10788649397103
 20
138.2145958673091
 30
0.0
 10
-36.00295084869202
 20
138.3914042182055
 30
0.0
 10
-35.88675777194663
 20
138.567060645669
 30
0.0
 10
-35.75915614868087
 20
138.7408367430978
 30
0.0
 10
-35.62345896689519
 20
138.9083465005671
 30
0.0
 10
-35.48050056458498
 20
139.069059376563
 30
0.0
 10
-35.33082841649828
 20
139.2228754334893
 30
0.0
 10
-35.17515663688954
 20
139.3699516740284
 30
0.0
 10
-35.01377721233034
 20
139.5107665741654
 30
0.0
 10
-34.83860897717547
 20
139.6525187696759
 30
0.0
 10
-34.64932838866738
 20
139.7943197857798
 30
0.0
 10
-34.44529737703169
 20
139.9346793315942
 30
0.0
 10
-34.23572364898746
 20
140.0666121596031
 30
0.0
 10
-34.02090221466072
 20
140.1898250039794
 30
0.0
 10
-33.80113955782074
 20
140.3040158653495
 30
0.0
 10
-33.5767544232254
 20
140.4088376313161
 30
0.0
 10
-33.34808827631767
 20
140.5039360599846
 30
0.0
 10
-33.11791680614782
 20
140.5880595342995
 30
0.0
 10
-32.88674129729566
 20
140.661209473883
 30
0.0
 10
-32.65515455653539
 20
140.7237954525641
 30
0.0
 10
-32.42114584595402
 20
140.7766346338894
 30
0.0
 10
-32.18507791290389
 20
140.8197777666173
 30
0.0
 10
-31.94737442017768
 20
140.8532555365149
 30
0.0
 10
-31.70844155309261
 20
140.8771071048177
 30
0.0
 10
-31.46874677594733
 20
140.8913733073786
 30
0.0
 10
-31.22867608361393
 20
140.8961098372631
 30
0.0
 10
-30.98860539128055
 20
140.8913733073786
 30
0.0
 10
-30.74891061413522
 20
140.8771071048177
 30
0.0
 10
-30.50997774705014
 20
140.8532555365149
 30
0.0
 10
-30.2722742543239
 20
140.8197777666174
 30
0.0
 10
-30.0362063212738
 20
140.7766346338894
 30
0.0
 10
-29.80219761069242
 20
140.7237954525642
 30
0.0
 10
-29.57061086993215
 20
140.6612094738831
 30
0.0
 10
-29.33943536108002
 20
140.5880595342994
 30
0.0
 10
-29.10926389091013
 20
140.5039360599846
 30
0.0
 10
-28.88059774400247
 20
140.408837631316
 30
0.0
 10
-28.65621260940704
 20
140.3040158653495
 30
0.0
 10
-28.43644995256728
 20
140.1898250039794
 30
0.0
 10
-28.22162851823969
 20
140.0666121596033
 30
0.0
 10
-28.01205479019875
 20
139.9346793315937
 30
0.0
 10
-27.80802377855074
 20
139.7943197857817
 30
0.0
 10
-27.6187431900868
 20
139.6525187696694
 30
0.0
 10
-27.4435749547885
 20
139.5107665741858
 30
0.0
 10
-27.28219553074732
 20
139.3699516739521
 30
0.0
 10
-27.12652374920332
 20
139.2228754337741
 30
0.0
 10
-26.97685160835511
 20
139.0690593754969
 30
0.0
 10
-26.83389317885851
 20
138.9083465045747
 30
0.0
 10
-26.69819609867735
 20
138.7408367281435
 30
0.0
 10
-26.5705940961898
 20
138.5670607014867
 30
0.0
 10
-26.45440240195885
 20
138.3914040160127
 30
0.0
 10
-26.34946194181612
 20
138.2145965636856
 30
0.0
 10
-26.25619740366415
 20
138.0368995016206
 30
0.0
 10
-26.17318533142509
 20
137.8540700270134
 30
0.0
 10
-26.10245838418859
 20
137.667454753976
 30
0.0
 10
-26.04355697526601
 20
137.4779028346697
 30
0.0
 10
-26.01672956774272
 20
137.3492866954959
 30
0.0
 10
-26.00331510750351
 20
137.2849749991991
 30
0.0
 11
-26.0033151075035
 21
137.284974999199
 31
0.0
 11
-25.97595513296065
 21
137.0905419567937
 31
0.0
 11
-25.96636908002673
 21
136.8945309916851
 31
0.0
 11
-25.97595513296065
 21
136.6985200265767
 31
0.0
 11
-26.0033151075035
 21
136.5040869841717
 31
0.0
 11
-26.04660699102253
 21
136.311913200956
 31
0.0
 11
-26.10395338420564
 21
136.1234786272873
 31
0.0
 11
-26.17516398096161
 21
135.9358068357763
 31
0.0
 11
-26.25794181919781
 21
135.7529448766456
 31
0.0
 11
-26.35098567814481
 21
135.575324158826
 31
0.0
 11
-26.45318137764499
 21
135.4027922565408
 31
0.0
 11
-26.5720380322462
 21
135.2230070118976
 31
0.0
 11
-26.69955205894023
 21
135.0492608338931
 31
0.0
 11
-26.83515662750909
 21
134.881788336969
 31
0.0
 11
-26.97834289157338
 21
134.7207519248753
 31
0.0
 11
-27.12757576055687
 21
134.5672561421332
 31
0.0
 11
-27.28312948891077
 21
134.4201695762983
 31
0.0
 11
-27.44442377567299
 21
134.2793122655173
 31
0.0
 11
-27.61084001864788
 21
134.144530991657
 31
0.0
 11
-27.80899598836389
 21
133.9960958852963
 31
0.0
 11
-28.01298396696038
 21
133.8557835554239
 31
0.0
 11
-28.22250262384678
 21
133.7239034050116
 31
0.0
 11
-28.43726441081122
 21
133.6007456010775
 31
0.0
 11
-28.65698268113233
 21
133.4866078740286
 31
0.0
 11
-28.88132166221429
 21
133.3818403217258
 31
0.0
 11
-29.10992286192107
 21
133.2868058054552
 31
0.0
 11
-29.34245500172087
 21
133.2018598564253
 31
0.0
 11
-29.57108772551022
 21
133.1294838927213
 31
0.0
 11
-29.80259357137693
 21
133.0668929105283
 31
0.0
 11
-30.03653673465975
 21
133.0140457358984
 31
0.0
 11
-30.27246271151515
 21
132.9709087172898
 31
0.0
 11
-30.51017070888631
 21
132.9374124997125
 31
0.0
 11
-30.7490383926278
 21
132.913552375145
 31
0.0
 11
-30.98866776766751
 21
132.8992769632905
 31
0.0
 11
-31.22867608361375
 21
132.8945309916448
 31
0.0
 11
-31.46868439955989
 21
132.8992769632905
 31
0.0
 11
-31.70831377459949
 21
132.913552375145
 31
0.0
 11
-31.94718145834088
 21
132.9374124997125
 31
0.0
 11
-32.18488945571197
 21
132.9709087172897
 31
0.0
 11
-32.4208154325675
 21
133.0140457358983
 31
0.0
 11
-32.65475859585044
 21
133.0668929105283
 31
0.0
 11
-32.88626444171723
 21
133.1294838927213
 31
0.0
 11
-33.11489716550666
 21
133.2018598564254
 31
0.0
 11
-33.34742930530638
 21
133.2868058054552
 31
0.0
 11
-33.57603050501307
 21
133.3818403217258
 31
0.0
 11
-33.80036948609494
 21
133.4866078740286
 31
0.0
 11
-34.02008775641595
 21
133.6007456010774
 31
0.0
 11
-34.23484954338048
 21
133.7239034050116
 31
0.0
 11
-34.444368200267
 21
133.8557835554239
 31
0.0
 11
-34.6483561788636
 21
133.9960958852964
 31
0.0
 11
-34.84651214857966
 21
134.1445309916571
 31
0.0
 11
-35.01292839155445
 21
134.2793122655173
 31
0.0
 11
-35.17422267831653
 21
134.4201695762983
 31
0.0
 11
-35.3297764066703
 21
134.5672561421332
 31
0.0
 11
-35.47900927565369
 21
134.7207519248752
 31
0.0
 11
-35.62219553971808
 21
134.881788336969
 31
0.0
 11
-35.75780010828709
 21
135.0492608338931
 31
0.0
 11
-35.8853141349813
 21
135.2230070118976
 31
0.0
 11
-36.00417078958269
 21
135.4027922565408
 31
0.0
 11
-36.10636648908296
 21
135.575324158826
 31
0.0
 11
-36.19941034803001
 21
135.7529448766456
 31
0.0
 11
-36.28218818626623
 21
135.9358068357763
 31
0.0
 11
-36.35339878302222
 21
136.1234786272873
 31
0.0
 11
-36.41074517620532
 21
136.3119132009561
 31
0.0
 11
-36.45403705972433
 21
136.5040869841717
 31
0.0
 11
-36.4813970342672
 21
136.6985200265767
 31
0.0
 11
-36.49098308720114
 21
136.8945309916849
 31
0.0
 11
-36.48139703426725
 21
137.0905419567932
 31
0.0
 11
-36.4540370597244
 21
137.2849749991983
 31
0.0
 11
-36.41074517620536
 21
137.477148782414
 31
0.0
 11
-36.35339878302222
 21
137.6655833560827
 31
0.0
 11
-36.28218818626622
 21
137.8532551475937
 31
0.0
 11
-36.19941034803
 21
138.0361171067244
 31
0.0
 11
-36.10636648908298
 21
138.213737824544
 31
0.0
 11
-36.0041707895828
 21
138.3862697268291
 31
0.0
 11
-35.88531413498156
 21
138.5660549714724
 31
0.0
 11
-35.75780010828754
 21
138.7398011494771
 31
0.0
 11
-35.62219553971872
 21
138.9072736464016
 31
0.0
 11
-35.47900927565443
 21
139.0683100584957
 31
0.0
 11
-35.32977640667098
 21
139.2218058412378
 31
0.0
 11
-35.17422267831708
 21
139.3688924070727
 31
0.0
 11
-35.01292839155487
 21
139.5097497178537
 31
0.0
 11
-34.84651214857998
 21
139.644530991714
 31
0.0
 11
-34.64835617886399
 21
139.7929660980747
 31
0.0
 11
-34.44436820026753
 21
139.933278427947
 31
0.0
 11
-34.2348495433811
 21
140.0651585783594
 31
0.0
 11
-34.02008775641661
 21
140.1883163822935
 31
0.0
 11
-33.80036948609551
 21
140.3024541093424
 31
0.0
 11
-33.57603050501355
 21
140.407221661645
 31
0.0
 11
-33.34742930530676
 21
140.5022561779153
 31
0.0
 11
-33.114897165507
 21
140.587202126945
 31
0.0
 11
-32.88626444171766
 21
140.6595780906492
 31
0.0
 11
-32.65475859585096
 21
140.7221690728423
 31
0.0
 11
-32.42081543256808
 21
140.7750162474721
 31
0.0
 11
-32.18488945571258
 21
140.8181532660804
 31
0.0
 11
-31.94718145834143
 21
140.8516494836575
 31
0.0
 11
-31.70831377459995
 21
140.8755096082249
 31
0.0
 11
-31.46868439956021
 21
140.8897850200796
 31
0.0
 11
-31.22867608361395
 21
140.8945309917252
 31
0.0
 11
-30.98866776766765
 21
140.8897850200795
 31
0.0
 11
-30.74903839262789
 21
140.875509608225
 31
0.0
 11
-30.51017070888639
 21
140.8516494836575
 31
0.0
 11
-30.27246271151519
 21
140.8181532660804
 31
0.0
 11
-30.03653673465972
 21
140.7750162474721
 31
0.0
 11
-29.80259357137686
 21
140.7221690728423
 31
0.0
 11
-29.57108772551016
 21
140.6595780906493
 31
0.0
 11
-29.34245500172082
 21
140.587202126945
 31
0.0
 11
-29.10992286192106
 21
140.5022561779153
 31
0.0
 11
-28.88132166221429
 21
140.407221661645
 31
0.0
 11
-28.65698268113233
 21
140.3024541093424
 31
0.0
 11
-28.4372644108112
 21
140.1883163822935
 31
0.0
 11
-28.22250262384673
 21
140.0651585783594
 31
0.0
 11
-28.01298396696032
 21
139.933278427947
 31
0.0
 11
-27.80899598836388
 21
139.7929660980747
 31
0.0
 11
-27.61084001864791
 21
139.644530991714
 31
0.0
 11
-27.44442377567305
 21
139.5097497178537
 31
0.0
 11
-27.28312948891084
 21
139.3688924070727
 31
0.0
 11
-27.12757576055691
 21
139.2218058412378
 31
0.0
 11
-26.97834289157343
 21
139.0683100584956
 31
0.0
 11
-26.83515662750916
 21
138.9072736464015
 31
0.0
 11
-26.69955205894034
 21
138.7398011494771
 31
0.0
 11
-26.5720380322463
 21
138.5660549714724
 31
0.0
 11
-26.45318137764504
 21
138.3862697268292
 31
0.0
 11
-26.35098567814483
 21
138.213737824544
 31
0.0
 11
-26.25794181919781
 21
138.0361171067244
 31
0.0
 11
-26.17516398096162
 21
137.8532551475938
 31
0.0
 11
-26.10395338420565
 21
137.6655833560829
 31
0.0
 11
-26.04660699102255
 21
137.4771487824145
 31
0.0
 11
-26.00331510750351
 21
137.2849749991991
 31
0.0
  0
SPLINE
  5
1F8
330
1F
100
AcDbEntity
  8
1
  6
Continuous
 62
     3
100
AcDbSpline
210
0.0
220
0.0
230
1.0
 70
    11
 71
     3
 72
   135
 73
   131
 74
   129
 42
0.0000000001
 43
0.0000000001
 44
0.00000001
 40
0.0
 40
0.0
 40
0.0
 40
0.0
 40
0.1963486088211373
 40
0.3925938402375962
 40
0.5888390716537433
 40
0.7851876804745408
 40
0.9821774013586395
 40
1.179144904680355
 40
1.379872706489904
 40
1.580598057654589
 40
1.781113092219343
 40
1.981640442729256
 40
2.197162224770948
 40
2.412679187850322
 40
2.628168482811275
 40
2.843656376291954
 40
3.057739081115573
 40
3.271821822722334
 40
3.485963432276691
 40
3.700113747964618
 40
3.947699630305142
 40
4.195285262614617
 40
4.442854327031521
 40
4.69042344830889
 40
4.938018963310251
 40
5.185615850302802
 40
5.433184159644217
 40
5.680746293857946
 40
5.920561227732837
 40
6.160379049677607
 40
6.400216968933814
 40
6.640054140635004
 40
6.880110568597712
 40
7.120166970054554
 40
7.360221182193332
 40
7.600276417441902
 40
7.840331652690438
 40
8.080385864829179
 40
8.320442266285985
 40
8.56049869424865
 40
8.800335865949881
 40
9.040173785206095
 40
9.279991607150844
 40
9.519806541025737
 40
9.767368675239457
 40
10.01493698458085
 40
10.26253387157347
 40
10.51012938657482
 40
10.75769850785215
 40
11.00526757226904
 40
11.25285320457855
 40
11.50043908691919
 40
11.71458940260729
 40
11.92873101216186
 40
12.14281375376869
 40
12.35689645859235
 40
12.57238435207295
 40
12.7878736470338
 40
13.00339061011302
 40
13.21891239215463
 40
13.41943974266451
 40
13.61995477722926
 40
13.82068012839392
 40
14.02140793020341
 40
14.2183754335252
 40
14.41536515440929
 40
14.61171376323015
 40
14.8079589946463
 40
15.00420422606267
 40
15.20055283488381
 40
15.39754255576807
 40
15.59451005908984
 40
15.79523786089942
 40
15.99596321206409
 40
16.19647824662884
 40
16.39700559713867
 40
16.61252737918024
 40
16.82804434225947
 40
17.04353363722035
 40
17.25902153070103
 40
17.47310423552468
 40
17.68718697713152
 40
17.90132858668599
 40
18.11547890237396
 40
18.36306478471465
 40
18.61065041702423
 40
18.85821948144112
 40
19.10578860271847
 40
19.35338411771978
 40
19.60098100471226
 40
19.84854931405355
 40
20.0961114482672
 40
20.33592638214217
 40
20.575744204087
 40
20.8155821233432
 40
21.05541929504438
 40
21.29547572300704
 40
21.53553212446388
 40
21.77558633660264
 40
22.01564157185113
 40
22.25569680709967
 40
22.49575101923848
 40
22.73580742069531
 40
22.97586384865798
 40
23.21570102035916
 40
23.45553893961534
 40
23.69535676156022
 40
23.93517169543525
 40
24.18273382964891
 40
24.43030213899017
 40
24.67789902598263
 40
24.92549454098389
 40
25.17306366226125
 40
25.42063272667814
 40
25.66821835898773
 40
25.91580424132853
 40
26.12995455701675
 40
26.34409616657135
 40
26.55817890817799
 40
26.77226161300141
 40
26.98774950648193
 40
27.20323880144282
 40
27.4187557645221
 40
27.63427754656366
 40
27.83480489707356
 40
28.03531993163829
 40
28.23604528280294
 40
28.43677308461253
 40
28.63374058793421
 40
28.83073030881845
 40
28.83073030881845
 40
28.83073030881845
 40
28.83073030881845
 10
-49.45403705972388
 20
137.2849749991992
 30
0.0
 10
-49.46437736921975
 20
137.2203070454802
 30
0.0
 10
-49.48505254404581
 20
137.0910051856744
 30
0.0
 10
-49.49411035093078
 20
136.8944959137989
 30
0.0
 10
-49.48440128069485
 20
136.6981971461974
 30
0.0
 10
-49.45661349781972
 20
136.5033836473311
 30
0.0
 10
-49.41309270357896
 20
136.3112916062011
 30
0.0
 10
-49.35508601007054
 20
136.1215709840802
 30
0.0
 10
-49.28411491719599
 20
135.9350017458551
 30
0.0
 10
-49.2011686563883
 20
135.7521598621917
 30
0.0
 10
-49.10788651317316
 20
135.5744661196445
 30
0.0
 10
-49.0029508431166
 20
135.3976577641239
 30
0.0
 10
-48.8867577734855
 20
135.2220013379882
 30
0.0
 10
-48.7591561482681
 20
135.0482252401954
 30
0.0
 10
-48.62345896700505
 20
134.8807154828241
 30
0.0
 10
-48.48050056455487
 20
134.7200026068023
 30
0.0
 10
-48.33082841650545
 20
134.5661865498832
 30
0.0
 10
-48.17515663688695
 20
134.4191103093421
 30
0.0
 10
-48.01377721233052
 20
134.2782954092058
 30
0.0
 10
-47.83860897717508
 20
134.136543213695
 30
0.0
 10
-47.64932838866728
 20
133.9947421975912
 30
0.0
 10
-47.44529737703164
 20
133.8543826517768
 30
0.0
 10
-47.23572364898743
 20
133.7224498237678
 30
0.0
 10
-47.02090221466068
 20
133.5992369793916
 30
0.0
 10
-46.8011395578207
 20
133.4850461180215
 30
0.0
 10
-46.5767544232253
 20
133.3802243520547
 30
0.0
 10
-46.34808827631771
 20
133.285125923386
 30
0.0
 10
-46.11791680614783
 20
133.2010024490707
 30
0.0
 10
-45.88674129729565
 20
133.1278525094875
 30
0.0
 10
-45.65515455653532
 20
133.0652665308065
 30
0.0
 10
-45.42114584595404
 20
133.0124273494811
 30
0.0
 10
-45.18507791290395
 20
132.9692842167528
 30
0.0
 10
-44.94737442017772
 20
132.9358064468551
 30
0.0
 10
-44.7084415530926
 20
132.9119548785523
 30
0.0
 10
-44.46874677594731
 20
132.8976886759914
 30
0.0
 10
-44.22867608361388
 20
132.8929521461069
 30
0.0
 10
-43.98860539128047
 20
132.8976886759914
 30
0.0
 10
-43.74891061413519
 20
132.9119548785523
 30
0.0
 10
-43.50997774705012
 20
132.9358064468551
 30
0.0
 10
-43.2722742543239
 20
132.9692842167528
 30
0.0
 10
-43.03620632127383
 20
133.0124273494811
 30
0.0
 10
-42.80219761069252
 20
133.0652665308066
 30
0.0
 10
-42.57061086993222
 20
133.1278525094874
 30
0.0
 10
-42.33943536108002
 20
133.2010024490708
 30
0.0
 10
-42.10926389091017
 20
133.2851259233859
 30
0.0
 10
-41.88059774400251
 20
133.3802243520547
 30
0.0
 10
-41.6562126094072
 20
133.4850461180216
 30
0.0
 10
-41.43644995256716
 20
133.5992369793916
 30
0.0
 10
-41.22162851824048
 20
133.7224498237679
 30
0.0
 10
-41.01205479019623
 20
133.8543826517767
 30
0.0
 10
-40.80802377856051
 20
133.9947421975911
 30
0.0
 10
-40.61874319005243
 20
134.1365432136951
 30
0.0
 10
-40.44357495489751
 20
134.2782954092057
 30
0.0
 10
-40.28219553033826
 20
134.4191103093426
 30
0.0
 10
-40.12652375072955
 20
134.5661865498818
 30
0.0
 10
-39.97685160264285
 20
134.7200026068078
 30
0.0
 10
-39.83389320033264
 20
134.8807154828034
 30
0.0
 10
-39.69819601854692
 20
135.0482252402724
 30
0.0
 10
-39.57059439528115
 20
135.2220013377009
 30
0.0
 10
-39.45440131853574
 20
135.3976577651644
 30
0.0
 10
-39.34946567325676
 20
135.5744661160609
 30
0.0
 10
-39.25618343897656
 20
135.7521598756031
 30
0.0
 10
-39.17323751858943
 20
135.9350016957358
 30
0.0
 10
-39.10226516283109
 20
136.1215711696453
 30
0.0
 10
-39.04426309738642
 20
136.3112909280584
 30
0.0
 10
-39.00072511652724
 20
136.5033861766245
 30
0.0
 10
-38.97300127422472
 20
136.6981877426432
 30
0.0
 10
-38.96305385611995
 20
136.8945309916852
 30
0.0
 10
-38.97300127422471
 20
137.0908742407273
 30
0.0
 10
-39.00072511652722
 20
137.2856758067463
 30
0.0
 10
-39.04426309738638
 20
137.4777710553126
 30
0.0
 10
-39.10226516283113
 20
137.6674908137257
 30
0.0
 10
-39.17323751858945
 20
137.8540602876352
 30
0.0
 10
-39.25618343897666
 20
138.036902107768
 30
0.0
 10
-39.34946567325681
 20
138.2145958673102
 30
0.0
 10
-39.45440131853577
 20
138.3914042182065
 30
0.0
 10
-39.57059439528117
 20
138.5670606456701
 30
0.0
 10
-39.69819601854685
 20
138.7408367430986
 30
0.0
 10
-39.8338932003327
 20
138.9083465005676
 30
0.0
 10
-39.9768516026429
 20
139.0690593765632
 30
0.0
 10
-40.12652375072965
 20
139.2228754334893
 30
0.0
 10
-40.28219553033831
 20
139.3699516740284
 30
0.0
 10
-40.44357495489749
 20
139.5107665741653
 30
0.0
 10
-40.61874319005236
 20
139.6525187696758
 30
0.0
 10
-40.8080237785605
 20
139.7943197857798
 30
0.0
 10
-41.01205479019619
 20
139.9346793315942
 30
0.0
 10
-41.22162851824046
 20
140.0666121596031
 30
0.0
 10
-41.43644995256714
 20
140.1898250039794
 30
0.0
 10
-41.65621260940709
 20
140.3040158653495
 30
0.0
 10
-41.88059774400243
 20
140.4088376313161
 30
0.0
 10
-42.10926389091011
 20
140.5039360599846
 30
0.0
 10
-42.33943536108002
 20
140.5880595342994
 30
0.0
 10
-42.57061086993215
 20
140.6612094738831
 30
0.0
 10
-42.80219761069243
 20
140.7237954525642
 30
0.0
 10
-43.03620632127381
 20
140.7766346338894
 30
0.0
 10
-43.27227425432393
 20
140.8197777666173
 30
0.0
 10
-43.50997774705015
 20
140.8532555365149
 30
0.0
 10
-43.74891061413522
 20
140.8771071048178
 30
0.0
 10
-43.98860539128051
 20
140.8913733073792
 30
0.0
 10
-44.22867608361386
 20
140.8961098372638
 30
0.0
 10
-44.46874677594727
 20
140.8913733073792
 30
0.0
 10
-44.70844155309256
 20
140.8771071048178
 30
0.0
 10
-44.94737442017767
 20
140.8532555365149
 30
0.0
 10
-45.18507791290389
 20
140.8197777666174
 30
0.0
 10
-45.421145845954
 20
140.7766346338894
 30
0.0
 10
-45.65515455653539
 20
140.7237954525642
 30
0.0
 10
-45.88674129729569
 20
140.661209473883
 30
0.0
 10
-46.11791680614789
 20
140.5880595342995
 30
0.0
 10
-46.34808827631777
 20
140.5039360599845
 30
0.0
 10
-46.57675442322547
 20
140.4088376313161
 30
0.0
 10
-46.80113955782078
 20
140.3040158653494
 30
0.0
 10
-47.02090221466053
 20
140.1898250039794
 30
0.0
 10
-47.23572364898806
 20
140.0666121596032
 30
0.0
 10
-47.44529737702905
 20
139.9346793315938
 30
0.0
 10
-47.64932838867717
 20
139.7943197857817
 30
0.0
 10
-47.83860897714119
 20
139.6525187696693
 30
0.0
 10
-48.01377721243941
 20
139.5107665741852
 30
0.0
 10
-48.17515663648046
 20
139.3699516739513
 30
0.0
 10
-48.33082841802443
 20
139.2228754337737
 30
0.0
 10
-48.48050055887267
 20
139.0690593754969
 30
0.0
 10
-48.62345898836936
 20
138.9083465045752
 30
0.0
 10
-48.7591560685506
 20
138.7408367281444
 30
0.0
 10
-48.88675807103814
 20
138.5670607014877
 30
0.0
 10
-49.00294976526911
 20
138.3914040160138
 30
0.0
 10
-49.10789022541174
 20
138.2145965636866
 30
0.0
 10
-49.20115476356373
 20
138.0368995016216
 30
0.0
 10
-49.28416683580274
 20
137.8540700270143
 30
0.0
 10
-49.35489378303914
 20
137.6674547539767
 30
0.0
 10
-49.41379519196153
 20
137.4779028346702
 30
0.0
 10
-49.44062259948471
 20
137.3492866954961
 30
0.0
 10
-49.45403705972387
 20
137.2849749991992
 30
0.0
 11
-49.45403705972388
 21
137.2849749991992
 31
0.0
 11
-49.48139703426661
 21
137.0905419567938
 31
0.0
 11
-49.49098308720046
 21
136.8945309916851
 31
0.0
 11
-49.4813970342666
 21
136.6985200265767
 31
0.0
 11
-49.45403705972389
 21
136.5040869841716
 31
0.0
 11
-49.41074517620501
 21
136.3119132009561
 31
0.0
 11
-49.35339878302204
 21
136.1234786272874
 31
0.0
 11
-49.28218818626614
 21
135.9358068357764
 31
0.0
 11
-49.19941034802999
 21
135.7529448766456
 31
0.0
 11
-49.10636648908294
 21
135.575324158826
 31
0.0
 11
-49.00417078958267
 21
135.4027922565407
 31
0.0
 11
-48.88531413498129
 21
135.2230070118976
 31
0.0
 11
-48.75780010828707
 21
135.0492608338931
 31
0.0
 11
-48.62219553971809
 21
134.881788336969
 31
0.0
 11
-48.47900927565375
 21
134.7207519248752
 31
0.0
 11
-48.32977640667035
 21
134.5672561421332
 31
0.0
 11
-48.17422267831657
 21
134.4201695762983
 31
0.0
 11
-48.01292839155451
 21
134.2793122655173
 31
0.0
 11
-47.84651214857976
 21
134.144530991657
 31
0.0
 11
-47.64835617886388
 21
133.9960958852964
 31
0.0
 11
-47.44436820026747
 21
133.8557835554239
 31
0.0
 11
-47.23484954338107
 21
133.7239034050116
 31
0.0
 11
-47.02008775641659
 21
133.6007456010775
 31
0.0
 11
-46.80036948609547
 21
133.4866078740286
 31
0.0
 11
-46.57603050501352
 21
133.3818403217258
 31
0.0
 11
-46.34742930530674
 21
133.2868058054552
 31
0.0
 11
-46.11489716550697
 21
133.2018598564253
 31
0.0
 11
-45.88626444171764
 21
133.1294838927213
 31
0.0
 11
-45.65475859585093
 21
133.0668929105283
 31
0.0
 11
-45.4208154325681
 21
133.0140457358984
 31
0.0
 11
-45.18488945571267
 21
132.9709087172898
 31
0.0
 11
-44.94718145834146
 21
132.9374124997125
 31
0.0
 11
-44.70831377459995
 21
132.9135523751451
 31
0.0
 11
-44.46868439956018
 21
132.8992769632904
 31
0.0
 11
-44.22867608361387
 21
132.8945309916448
 31
0.0
 11
-43.98866776766759
 21
132.8992769632904
 31
0.0
 11
-43.74903839262786
 21
132.9135523751451
 31
0.0
 11
-43.51017070888638
 21
132.9374124997125
 31
0.0
 11
-43.27246271151522
 21
132.9709087172898
 31
0.0
 11
-43.03653673465976
 21
133.0140457358984
 31
0.0
 11
-42.80259357137691
 21
133.0668929105283
 31
0.0
 11
-42.57108772551022
 21
133.1294838927212
 31
0.0
 11
-42.34245500172089
 21
133.2018598564253
 31
0.0
 11
-42.10992286192112
 21
133.2868058054552
 31
0.0
 11
-41.88132166221435
 21
133.3818403217258
 31
0.0
 11
-41.65698268113238
 21
133.4866078740287
 31
0.0
 11
-41.43726441081125
 21
133.6007456010775
 31
0.0
 11
-41.22250262384682
 21
133.7239034050116
 31
0.0
 11
-41.01298396696042
 21
133.8557835554239
 31
0.0
 11
-40.80899598836391
 21
133.9960958852963
 31
0.0
 11
-40.61084001864792
 21
134.144530991657
 31
0.0
 11
-40.44442377567298
 21
134.2793122655173
 31
0.0
 11
-40.2831294889107
 21
134.4201695762984
 31
0.0
 11
-40.12757576055681
 21
134.5672561421333
 31
0.0
 11
-39.97834289157334
 21
134.7207519248753
 31
0.0
 11
-39.83515662750909
 21
134.881788336969
 31
0.0
 11
-39.69955205894028
 21
135.0492608338931
 31
0.0
 11
-39.57203803224625
 21
135.2230070118976
 31
0.0
 11
-39.45318137764502
 21
135.4027922565407
 31
0.0
 11
-39.3509856781448
 21
135.575324158826
 31
0.0
 11
-39.25794181919781
 21
135.7529448766456
 31
0.0
 11
-39.17516398096167
 21
135.9358068357763
 31
0.0
 11
-39.10395338420579
 21
136.1234786272873
 31
0.0
 11
-39.04660699102284
 21
136.3119132009561
 31
0.0
 11
-39.00331510750397
 21
136.5040869841716
 31
0.0
 11
-38.97595513296125
 21
136.6985200265767
 31
0.0
 11
-38.96636908002736
 21
136.8945309916851
 31
0.0
 11
-38.97595513296124
 21
137.0905419567938
 31
0.0
 11
-39.00331510750397
 21
137.2849749991992
 31
0.0
 11
-39.04660699102283
 21
137.4771487824149
 31
0.0
 11
-39.10395338420579
 21
137.6655833560836
 31
0.0
 11
-39.17516398096172
 21
137.8532551475947
 31
0.0
 11
-39.25794181919789
 21
138.0361171067254
 31
0.0
 11
-39.35098567814487
 21
138.213737824545
 31
0.0
 11
-39.45318137764504
 21
138.3862697268303
 31
0.0
 11
-39.57203803224623
 21
138.5660549714734
 31
0.0
 11
-39.69955205894025
 21
138.7398011494779
 31
0.0
 11
-39.83515662750911
 21
138.907273646402
 31
0.0
 11
-39.97834289157342
 21
139.0683100584958
 31
0.0
 11
-40.1275757605569
 21
139.2218058412378
 31
0.0
 11
-40.28312948891077
 21
139.3688924070727
 31
0.0
 11
-40.44442377567297
 21
139.5097497178537
 31
0.0
 11
-40.61084001864782
 21
139.6445309917139
 31
0.0
 11
-40.80899598836387
 21
139.7929660980746
 31
0.0
 11
-41.01298396696041
 21
139.9332784279471
 31
0.0
 11
-41.2225026238468
 21
140.0651585783594
 31
0.0
 11
-41.43726441081125
 21
140.1883163822935
 31
0.0
 11
-41.65698268113232
 21
140.3024541093424
 31
0.0
 11
-41.88132166221426
 21
140.407221661645
 31
0.0
 11
-42.10992286192104
 21
140.5022561779153
 31
0.0
 11
-42.34245500172081
 21
140.587202126945
 31
0.0
 11
-42.57108772551015
 21
140.6595780906493
 31
0.0
 11
-42.80259357137687
 21
140.7221690728423
 31
0.0
 11
-43.03653673465975
 21
140.7750162474721
 31
0.0
 11
-43.27246271151522
 21
140.8181532660804
 31
0.0
 11
-43.5101707088864
 21
140.8516494836575
 31
0.0
 11
-43.7490383926279
 21
140.8755096082251
 31
0.0
 11
-43.98866776766762
 21
140.88978502008
 31
0.0
 11
-44.22867608361386
 21
140.8945309917259
 31
0.0
 11
-44.46868439956014
 21
140.88978502008
 31
0.0
 11
-44.70831377459992
 21
140.8755096082251
 31
0.0
 11
-44.9471814583414
 21
140.8516494836575
 31
0.0
 11
-45.1848894557126
 21
140.8181532660804
 31
0.0
 11
-45.42081543256807
 21
140.7750162474721
 31
0.0
 11
-45.65475859585092
 21
140.7221690728423
 31
0.0
 11
-45.88626444171769
 21
140.6595780906493
 31
0.0
 11
-46.1148971655071
 21
140.587202126945
 31
0.0
 11
-46.34742930530687
 21
140.5022561779153
 31
0.0
 11
-46.57603050501363
 21
140.407221661645
 31
0.0
 11
-46.80036948609553
 21
140.3024541093423
 31
0.0
 11
-47.02008775641657
 21
140.1883163822935
 31
0.0
 11
-47.23484954338102
 21
140.0651585783594
 31
0.0
 11
-47.44436820026744
 21
139.9332784279471
 31
0.0
 11
-47.64835617886399
 21
139.7929660980747
 31
0.0
 11
-47.84651214858002
 21
139.6445309917138
 31
0.0
 11
-48.01292839155489
 21
139.5097497178531
 31
0.0
 11
-48.17422267831709
 21
139.3688924070719
 31
0.0
 11
-48.3297764066709
 21
139.2218058412373
 31
0.0
 11
-48.47900927565434
 21
139.0683100584956
 31
0.0
 11
-48.62219553971866
 21
138.907273646402
 31
0.0
 11
-48.75780010828757
 21
138.7398011494779
 31
0.0
 11
-48.88531413498163
 21
138.5660549714734
 31
0.0
 11
-49.00417078958286
 21
138.3862697268303
 31
0.0
 11
-49.10636648908307
 21
138.213737824545
 31
0.0
 11
-49.19941034803006
 21
138.0361171067254
 31
0.0
 11
-49.28218818626618
 21
137.8532551475947
 31
0.0
 11
-49.35339878302204
 21
137.6655833560836
 31
0.0
 11
-49.410745176205
 21
137.477148782415
 31
0.0
 11
-49.45403705972387
 21
137.2849749991992
 31
0.0
  0
SPLINE
  5
1F9
330
1F
100
AcDbEntity
  8
1
  6
Continuous
 62
     3
100
AcDbSpline
210
0.0
220
0.0
230
1.0
 70
    11
 71
     3
 72
   135
 73
   131
 74
   129
 42
0.0000000001
 43
0.0000000001
 44
0.00000001
 40
0.0
 40
0.0
 40
0.0
 40
0.0
 40
0.1805795486878053
 40
0.3611544843547887
 40
0.5417294200217861
 40
0.7223089687095905
 40
0.9029232525402009
 40
1.083536452957958
 40
1.264284358926224
 40
1.445032531803245
 40
1.625760743460192
 40
1.806488329396535
 40
1.992572350483654
 40
2.178659412977898
 40
2.364757271609484
 40
2.550854294612987
 40
2.736907611123002
 40
2.922960833888299
 40
3.109028170689311
 40
3.29509658933214
 40
3.466151108371656
 40
3.63720030294398
 40
3.808214655642676
 40
3.979229245031136
 40
4.150872691278651
 40
4.322516935677788
 40
4.494178408477281
 40
4.665841537694219
 40
4.828729094057249
 40
4.991610620691199
 40
5.154585711948716
 40
5.317561909963385
 40
5.478684938668764
 40
5.639817792796011
 40
5.800655881425572
 40
5.961447675332355
 40
6.122239469239139
 40
6.283077557868857
 40
6.444210411996397
 40
6.605333440701958
 40
6.768309638716519
 40
6.931284729973909
 40
7.09416625660795
 40
7.2570538129711
 40
7.428716942187903
 40
7.600378414987123
 40
7.772022659386153
 40
7.943666105633677
 40
8.114680695022116
 40
8.285695047720774
 40
8.456744242293148
 40
8.627798761332652
 40
8.81386717997546
 40
8.999934516776495
 40
9.185987739541847
 40
9.372041056051891
 40
9.558138079055357
 40
9.744235937686923
 40
9.930323000181032
 40
10.11640702126811
 40
10.2971346072044
 40
10.47786281886123
 40
10.65861099173812
 40
10.83935889770625
 40
11.01997209812414
 40
11.20058638195489
 40
11.38116593064287
 40
11.56174086631
 40
11.74231580197706
 40
11.92289535066495
 40
12.10350963449552
 40
12.28412283491321
 40
12.46487074088151
 40
12.64561891375856
 40
12.82634712541551
 40
13.00707471135184
 40
13.19315873243897
 40
13.3792457949332
 40
13.56534365356475
 40
13.75144067656819
 40
13.93749399307824
 40
14.12354721584362
 40
14.30961455264463
 40
14.49568297128745
 40
14.66673749032699
 40
14.83778668489935
 40
15.00880103759812
 40
15.17981562698661
 40
15.35145907323402
 40
15.52310331763285
 40
15.69476479043209
 40
15.86642791964885
 40
16.02931547601206
 40
16.19219700264621
 40
16.35517209390384
 40
16.51814829191853
 40
16.67927132062389
 40
16.84040417475113
 40
17.00124226338072
 40
17.16203405728749
 40
17.32282585119431
 40
17.48366393982398
 40
17.64479679395119
 40
17.80591982265654
 40
17.96889602067119
 40
18.13187111192884
 40
18.29475263856297
 40
18.45764019492616
 40
18.62930332414295
 40
18.80096479694213
 40
18.97260904134104
 40
19.14425248758847
 40
19.31526707697695
 40
19.48628142967571
 40
19.65733062424809
 40
19.82838514328759
 40
20.01445356193037
 40
20.2005208987314
 40
20.38657412149679
 40
20.57262743800684
 40
20.75872446101029
 40
20.94482231964182
 40
21.13090938213605
 40
21.31699340322319
 40
21.49772098915951
 40
21.67844920081647
 40
21.85919737369352
 40
22.0399452796618
 40
22.22055848007954
 40
22.40117276391009
 40
22.40117276391009
 40
22.40117276391009
 40
22.40117276391009
 10
96.5794383009511
 20
118.2104045635768
 30
0.0
 10
96.6394359602438
 20
118.2054165644519
 30
0.0
 10
96.75942974615035
 20
118.1954406936237
 30
0.0
 10
96.94007049576933
 20
118.1914708324664
 30
0.0
 10
97.1206518004854
 20
118.1957938714137
 30
0.0
 10
97.30083313715545
 20
118.2089926565436
 30
0.0
 10
97.4801947598296
 20
118.2306707788706
 30
0.0
 10
97.65840444286474
 20
118.260709678833
 30
0.0
 10
97.83508621757775
 20
118.298918287448
 30
0.0
 10
98.00987991484084
 20
118.3451469175098
 30
0.0
 10
98.18239802820469
 20
118.3992268067713
 30
0.0
 10
98.35398391982454
 20
118.4616101088619
 30
0.0
 10
98.52421287620002
 20
118.5324068674042
 30
0.0
 10
98.69269355943702
 20
118.6115686287942
 30
0.0
 10
98.85751028115584
 20
118.6981055030131
 30
0.0
 10
99.01839852776149
 20
118.791717602472
 30
0.0
 10
99.17512137204389
 20
118.8921167905484
 30
0.0
 10
99.32746609461033
 20
118.9990226764478
 30
0.0
 10
99.47523858584198
 20
119.1121703612456
 30
0.0
 10
99.61440086983465
 20
119.2280844897262
 30
0.0
 10
99.74522056514623
 20
119.345970158836
 30
0.0
 10
99.86775075239693
 20
119.4653705353163
 30
0.0
 10
99.98530330646217
 20
119.5896613051485
 30
0.0
 10
100.0975904984149
 20
119.7189975718183
 30
0.0
 10
100.2041386698136
 20
119.8533747425763
 30
0.0
 10
100.3045579937872
 20
119.9926609614621
 30
0.0
 10
100.398334253473
 20
120.1365155861376
 30
0.0
 10
100.4835860780542
 20
120.2822112255753
 30
0.0
 10
100.5603294703205
 20
120.429266239271
 30
0.0
 10
100.6283169212498
 20
120.5773993877626
 30
0.0
 10
100.688167310752
 20
120.7290458385969
 30
0.0
 10
100.7389678740113
 20
120.8833528378716
 30
0.0
 10
100.7800871989397
 20
121.0398938899431
 30
0.0
 10
100.8106628506056
 20
121.198124977581
 30
0.0
 10
100.8298810912887
 20
121.3580408432925
 30
0.0
 10
100.836666448308
 20
121.518886644627
 30
0.0
 10
100.8298810912887
 20
121.6797324459615
 30
0.0
 10
100.8106628506056
 20
121.8396483116733
 30
0.0
 10
100.7800871989396
 20
121.9978793993113
 30
0.0
 10
100.7389678740114
 20
122.154420451383
 30
0.0
 10
100.6881673107519
 20
122.3087274506577
 30
0.0
 10
100.6283169212497
 20
122.4603739014918
 30
0.0
 10
100.5603294703205
 20
122.6085070499834
 30
0.0
 10
100.4835860780543
 20
122.7555620636794
 30
0.0
 10
100.3983342534731
 20
122.9012577031168
 30
0.0
 10
100.3045579937872
 20
123.0451123277922
 30
0.0
 10
100.2041386698135
 20
123.1843985466777
 30
0.0
 10
100.0975904984149
 20
123.3187757174358
 30
0.0
 10
99.98530330646216
 20
123.4481119841055
 30
0.0
 10
99.86775075239697
 20
123.5724027539378
 30
0.0
 10
99.74522056514621
 20
123.691803130418
 30
0.0
 10
99.61440086983467
 20
123.8096887995279
 30
0.0
 10
99.47523858584199
 20
123.9256029280081
 30
0.0
 10
99.32746609461017
 20
124.0387506128072
 30
0.0
 10
99.17512137204429
 20
124.1456564987017
 30
0.0
 10
99.01839852775997
 20
124.2460556867966
 30
0.0
 10
98.85751028116104
 20
124.3396677861863
 30
0.0
 10
98.69269355941724
 20
124.4262046606632
 30
0.0
 10
98.52421287627391
 20
124.5053664210906
 30
0.0
 10
98.35398391955276
 20
124.5761631831915
 30
0.0
 10
98.18239802918782
 20
124.6385464723706
 30
0.0
 10
98.00987991117016
 20
124.6926264095243
 30
0.0
 10
97.83508623128239
 20
124.7388548607852
 30
0.0
 10
97.65840439173756
 20
124.7770641365535
 30
0.0
 10
97.48019495048382
 20
124.8071005484543
 30
0.0
 10
97.30083242566214
 20
124.8287879543651
 30
0.0
 10
97.1206544552235
 20
124.8419520991548
 30
0.0
 10
96.94006058837005
 20
124.8464044092755
 30
0.0
 10
96.75946672151656
 20
124.8419520991548
 30
0.0
 10
96.57928875107811
 20
124.8287879543651
 30
0.0
 10
96.39992622625654
 20
124.8071005484543
 30
0.0
 10
96.22171678500285
 20
124.7770641365534
 30
0.0
 10
96.04503494545807
 20
124.7388548607847
 30
0.0
 10
95.87024126557023
 20
124.6926264095235
 30
0.0
 10
95.69772314755238
 20
124.6385464723701
 30
0.0
 10
95.52613725718726
 20
124.5761631831913
 30
0.0
 10
95.35590830046597
 20
124.5053664210905
 30
0.0
 10
95.18742761732261
 20
124.4262046606632
 30
0.0
 10
95.02261089557871
 20
124.3396677861863
 30
0.0
 10
94.86172264897984
 20
124.2460556867966
 30
0.0
 10
94.70499980469555
 20
124.1456564987017
 30
0.0
 10
94.5526550821296
 20
124.0387506128072
 30
0.0
 10
94.40488259089778
 20
123.9256029280081
 30
0.0
 10
94.26572030690512
 20
123.8096887995279
 30
0.0
 10
94.13490061159348
 20
123.691803130418
 30
0.0
 10
94.01237042434278
 20
123.5724027539377
 30
0.0
 10
93.89481787027741
 20
123.4481119841055
 30
0.0
 10
93.78253067832469
 20
123.3187757174358
 30
0.0
 10
93.67598250692623
 20
123.1843985466777
 30
0.0
 10
93.57556318295272
 20
123.0451123277922
 30
0.0
 10
93.48178692326694
 20
122.9012577031169
 30
0.0
 10
93.39653509868575
 20
122.7555620636793
 30
0.0
 10
93.31979170641947
 20
122.6085070499834
 30
0.0
 10
93.2518042554903
 20
122.4603739014916
 30
0.0
 10
93.19195386598835
 20
122.3087274506572
 30
0.0
 10
93.14115330272907
 20
122.1544204513824
 30
0.0
 10
93.10003397780083
 20
121.9978793993109
 30
0.0
 10
93.06945832613485
 20
121.839648311673
 30
0.0
 10
93.05024008545135
 20
121.6797324459615
 30
0.0
 10
93.04345472843175
 20
121.518886644627
 30
0.0
 10
93.05024008545132
 20
121.3580408432925
 30
0.0
 10
93.06945832613488
 20
121.198124977581
 30
0.0
 10
93.10003397780085
 20
121.039893889943
 30
0.0
 10
93.14115330272908
 20
120.8833528378716
 30
0.0
 10
93.19195386598834
 20
120.7290458385968
 30
0.0
 10
93.25180425549026
 20
120.5773993877623
 30
0.0
 10
93.31979170641945
 20
120.4292662392706
 30
0.0
 10
93.39653509868577
 20
120.2822112255747
 30
0.0
 10
93.48178692326691
 20
120.1365155861372
 30
0.0
 10
93.5755631829528
 20
119.9926609614619
 30
0.0
 10
93.6759825069262
 20
119.8533747425762
 30
0.0
 10
93.78253067832472
 20
119.7189975718183
 30
0.0
 10
93.89481787027742
 20
119.5896613051482
 30
0.0
 10
94.01237042434293
 20
119.4653705353172
 30
0.0
 10
94.13490061159325
 20
119.3459701588326
 30
0.0
 10
94.26572030690643
 20
119.2280844897395
 30
0.0
 10
94.40488259089248
 20
119.1121703611913
 30
0.0
 10
94.55265508214941
 20
118.9990226766503
 30
0.0
 10
94.70499980462178
 20
118.8921167897931
 30
0.0
 10
94.86172264925519
 20
118.791717605291
 30
0.0
 10
95.02261089455081
 20
118.69810549249
 30
0.0
 10
95.1874276211587
 20
118.6115686680661
 30
0.0
 10
95.35590828615055
 20
118.5324067208503
 30
0.0
 10
95.52613730996221
 20
118.4616106491453
 30
0.0
 10
95.69772295689394
 20
118.3992248549056
 30
0.0
 10
95.87024197784638
 20
118.3451542094368
 30
0.0
 10
96.04503228669655
 20
118.2988910683776
 30
0.0
 10
96.2217267045075
 20
118.2608112297574
 30
0.0
 10
96.39988923677517
 20
118.2302920990712
 30
0.0
 10
96.51958849322297
 20
118.21703375533
 30
0.0
 10
96.57943830095107
 20
118.2104045635768
 30
0.0
 11
96.5794383009511
 21
118.2104045635768
 31
0.0
 11
96.75953975491187
 21
118.1972729343745
 31
0.0
 11
96.94006058836989
 21
118.1928529707143
 31
0.0
 11
97.12058142182792
 21
118.1972729343745
 31
0.0
 11
97.3006828757887
 21
118.2104045635768
 31
0.0
 11
97.47999388823837
 21
118.2320628261553
 31
0.0
 11
97.65809838874742
 21
118.2620614105147
 31
0.0
 11
97.83476519242876
 21
118.3002536347093
 31
0.0
 11
98.00950812821611
 21
118.3464576214507
 31
0.0
 11
98.18196418385143
 21
118.4005094055417
 31
0.0
 11
98.35181635013964
 21
118.4622564858418
 31
0.0
 11
98.52364501205314
 21
118.5336859884928
 31
0.0
 11
98.69207902748711
 21
118.6127958947784
 31
0.0
 11
98.856857387868
 21
118.6992858071234
 31
0.0
 11
99.01771884457477
 21
118.7928576710406
 31
0.0
 11
99.17439311852964
 21
118.8932021201402
 31
0.0
 11
99.32669958584813
 21
119.0000596969156
 31
0.0
 11
99.47444367920525
 21
119.1131646778064
 31
0.0
 11
99.61742228864745
 21
119.2322384938123
 31
0.0
 11
99.7444616614765
 21
119.3467838832221
 31
0.0
 11
99.86693085968433
 21
119.4661954507278
 31
0.0
 11
99.98440410371937
 21
119.5904771700788
 31
0.0
 11
100.0964777699695
 21
119.7196494701936
 31
0.0
 11
100.2030947346329
 21
119.8541645083332
 31
0.0
 11
100.3034469502811
 21
119.9934167235754
 31
0.0
 11
100.3971589702632
 21
120.1372420292575
 31
0.0
 11
100.4838191803422
 21
120.2854251521887
 31
0.0
 11
100.5590946573697
 21
120.4298756924306
 31
0.0
 11
100.6269465866644
 21
120.5779517114533
 31
0.0
 11
100.6866891641719
 21
120.7295818694138
 31
0.0
 11
100.7375584784637
 21
120.8844158255824
 31
0.0
 11
100.778358354371
 21
121.04028756935
 31
0.0
 11
100.808787878424
 21
121.1985210700541
 31
0.0
 11
100.8278123545653
 21
121.3582300555921
 31
0.0
 11
100.8344048796831
 21
121.518886644627
 31
0.0
 11
100.8278123545653
 21
121.6795432336619
 31
0.0
 11
100.808787878424
 21
121.8392522192
 31
0.0
 11
100.778358354371
 21
121.9974857199045
 31
0.0
 11
100.7375584784638
 21
122.1533574636723
 31
0.0
 11
100.6866891641719
 21
122.3081914198407
 31
0.0
 11
100.6269465866644
 21
122.4598215778011
 31
0.0
 11
100.5590946573697
 21
122.6078975968239
 31
0.0
 11
100.4838191803422
 21
122.752348137066
 31
0.0
 11
100.3971589702632
 21
122.900531259997
 31
0.0
 11
100.3034469502811
 21
123.0443565656788
 31
0.0
 11
100.2030947346329
 21
123.1836087809208
 31
0.0
 11
100.0964777699695
 21
123.3181238190604
 31
0.0
 11
99.98440410371937
 21
123.4472961191752
 31
0.0
 11
99.86693085968437
 21
123.5715778385262
 31
0.0
 11
99.74446166147649
 21
123.6909894060319
 31
0.0
 11
99.61742228864745
 21
123.8055347954417
 31
0.0
 11
99.47444367920527
 21
123.9246086114476
 31
0.0
 11
99.32669958584812
 21
124.0377135923384
 31
0.0
 11
99.1743931185296
 21
124.1445711691139
 31
0.0
 11
99.01771884457466
 21
124.2449156182134
 31
0.0
 11
98.85685738786793
 21
124.3384874821306
 31
0.0
 11
98.69207902748707
 21
124.4249773944756
 31
0.0
 11
98.52364501205327
 21
124.5040873007613
 31
0.0
 11
98.35181635013988
 21
124.5755168034124
 31
0.0
 11
98.18196418385183
 21
124.6372638837128
 31
0.0
 11
98.00950812821668
 21
124.691315667804
 31
0.0
 11
97.83476519242942
 21
124.7375196545452
 31
0.0
 11
97.65809838874814
 21
124.7757118787395
 31
0.0
 11
97.47999388823894
 21
124.8057104630987
 31
0.0
 11
97.30068287578912
 21
124.8273687256772
 31
0.0
 11
97.12058142182818
 21
124.8405003548795
 31
0.0
 11
96.94006058837
 21
124.8449203185396
 31
0.0
 11
96.75953975491191
 21
124.8405003548795
 31
0.0
 11
96.57943830095105
 21
124.8273687256772
 31
0.0
 11
96.40012728850142
 21
124.8057104630987
 31
0.0
 11
96.22202278799243
 21
124.7757118787394
 31
0.0
 11
96.04535598431106
 21
124.7375196545447
 31
0.0
 11
95.87061304852368
 21
124.6913156678033
 31
0.0
 11
95.69815699288836
 21
124.6372638837123
 31
0.0
 11
95.52830482660015
 21
124.5755168034123
 31
0.0
 11
95.35647616468665
 21
124.5040873007612
 31
0.0
 11
95.18804214925271
 21
124.4249773944755
 31
0.0
 11
95.02326378887186
 21
124.3384874821305
 31
0.0
 11
94.86240233216515
 21
124.2449156182134
 31
0.0
 11
94.70572805821023
 21
124.1445711691138
 31
0.0
 11
94.55342159089166
 21
124.0377135923384
 31
0.0
 11
94.40567749753453
 21
123.9246086114476
 31
0.0
 11
94.26269888809233
 21
123.8055347954417
 31
0.0
 11
94.13565951526324
 21
123.6909894060319
 31
0.0
 11
94.01319031705536
 21
123.5715778385262
 31
0.0
 11
93.89571707302022
 21
123.4472961191752
 31
0.0
 11
93.78364340677005
 21
123.3181238190603
 31
0.0
 11
93.67702644210682
 21
123.1836087809208
 31
0.0
 11
93.57667422645883
 21
123.0443565656788
 31
0.0
 11
93.48296220647677
 21
122.900531259997
 31
0.0
 11
93.39630199639785
 21
122.752348137066
 31
0.0
 11
93.3210265193703
 21
122.6078975968239
 31
0.0
 11
93.25317459007566
 21
122.459821577801
 31
0.0
 11
93.1934320125683
 21
122.3081914198402
 31
0.0
 11
93.1425626982766
 21
122.1533574636716
 31
0.0
 11
93.1017628223695
 21
121.997485719904
 31
0.0
 11
93.07133329831636
 21
121.8392522191999
 31
0.0
 11
93.05230882217475
 21
121.6795432336619
 31
0.0
 11
93.0457162970568
 21
121.518886644627
 31
0.0
 11
93.05230882217474
 21
121.3582300555921
 31
0.0
 11
93.07133329831638
 21
121.1985210700541
 31
0.0
 11
93.10176282236951
 21
121.04028756935
 31
0.0
 11
93.14256269827662
 21
120.8844158255824
 31
0.0
 11
93.19343201256828
 21
120.7295818694138
 31
0.0
 11
93.25317459007564
 21
120.577951711453
 31
0.0
 11
93.3210265193703
 21
120.4298756924302
 31
0.0
 11
93.39630199639785
 21
120.285425152188
 31
0.0
 11
93.48296220647678
 21
120.137242029257
 31
0.0
 11
93.57667422645886
 21
119.9934167235753
 31
0.0
 11
93.67702644210686
 21
119.8541645083332
 31
0.0
 11
93.7836434067701
 21
119.7196494701936
 31
0.0
 11
93.89571707302028
 21
119.5904771700788
 31
0.0
 11
94.01319031705542
 21
119.4661954507278
 31
0.0
 11
94.13565951526331
 21
119.3467838832221
 31
0.0
 11
94.26269888809236
 21
119.2322384938123
 31
0.0
 11
94.40567749753453
 21
119.1131646778064
 31
0.0
 11
94.55342159089167
 21
119.0000596969156
 31
0.0
 11
94.70572805821023
 21
118.8932021201402
 31
0.0
 11
94.86240233216515
 21
118.7928576710406
 31
0.0
 11
95.02326378887186
 21
118.6992858071234
 31
0.0
 11
95.18804214925271
 21
118.6127958947785
 31
0.0
 11
95.35647616468664
 21
118.5336859884927
 31
0.0
 11
95.52830482660015
 21
118.4622564858417
 31
0.0
 11
95.69815699288834
 21
118.4005094055417
 31
0.0
 11
95.87061304852368
 21
118.3464576214507
 31
0.0
 11
96.04535598431106
 21
118.3002536347093
 31
0.0
 11
96.22202278799242
 21
118.2620614105146
 31
0.0
 11
96.40012728850145
 21
118.2320628261553
 31
0.0
 11
96.57943830095107
 21
118.2104045635768
 31
0.0
  0
SPLINE
  5
1FA
330
1F
100
AcDbEntity
  8
1
  6
Continuous
 62
     3
100
AcDbSpline
210
0.0
220
0.0
230
1.0
 70
    11
 71
     3
 72
   135
 73
   131
 74
   129
 42
0.0000000001
 43
0.0000000001
 44
0.00000001
 40
0.0
 40
0.0
 40
0.0
 40
0.0
 40
0.2920252372029574
 40
0.584057091398587
 40
0.8760889455944294
 40
1.168114182797723
 40
1.460115641076973
 40
1.752118094610843
 40
2.043519815202298
 40
2.334923315759764
 40
2.626290890535432
 40
2.917651208561726
 40
3.225897229402619
 40
3.53415670286084
 40
3.842484325887532
 40
4.150809306074571
 40
4.458545177523542
 40
4.766280468623372
 40
5.074046920362763
 40
5.381814034554188
 40
5.615872217373711
 40
5.849918438448784
 40
6.083872214616609
 40
6.317823177898698
 40
6.556034244470911
 40
6.794249022558933
 40
7.032446497659854
 40
7.270659142613992
 40
7.478998272356407
 40
7.687308814681812
 40
7.896347719238222
 40
8.105391621599832
 40
8.30499754316405
 40
8.504683965558254
 40
8.702407442403121
 40
8.899784034545181
 40
9.097160626687241
 40
9.294884103532123
 40
9.49457052592629
 40
9.694176447490507
 40
9.903220349852118
 40
10.11225925440855
 40
10.32056979673397
 40
10.5289089264764
 40
10.76712157143051
 40
11.00531904653141
 40
11.2435338246194
 40
11.4817448911916
 40
11.71569585447368
 40
11.94964963064152
 40
12.18369585171658
 40
12.41775403453611
 40
12.72552114872753
 40
13.03328760046701
 40
13.34102289156717
 40
13.64875876301649
 40
13.95708374320374
 40
14.26541136623047
 40
14.57367083968835
 40
14.88191686052892
 40
15.17327717855504
 40
15.46464475333068
 40
15.75604825388813
 40
16.04744997447969
 40
16.33945242801389
 40
16.63145388629331
 40
16.92347912349643
 40
17.21551097769213
 40
17.50754283188799
 40
17.79956806909134
 40
18.09156952737055
 40
18.38357198090439
 40
18.67497370149585
 40
18.96637720205327
 40
19.25774477682888
 40
19.54910509485503
 40
19.85735111569561
 40
20.16561058915339
 40
20.47393821217974
 40
20.78226319236665
 40
21.08999906381571
 40
21.39773435491558
 40
21.70550080665464
 40
22.01326792084571
 40
22.2473261036653
 40
22.48137232474057
 40
22.71532610090879
 40
22.94927706419114
 40
23.18748813076319
 40
23.42570290885098
 40
23.66390038395172
 40
23.90211302890562
 40
24.1104521586477
 40
24.31876270097289
 40
24.52780160552927
 40
24.73684550789085
 40
24.93645142945513
 40
25.13613785184931
 40
25.33386132869413
 40
25.53123792083618
 40
25.72861451297828
 40
25.92633798982316
 40
26.12602441221728
 40
26.32563033378151
 40
26.53467423614308
 40
26.74371314069944
 40
26.95202368302466
 40
27.16036281276678
 40
27.39857545772071
 40
27.63677293282149
 40
27.87498771090932
 40
28.11319877748141
 40
28.34714974076354
 40
28.58110351693153
 40
28.81514973800673
 40
29.04920792082624
 40
29.35697503501749
 40
29.66474148675682
 40
29.9724767778569
 40
30.28021264930615
 40
30.58853762949304
 40
30.89686525251951
 40
31.20512472597749
 40
31.5133707468183
 40
31.80473106484463
 40
32.0960986396203
 40
32.3875021401777
 40
32.67890386076909
 40
32.97090631430297
 40
33.2629077725821
 40
33.2629077725821
 40
33.2629077725821
 40
33.2629077725821
 10
100.8207145399082
 20
109.9783849307813
 30
0.0
 10
100.8246791539625
 20
109.8811187818515
 30
0.0
 10
100.8326084719052
 20
109.6865842800407
 30
0.0
 10
100.835382821641
 20
109.3945265998229
 30
0.0
 10
100.8322895639446
 20
109.1024952703432
 30
0.0
 10
100.8219904175801
 20
108.810623491477
 30
0.0
 10
100.8040387465001
 20
108.519130373233
 30
0.0
 10
100.7777814794406
 20
108.2284689872428
 30
0.0
 10
100.7426354520041
 20
107.938943032365
 30
0.0
 10
100.6980483182227
 20
107.650927227837
 30
0.0
 10
100.6434363587781
 20
107.3646498699536
 30
0.0
 10
100.5769796918814
 20
107.0751144916207
 30
0.0
 10
100.4973615795902
 20
106.7830632194358
 30
0.0
 10
100.4042774841683
 20
106.4890893464731
 30
0.0
 10
100.2996713230593
 20
106.198990958255
 30
0.0
 10
100.1840564437337
 20
105.9132943645592
 30
0.0
 10
100.0578948904649
 20
105.6323155616635
 30
0.0
 10
99.92150538083534
 20
105.3563657430111
 30
0.0
 10
99.77510128066109
 20
105.0855864933865
 30
0.0
 10
99.63145121849053
 20
104.8414539835898
 30
0.0
 10
99.4933151080463
 20
104.6227710229335
 30
0.0
 10
99.36214524857861
 20
104.428914088587
 30
0.0
 10
99.22414826312475
 20
104.2398875106141
 30
0.0
 10
99.07783674098317
 20
104.0554259361697
 30
0.0
 10
98.92249184928762
 20
103.876601625181
 30
0.0
 10
98.75808173010908
 20
103.7041100128722
 30
0.0
 10
98.58568542934654
 20
103.5395909577672
 30
0.0
 10
98.41301035223387
 20
103.3901811963509
 30
0.0
 10
98.24134324730156
 20
103.2552175727999
 30
0.0
 10
98.07061030359353
 20
103.1352215840497
 30
0.0
 10
97.89236420352069
 20
103.0261726584567
 30
0.0
 10
97.70932652527839
 20
102.9314622686918
 30
0.0
 10
97.52230802474861
 20
102.8524871765847
 30
0.0
 10
97.33234401898457
 20
102.7920877261636
 30
0.0
 10
97.13766921061391
 20
102.752367830683
 30
0.0
 10
96.94006058836986
 20
102.7375158981617
 30
0.0
 10
96.74245196612586
 20
102.752367830683
 30
0.0
 10
96.54777715775516
 20
102.7920877261636
 30
0.0
 10
96.35781315199118
 20
102.8524871765847
 30
0.0
 10
96.17079465146132
 20
102.9314622686918
 30
0.0
 10
95.98775697321915
 20
103.0261726584567
 30
0.0
 10
95.80951087314618
 20
103.1352215840497
 30
0.0
 10
95.63877792943823
 20
103.2552175728
 30
0.0
 10
95.46711082450588
 20
103.3901811963509
 30
0.0
 10
95.29443574739322
 20
103.5395909577672
 30
0.0
 10
95.12203944663068
 20
103.7041100128722
 30
0.0
 10
94.95762932745217
 20
103.8766016251809
 30
0.0
 10
94.80228443575672
 20
104.0554259361698
 30
0.0
 10
94.65597291361517
 20
104.2398875106142
 30
0.0
 10
94.51797592816128
 20
104.428914088587
 30
0.0
 10
94.38680606869343
 20
104.6227710229335
 30
0.0
 10
94.24866995824921
 20
104.8414539835897
 30
0.0
 10
94.10501989607901
 20
105.0855864933865
 30
0.0
 10
93.95861579590351
 20
105.3563657430113
 30
0.0
 10
93.82222628627862
 20
105.6323155616639
 30
0.0
 10
93.69606473299235
 20
105.9132943645606
 30
0.0
 10
93.58044985373125
 20
106.1989909582535
 30
0.0
 10
93.47584369238051
 20
106.4890893464829
 30
0.0
 10
93.38275959785958
 20
106.7830632194025
 30
0.0
 10
93.30314148226755
 20
107.0751144917445
 30
0.0
 10
93.2366848270409
 20
107.3646498695205
 30
0.0
 10
93.18207282456439
 20
107.6509272294568
 30
0.0
 10
93.13748585148124
 20
107.9389430263186
 30
0.0
 10
93.1023392238658
 20
108.2284690098282
 30
0.0
 10
93.0760842011709
 20
108.5191302887507
 30
0.0
 10
93.05812415020492
 20
108.8106238067592
 30
0.0
 10
93.04785628010286
 20
109.1024940935844
 30
0.0
 10
93.04464629341167
 20
109.3945309916463
 30
0.0
 10
93.04785628010319
 20
109.6865678897082
 30
0.0
 10
93.05812415020546
 20
109.9784381765335
 30
0.0
 10
93.07608420117167
 20
110.2699316945418
 30
0.0
 10
93.10233922386664
 20
110.560592973464
 30
0.0
 10
93.13748585148224
 20
110.8501189569735
 30
0.0
 10
93.18207282456538
 20
111.1381347538353
 30
0.0
 10
93.2366848270419
 20
111.4244121137714
 30
0.0
 10
93.30314148226856
 20
111.7139474915475
 30
0.0
 10
93.38275959786057
 20
112.0059987638895
 30
0.0
 10
93.47584369238155
 20
112.2999726368089
 30
0.0
 10
93.58044985373226
 20
112.590071025038
 30
0.0
 10
93.69606473299332
 20
112.8757676187306
 30
0.0
 10
93.82222628627937
 20
113.1567464216271
 30
0.0
 10
93.95861579590397
 20
113.4326962402794
 30
0.0
 10
94.10501989607933
 20
113.7034754899039
 30
0.0
 10
94.24866995824961
 20
113.9476079997004
 30
0.0
 10
94.38680606869396
 20
114.1662909603565
 30
0.0
 10
94.5179759281619
 20
114.3601478947032
 30
0.0
 10
94.65597291361581
 20
114.5491744726763
 30
0.0
 10
94.80228443575739
 20
114.7336360471209
 30
0.0
 10
94.95762932745303
 20
114.9124603581095
 30
0.0
 10
95.12203944663163
 20
115.084951970418
 30
0.0
 10
95.294435747394
 20
115.2494710255228
 30
0.0
 10
95.46711082450662
 20
115.398880786939
 30
0.0
 10
95.6387779294388
 20
115.5338444104896
 30
0.0
 10
95.80951087314668
 20
115.6538403992396
 30
0.0
 10
95.98775697321935
 20
115.7628893248328
 30
0.0
 10
96.17079465146142
 20
115.857599714598
 30
0.0
 10
96.3578131519912
 20
115.9365748067053
 30
0.0
 10
96.54777715775519
 20
115.9969742571264
 30
0.0
 10
96.74245196612586
 20
116.036694152607
 30
0.0
 10
96.94006058836985
 20
116.0515460851283
 30
0.0
 10
97.13766921061392
 20
116.036694152607
 30
0.0
 10
97.33234401898457
 20
115.9969742571264
 30
0.0
 10
97.52230802474858
 20
115.9365748067053
 30
0.0
 10
97.70932652527831
 20
115.857599714598
 30
0.0
 10
97.89236420352032
 20
115.7628893248328
 30
0.0
 10
98.07061030359299
 20
115.6538403992396
 30
0.0
 10
98.24134324730092
 20
115.5338444104896
 30
0.0
 10
98.41301035223316
 20
115.3988807869389
 30
0.0
 10
98.5856854293458
 20
115.2494710255228
 30
0.0
 10
98.75808173010823
 20
115.084951970418
 30
0.0
 10
98.9224918492868
 20
114.9124603581095
 30
0.0
 10
99.07783674098229
 20
114.7336360471209
 30
0.0
 10
99.22414826312396
 20
114.5491744726763
 30
0.0
 10
99.36214524857694
 20
114.3601478947032
 30
0.0
 10
99.49331510804772
 20
114.1662909603567
 30
0.0
 10
99.63145121847951
 20
113.9476079997
 30
0.0
 10
99.77510128071154
 20
113.7034754899064
 30
0.0
 10
99.92150538064567
 20
113.4326962402703
 30
0.0
 10
100.0578948911697
 20
113.1567464216609
 30
0.0
 10
100.1840564411001
 20
112.8757676186043
 30
0.0
 10
100.2996713329087
 20
112.5900710255101
 30
0.0
 10
100.4042774474155
 20
112.2999726350462
 30
0.0
 10
100.4973617167167
 20
112.0059987704645
 30
0.0
 10
100.5769791919878
 20
111.7139474675756
 30
0.0
 10
100.6434381110298
 20
111.4244121977952
 30
0.0
 10
100.6980417659082
 20
111.138134439635
 30
0.0
 10
100.7426599121434
 20
110.8501201298952
 30
0.0
 10
100.777690113535
 20
110.5605885922473
 30
0.0
 10
100.8043805110577
 20
110.2699480829762
 30
0.0
 10
100.8152698698105
 20
110.0755725377619
 30
0.0
 10
100.8207145399082
 20
109.9783849307813
 30
0.0
 11
100.8207145399082
 21
109.9783849307813
 31
0.0
 11
100.8310884769016
 21
109.6865440141937
 31
0.0
 11
100.8344048796828
 21
109.3945309916459
 31
0.0
 11
100.8310884769016
 21
109.1025179690978
 31
0.0
 11
100.8207145399083
 21
108.8106770525098
 31
0.0
 11
100.8026514254968
 21
108.519234818894
 31
0.0
 11
100.7762754451541
 21
108.2284260492004
 31
0.0
 11
100.7410577010756
 21
107.9391603006823
 31
0.0
 11
100.6963750753284
 21
107.6512029026293
 31
0.0
 11
100.6416712006056
 21
107.3650166875158
 31
0.0
 11
100.5763831904665
 21
107.0810654405518
 31
0.0
 11
100.4953666776638
 21
106.7836567419272
 31
0.0
 11
100.4023658130376
 21
106.4897609403997
 31
0.0
 11
100.2978251739725
 21
106.1996968476458
 31
0.0
 11
100.1822086829632
 21
105.913869766329
 31
0.0
 11
100.0561774930907
 21
105.6331252102718
 31
0.0
 11
99.91984185327195
 21
105.3572382720099
 31
0.0
 11
99.77348410370455
 21
105.0864992870857
 31
0.0
 11
99.61742228864783
 21
104.8212346900153
 31
0.0
 11
99.49228353638436
 21
104.6234380125237
 31
0.0
 11
99.36098625280859
 21
104.4296890591713
 31
0.0
 11
99.22290593539097
 21
104.2408288057429
 31
0.0
 11
99.07738945887994
 21
104.057640355549
 31
0.0
 11
98.92113655238234
 21
103.8778361802679
 31
0.0
 11
98.75674669500728
 21
103.7054347438129
 31
0.0
 11
98.58438708960473
 21
103.5410260957134
 31
0.0
 11
98.40421019024741
 21
103.3852007153864
 31
0.0
 11
98.24021795862818
 21
103.2567026961396
 31
0.0
 11
98.069593884407
 21
103.1372007825981
 31
0.0
 11
97.89113572339252
 21
103.0283433143863
 31
0.0
 11
97.70534286658486
 21
102.9325290801943
 31
0.0
 11
97.52125880687515
 21
102.8553566571126
 31
0.0
 11
97.33080508878518
 21
102.7953395882546
 31
0.0
 11
97.13693944290185
 21
102.7564720614249
 31
0.0
 11
96.94006058836987
 21
102.7424636438201
 31
0.0
 11
96.7431817338379
 21
102.7564720614249
 31
0.0
 11
96.54931608795455
 21
102.7953395882546
 31
0.0
 11
96.35886236986461
 21
102.8553566571126
 31
0.0
 11
96.17477831015492
 21
102.9325290801943
 31
0.0
 11
95.98898545334725
 21
103.0283433143863
 31
0.0
 11
95.81052729233275
 21
103.1372007825981
 31
0.0
 11
95.63990321811157
 21
103.2567026961396
 31
0.0
 11
95.47591098649232
 21
103.3852007153865
 31
0.0
 11
95.29573408713502
 21
103.5410260957134
 31
0.0
 11
95.12337448173248
 21
103.7054347438129
 31
0.0
 11
94.95898462435747
 21
103.8778361802679
 31
0.0
 11
94.80273171785994
 21
104.0576403555491
 31
0.0
 11
94.65721524134892
 21
104.2408288057429
 31
0.0
 11
94.51913492393126
 21
104.4296890591713
 31
0.0
 11
94.38783764035544
 21
104.6234380125236
 31
0.0
 11
94.26269888809196
 21
104.8212346900152
 31
0.0
 11
94.10663707303529
 21
105.0864992870857
 31
0.0
 11
93.96027932346793
 21
105.3572382720101
 31
0.0
 11
93.82394368364919
 21
105.6331252102723
 31
0.0
 11
93.6979124937765
 21
105.9138697663298
 31
0.0
 11
93.58229600276704
 21
106.1996968476467
 31
0.0
 11
93.47775536370166
 21
106.4897609404006
 31
0.0
 11
93.3847544990754
 21
106.7836567419277
 31
0.0
 11
93.30373798627276
 21
107.081065440552
 31
0.0
 11
93.23844997613374
 21
107.3650166875159
 31
0.0
 11
93.18374610141103
 21
107.6512029026293
 31
0.0
 11
93.1390634756639
 21
107.9391603006824
 31
0.0
 11
93.10384573158558
 21
108.2284260492005
 31
0.0
 11
93.0774697512429
 21
108.5192348188945
 31
0.0
 11
93.05940663683131
 21
108.8106770525105
 31
0.0
 11
93.04903269983802
 21
109.1025179690983
 31
0.0
 11
93.04571629705698
 21
109.3945309916462
 31
0.0
 11
93.04903269983832
 21
109.6865440141943
 31
0.0
 11
93.05940663683187
 21
109.9783849307823
 31
0.0
 11
93.07746975124363
 21
110.269827164398
 31
0.0
 11
93.10384573158643
 21
110.5606359340917
 31
0.0
 11
93.13906347566487
 21
110.8499016826097
 31
0.0
 11
93.18374610141201
 21
111.1378590806627
 31
0.0
 11
93.23844997613473
 21
111.4240452957761
 31
0.0
 11
93.30373798627377
 21
111.7079965427401
 31
0.0
 11
93.38475449907642
 21
112.0054052413643
 31
0.0
 11
93.47775536370271
 21
112.2993010428913
 31
0.0
 11
93.58229600276805
 21
112.5893651356448
 31
0.0
 11
93.69791249377742
 21
112.8751922169613
 31
0.0
 11
93.82394368364992
 21
113.1559367730187
 31
0.0
 11
93.96027932346846
 21
113.4318237112807
 31
0.0
 11
94.10663707303563
 21
113.7025626962047
 31
0.0
 11
94.26269888809226
 21
113.9678272932748
 31
0.0
 11
94.3878376403559
 21
114.1656239707663
 31
0.0
 11
94.51913492393184
 21
114.3593729241188
 31
0.0
 11
94.65721524134962
 21
114.5482331775476
 31
0.0
 11
94.80273171786077
 21
114.7314216277417
 31
0.0
 11
94.95898462435835
 21
114.9112258030226
 31
0.0
 11
95.12337448173338
 21
115.0836272394773
 31
0.0
 11
95.29573408713586
 21
115.2480358875767
 31
0.0
 11
95.47591098649306
 21
115.4038612679034
 31
0.0
 11
95.63990321811212
 21
115.5323592871499
 31
0.0
 11
95.81052729233315
 21
115.6518612006912
 31
0.0
 11
95.9889854533475
 21
115.7607186689032
 31
0.0
 11
96.17477831015498
 21
115.8565329030955
 31
0.0
 11
96.35886236986467
 21
115.9337053261774
 31
0.0
 11
96.5493160879546
 21
115.9937223950354
 31
0.0
 11
96.74318173383789
 21
116.0325899218651
 31
0.0
 11
96.94006058836985
 21
116.0465983394699
 31
0.0
 11
97.13693944290186
 21
116.0325899218651
 31
0.0
 11
97.33080508878521
 21
115.9937223950354
 31
0.0
 11
97.5212588068751
 21
115.9337053261774
 31
0.0
 11
97.70534286658473
 21
115.8565329030955
 31
0.0
 11
97.89113572339221
 21
115.7607186689032
 31
0.0
 11
98.06959388440652
 21
115.6518612006912
 31
0.0
 11
98.24021795862758
 21
115.5323592871499
 31
0.0
 11
98.4042101902467
 21
115.4038612679034
 31
0.0
 11
98.58438708960395
 21
115.2480358875767
 31
0.0
 11
98.75674669500646
 21
115.0836272394773
 31
0.0
 11
98.92113655238148
 21
114.9112258030226
 31
0.0
 11
99.07738945887903
 21
114.7314216277416
 31
0.0
 11
99.22290593538999
 21
114.5482331775476
 31
0.0
 11
99.36098625280758
 21
114.359372924119
 31
0.0
 11
99.49228353638341
 21
114.1656239707665
 31
0.0
 11
99.61742228864696
 21
113.9678272932749
 31
0.0
 11
99.7734841037038
 21
113.7025626962048
 31
0.0
 11
99.91984185327135
 21
113.4318237112807
 31
0.0
 11
100.0561774930903
 21
113.1559367730187
 31
0.0
 11
100.1822086829631
 21
112.8751922169612
 31
0.0
 11
100.2978251739725
 21
112.5893651356447
 31
0.0
 11
100.4023658130376
 21
112.299301042891
 31
0.0
 11
100.4953666776638
 21
112.0054052413637
 31
0.0
 11
100.5763831904665
 21
111.7079965427393
 31
0.0
 11
100.6416712006055
 21
111.4240452957752
 31
0.0
 11
100.6963750753282
 21
111.1378590806617
 31
0.0
 11
100.7410577010751
 21
110.8499016826086
 31
0.0
 11
100.7762754451534
 21
110.5606359340907
 31
0.0
 11
100.8026514254963
 21
110.269827164397
 31
0.0
 11
100.8207145399082
 21
109.9783849307813
 31
0.0
  0
SPLINE
  5
1FB
330
1F
100
AcDbEntity
  8
1
  6
Continuous
 62
     3
100
AcDbSpline
210
0.0
220
0.0
230
1.0
 70
    11
 71
     3
 72
   135
 73
   131
 74
   129
 42
0.0000000001
 43
0.0000000001
 44
0.00000001
 40
0.0
 40
0.0
 40
0.0
 40
0.0
 40
0.1805795486878005
 40
0.3611544843548167
 40
0.5417294200217896
 40
0.7223089687096357
 40
0.9029232525402837
 40
1.083536452957998
 40
1.264284358926209
 40
1.445032531803208
 40
1.625760743460271
 40
1.806488329396716
 40
1.992572350483869
 40
2.178659412978045
 40
2.364757271609485
 40
2.55085429461284
 40
2.736907611122876
 40
2.922960833888258
 40
3.109028170689272
 40
3.295096589332
 40
3.466151108371486
 40
3.637200302943859
 40
3.80821465564268
 40
3.979229245031288
 40
4.150872691278837
 40
4.322516935677813
 40
4.494178408477068
 40
4.665841537693839
 40
4.828729094056927
 40
4.991610620690974
 40
5.154585711948517
 40
5.317561909963096
 40
5.478684938668472
 40
5.639817792795759
 40
5.800655881425474
 40
5.961447675332365
 40
6.122239469239303
 40
6.283077557869049
 40
6.444210411996362
 40
6.60533344070171
 40
6.768309638716169
 40
6.931284729973574
 40
7.094166256607518
 40
7.257053812970598
 40
7.428716942187382
 40
7.600378414986652
 40
7.772022659385612
 40
7.943666105633138
 40
8.114680695021706
 40
8.285695047720486
 40
8.45674424229288
 40
8.627798761332407
 40
8.813867179975155
 40
8.999934516776134
 40
9.18598773954148
 40
9.37204105605148
 40
9.558138079054899
 40
9.744235937686444
 40
9.930323000180573
 40
10.11640702126769
 40
10.29713460720417
 40
10.47786281886121
 40
10.65861099173824
 40
10.83935889770646
 40
11.0199720981242
 40
11.20058638195479
 40
11.38116593064265
 40
11.56174086630966
 40
11.74231580197665
 40
11.92289535066446
 40
12.10350963449502
 40
12.28412283491272
 40
12.46487074088094
 40
12.64561891375788
 40
12.82634712541492
 40
13.00707471135135
 40
13.19315873243848
 40
13.37924579493271
 40
13.56534365356418
 40
13.75144067656757
 40
13.93749399307764
 40
14.12354721584302
 40
14.30961455264398
 40
14.49568297128671
 40
14.66673749032626
 40
14.83778668489875
 40
15.00880103759758
 40
15.17981562698614
 40
15.35145907323362
 40
15.52310331763254
 40
15.69476479043178
 40
15.86642791964856
 40
16.0293154760116
 40
16.19219700264558
 40
16.35517209390315
 40
16.51814829191776
 40
16.67927132062308
 40
16.84040417475036
 40
17.00124226338007
 40
17.16203405728696
 40
17.3228258511939
 40
17.48366393982367
 40
17.64479679395094
 40
17.80591982265631
 40
17.96889602067086
 40
18.13187111192836
 40
18.29475263856237
 40
18.45764019492539
 40
18.62930332414221
 40
18.80096479694144
 40
18.97260904134033
 40
19.14425248758773
 40
19.31526707697628
 40
19.48628142967511
 40
19.65733062424761
 40
19.82838514328713
 40
20.01445356192989
 40
20.20052089873089
 40
20.38657412149626
 40
20.57262743800629
 40
20.75872446100961
 40
20.94482231964098
 40
21.13090938213519
 40
21.3169934032224
 40
21.49772098915887
 40
21.67844920081592
 40
21.85919737369292
 40
22.03994527966115
 40
22.22055848007884
 40
22.40117276390946
 40
22.40117276390946
 40
22.40117276390946
 40
22.40117276390946
 10
96.5794383009511
 20
100.5786574197135
 30
0.0
 10
96.63943596024379
 20
100.5836454188385
 30
0.0
 10
96.75942974615036
 20
100.5936212896668
 30
0.0
 10
96.94007049576935
 20
100.5975911508243
 30
0.0
 10
97.12065180048539
 20
100.5932681118769
 30
0.0
 10
97.30083313715546
 20
100.5800693267466
 30
0.0
 10
97.4801947598296
 20
100.5583912044199
 30
0.0
 10
97.65840444286484
 20
100.5283523044579
 30
0.0
 10
97.83508621757782
 20
100.490143695843
 30
0.0
 10
98.00987991484092
 20
100.4439150657812
 30
0.0
 10
98.18239802820467
 20
100.3898351765192
 30
0.0
 10
98.35398391982454
 20
100.3274518744283
 30
0.0
 10
98.52421287619994
 20
100.2566551158858
 30
0.0
 10
98.69269355943695
 20
100.1774933544959
 30
0.0
 10
98.85751028115578
 20
100.0909564802773
 30
0.0
 10
99.0183985277615
 20
99.99734438081867
 30
0.0
 10
99.17512137204393
 20
99.89694519274234
 30
0.0
 10
99.32746609461026
 20
99.79003930684281
 30
0.0
 10
99.47523858584205
 20
99.6768916220451
 30
0.0
 10
99.61440086983472
 20
99.56097749356462
 30
0.0
 10
99.74522056514633
 20
99.44309182445488
 30
0.0
 10
99.86775075239693
 20
99.32369144797447
 30
0.0
 10
99.98530330646219
 20
99.19940067814207
 30
0.0
 10
100.0975904984149
 20
99.07006441147217
 30
0.0
 10
100.2041386698135
 20
98.93568724071409
 30
0.0
 10
100.3045579937872
 20
98.79640102182856
 30
0.0
 10
100.3983342534731
 20
98.6525463971532
 30
0.0
 10
100.4835860780542
 20
98.50685075771572
 30
0.0
 10
100.5603294703206
 20
98.35979574401992
 30
0.0
 10
100.6283169212498
 20
98.21166259552825
 30
0.0
 10
100.6881673107519
 20
98.060016144694
 30
0.0
 10
100.7389678740113
 20
97.90570914541925
 30
0.0
 10
100.7800871989397
 20
97.74916809334786
 30
0.0
 10
100.8106628506056
 20
97.5909370057099
 30
0.0
 10
100.8298810912887
 20
97.43102113999822
 30
0.0
 10
100.8366664483079
 20
97.27017533866362
 30
0.0
 10
100.8298810912883
 20
97.109329537329
 30
0.0
 10
100.8106628506047
 20
96.94941367161732
 30
0.0
 10
100.7800871989386
 20
96.79118258397939
 30
0.0
 10
100.7389678740104
 20
96.63464153190802
 30
0.0
 10
100.6881673107514
 20
96.48033453263322
 30
0.0
 10
100.6283169212496
 20
96.32868808179899
 30
0.0
 10
100.5603294703205
 20
96.18055493330733
 30
0.0
 10
100.4835860780542
 20
96.03349991961156
 30
0.0
 10
100.3983342534731
 20
95.88780428017407
 30
0.0
 10
100.3045579937872
 20
95.74394965549874
 30
0.0
 10
100.2041386698136
 20
95.60466343661317
 30
0.0
 10
100.0975904984149
 20
95.47028626585514
 30
0.0
 10
99.98530330646224
 20
95.34094999918528
 30
0.0
 10
99.86775075239699
 20
95.21665922935286
 30
0.0
 10
99.74522056514631
 20
95.09725885287256
 30
0.0
 10
99.61440086983471
 20
94.97937318376265
 30
0.0
 10
99.47523858584204
 20
94.86345905528262
 30
0.0
 10
99.32746609461017
 20
94.75031137048347
 30
0.0
 10
99.17512137204432
 20
94.64340548458907
 30
0.0
 10
99.01839852776006
 20
94.54300629649413
 30
0.0
 10
98.85751028116113
 20
94.44939419710455
 30
0.0
 10
98.6926935594172
 20
94.36285732262775
 30
0.0
 10
98.52421287627386
 20
94.2836955622005
 30
0.0
 10
98.35398391955262
 20
94.21289880009951
 30
0.0
 10
98.18239802918748
 20
94.15051551092048
 30
0.0
 10
98.0098799111696
 20
94.09643557376702
 30
0.0
 10
97.83508623128172
 20
94.0502071225059
 30
0.0
 10
97.6584043917369
 20
94.01199784673742
 30
0.0
 10
97.48019495048327
 20
93.98196143483663
 30
0.0
 10
97.30083242566165
 20
93.96027402892584
 30
0.0
 10
97.1206544552232
 20
93.94710988413604
 30
0.0
 10
96.94006058836983
 20
93.94265757401512
 30
0.0
 10
96.75946672151647
 20
93.94710988413605
 30
0.0
 10
96.57928875107805
 20
93.96027402892595
 30
0.0
 10
96.39992622625653
 20
93.98196143483666
 30
0.0
 10
96.22171678500288
 20
94.01199784673746
 30
0.0
 10
96.04503494545808
 20
94.05020712250581
 30
0.0
 10
95.87024126557021
 20
94.09643557376688
 30
0.0
 10
95.69772314755241
 20
94.15051551092043
 30
0.0
 10
95.52613725718726
 20
94.2128988000994
 30
0.0
 10
95.35590830046597
 20
94.2836955622003
 30
0.0
 10
95.18742761732263
 20
94.36285732262763
 30
0.0
 10
95.02261089557874
 20
94.44939419710434
 30
0.0
 10
94.86172264897975
 20
94.54300629649393
 30
0.0
 10
94.70499980469553
 20
94.64340548458891
 30
0.0
 10
94.55265508212963
 20
94.75031137048329
 30
0.0
 10
94.40488259089781
 20
94.86345905528248
 30
0.0
 10
94.26572030690505
 20
94.97937318376248
 30
0.0
 10
94.13490061159348
 20
95.09725885287241
 30
0.0
 10
94.01237042434273
 20
95.21665922935277
 30
0.0
 10
93.89481787027748
 20
95.34094999918517
 30
0.0
 10
93.78253067832469
 20
95.470286265855
 30
0.0
 10
93.67598250692632
 20
95.60466343661321
 30
0.0
 10
93.57556318295275
 20
95.74394965549877
 30
0.0
 10
93.48178692326698
 20
95.88780428017418
 30
0.0
 10
93.3965350986858
 20
96.03349991961156
 30
0.0
 10
93.31979170641948
 20
96.18055493330738
 30
0.0
 10
93.25180425549027
 20
96.32868808179899
 30
0.0
 10
93.19195386598838
 20
96.4803345326333
 30
0.0
 10
93.14115330272918
 20
96.63464153190817
 30
0.0
 10
93.10003397780085
 20
96.79118258397955
 30
0.0
 10
93.06945832613488
 20
96.94941367161744
 30
0.0
 10
93.05024008545135
 20
97.1093295373291
 30
0.0
 10
93.04345472843177
 20
97.2701753386637
 30
0.0
 10
93.05024008545132
 20
97.43102113999828
 30
0.0
 10
93.06945832613489
 20
97.59093700570999
 30
0.0
 10
93.10003397780082
 20
97.74916809334792
 30
0.0
 10
93.1411533027291
 20
97.90570914541932
 30
0.0
 10
93.19195386598834
 20
98.06001614469415
 30
0.0
 10
93.25180425549028
 20
98.21166259552837
 30
0.0
 10
93.31979170641947
 20
98.35979574402
 30
0.0
 10
93.3965350986858
 20
98.50685075771581
 30
0.0
 10
93.48178692326698
 20
98.65254639715326
 30
0.0
 10
93.57556318295275
 20
98.7964010218286
 30
0.0
 10
93.67598250692627
 20
98.93568724071422
 30
0.0
 10
93.78253067832473
 20
99.07006441147217
 30
0.0
 10
93.8948178702774
 20
99.19940067814235
 30
0.0
 10
94.0123704243428
 20
99.32369144797357
 30
0.0
 10
94.13490061159314
 20
99.44309182445829
 30
0.0
 10
94.26572030690637
 20
99.56097749355135
 30
0.0
 10
94.40488259089251
 20
99.67689162209949
 30
0.0
 10
94.55265508214947
 20
99.79003930664042
 30
0.0
 10
94.70499980462175
 20
99.89694519349757
 30
0.0
 10
94.86172264925511
 20
99.99734437799978
 30
0.0
 10
95.02261089455075
 20
100.0909564908004
 30
0.0
 10
95.18742762115872
 20
100.177493315224
 30
0.0
 10
95.3559082861506
 20
100.2566552624397
 30
0.0
 10
95.52613730996227
 20
100.3274513341448
 30
0.0
 10
95.69772295689397
 20
100.3898371283849
 30
0.0
 10
95.87024197784636
 20
100.4439077738541
 30
0.0
 10
96.04503228669651
 20
100.4901709149134
 30
0.0
 10
96.22172670450745
 20
100.5282507535334
 30
0.0
 10
96.39988923677515
 20
100.5587698842193
 30
0.0
 10
96.51958849322295
 20
100.5720282279604
 30
0.0
 10
96.5794383009511
 20
100.5786574197135
 30
0.0
 11
96.5794383009511
 21
100.5786574197135
 31
0.0
 11
96.75953975491186
 21
100.591789048916
 31
0.0
 11
96.9400605883699
 21
100.5962090125763
 31
0.0
 11
97.12058142182791
 21
100.591789048916
 31
0.0
 11
97.30068287578871
 21
100.5786574197135
 31
0.0
 11
97.47999388823844
 21
100.5569991571352
 31
0.0
 11
97.6580983887475
 21
100.5270005727762
 31
0.0
 11
97.83476519242882
 21
100.4888083485817
 31
0.0
 11
98.00950812821611
 21
100.4426043618402
 31
0.0
 11
98.18196418385145
 21
100.3885525777488
 31
0.0
 11
98.35181635013966
 21
100.3268054974484
 31
0.0
 11
98.52364501205312
 21
100.2553759947973
 31
0.0
 11
98.69207902748707
 21
100.1762660885117
 31
0.0
 11
98.85685738786796
 21
100.089776176167
 31
0.0
 11
99.01771884457472
 21
99.99620431225009
 31
0.0
 11
99.17439311852962
 21
99.89585986315056
 31
0.0
 11
99.32669958584813
 21
99.78900228637502
 31
0.0
 11
99.47444367920531
 21
99.67589730548431
 31
0.0
 11
99.6174222886475
 21
99.55682348947852
 31
0.0
 11
99.74446166147655
 21
99.44227810006876
 31
0.0
 11
99.86693085968435
 21
99.32286653256294
 31
0.0
 11
99.98440410371937
 21
99.19858481321177
 31
0.0
 11
100.0964777699695
 21
99.06941251309676
 31
0.0
 11
100.2030947346329
 21
98.93489747495715
 31
0.0
 11
100.3034469502811
 21
98.79564525971519
 31
0.0
 11
100.3971589702632
 21
98.65181995403333
 31
0.0
 11
100.4838191803422
 21
98.50363683110237
 31
0.0
 11
100.5590946573697
 21
98.35918629086035
 31
0.0
 11
100.6269465866644
 21
98.21111027183761
 31
0.0
 11
100.6866891641719
 21
98.05948011387699
 31
0.0
 11
100.7375584784638
 21
97.90464615770856
 31
0.0
 11
100.778358354371
 21
97.74877441394096
 31
0.0
 11
100.808787878424
 21
97.59054091323675
 31
0.0
 11
100.8278123545653
 21
97.43083192769865
 31
0.0
 11
100.8344048796829
 21
97.27017533866362
 31
0.0
 11
100.8278123545648
 21
97.10951874962856
 31
0.0
 11
100.8087878784232
 21
96.94980976409047
 31
0.0
 11
100.77835835437
 21
96.79157626338626
 31
0.0
 11
100.7375584784629
 21
96.63570451961867
 31
0.0
 11
100.6866891641714
 21
96.48087056345025
 31
0.0
 11
100.6269465866642
 21
96.32924040548964
 31
0.0
 11
100.5590946573697
 21
96.18116438646695
 31
0.0
 11
100.4838191803422
 21
96.03671384622491
 31
0.0
 11
100.3971589702632
 21
95.88853072329394
 31
0.0
 11
100.3034469502811
 21
95.74470541761208
 31
0.0
 11
100.2030947346329
 21
95.60545320237011
 31
0.0
 11
100.0964777699696
 21
95.47093816423053
 31
0.0
 11
99.98440410371941
 21
95.34176586411556
 31
0.0
 11
99.8669308596844
 21
95.21748414476443
 31
0.0
 11
99.74446166147655
 21
95.09807257725863
 31
0.0
 11
99.61742228864746
 21
94.98352718784886
 31
0.0
 11
99.47444367920527
 21
94.86445337184304
 31
0.0
 11
99.32669958584813
 21
94.75134839095233
 31
0.0
 11
99.17439311852961
 21
94.64449081417688
 31
0.0
 11
99.01771884457474
 21
94.54414636507735
 31
0.0
 11
98.85685738786799
 21
94.45057450116028
 31
0.0
 11
98.69207902748708
 21
94.36408458881539
 31
0.0
 11
98.52364501205322
 21
94.28497468252976
 31
0.0
 11
98.35181635013979
 21
94.21354517987862
 31
0.0
 11
98.1819641838515
 21
94.15179809957837
 31
0.0
 11
98.00950812821611
 21
94.09774631548724
 31
0.0
 11
97.83476519242873
 21
94.05154232874592
 31
0.0
 11
97.6580983887474
 21
94.01335010455148
 31
0.0
 11
97.47999388823835
 21
93.98335152019222
 31
0.0
 11
97.3006828757887
 21
93.96169325761375
 31
0.0
 11
97.12058142182788
 21
93.94856162841135
 31
0.0
 11
96.94006058836983
 21
93.9441416647511
 31
0.0
 11
96.75953975491181
 21
93.94856162841138
 31
0.0
 11
96.57943830095104
 21
93.96169325761382
 31
0.0
 11
96.40012728850142
 21
93.98335152019227
 31
0.0
 11
96.2220227879924
 21
94.01335010455149
 31
0.0
 11
96.04535598431106
 21
94.05154232874587
 31
0.0
 11
95.87061304852375
 21
94.09774631548713
 31
0.0
 11
95.69815699288837
 21
94.15179809957829
 31
0.0
 11
95.52830482660012
 21
94.21354517987848
 31
0.0
 11
95.35647616468665
 21
94.2849746825296
 31
0.0
 11
95.18804214925271
 21
94.36408458881526
 31
0.0
 11
95.02326378887186
 21
94.45057450116009
 31
0.0
 11
94.86240233216512
 21
94.54414636507714
 31
0.0
 11
94.70572805821021
 21
94.64449081417672
 31
0.0
 11
94.55342159089165
 21
94.75134839095219
 31
0.0
 11
94.40567749753454
 21
94.8644533718429
 31
0.0
 11
94.26269888809234
 21
94.9835271878487
 31
0.0
 11
94.13565951526324
 21
95.09807257725849
 31
0.0
 11
94.01319031705532
 21
95.21748414476434
 31
0.0
 11
93.89571707302025
 21
95.34176586411549
 31
0.0
 11
93.78364340677011
 21
95.47093816423045
 31
0.0
 11
93.67702644210688
 21
95.6054532023701
 31
0.0
 11
93.57667422645886
 21
95.74470541761212
 31
0.0
 11
93.48296220647681
 21
95.88853072329401
 31
0.0
 11
93.39630199639785
 21
96.03671384622496
 31
0.0
 11
93.32102651937032
 21
96.18116438646693
 31
0.0
 11
93.25317459007567
 21
96.32924040548963
 31
0.0
 11
93.19343201256834
 21
96.48087056345035
 31
0.0
 11
93.14256269827669
 21
96.63570451961887
 31
0.0
 11
93.10176282236954
 21
96.79157626338642
 31
0.0
 11
93.07133329831638
 21
96.9498097640906
 31
0.0
 11
93.05230882217475
 21
97.10951874962866
 31
0.0
 11
93.0457162970568
 21
97.27017533866368
 31
0.0
 11
93.05230882217474
 21
97.43083192769873
 31
0.0
 11
93.07133329831639
 21
97.59054091323685
 31
0.0
 11
93.1017628223695
 21
97.74877441394104
 31
0.0
 11
93.14256269827663
 21
97.90464615770864
 31
0.0
 11
93.1934320125683
 21
98.05948011387709
 31
0.0
 11
93.25317459007566
 21
98.21111027183773
 31
0.0
 11
93.32102651937032
 21
98.35918629086045
 31
0.0
 11
93.39630199639784
 21
98.50363683110241
 31
0.0
 11
93.4829622064768
 21
98.6518199540334
 31
0.0
 11
93.57667422645886
 21
98.79564525971527
 31
0.0
 11
93.67702644210688
 21
98.93489747495725
 31
0.0
 11
93.7836434067701
 21
99.06941251309681
 31
0.0
 11
93.89571707302022
 21
99.19858481321177
 31
0.0
 11
94.01319031705529
 21
99.32286653256291
 31
0.0
 11
94.13565951526324
 21
99.44227810006876
 31
0.0
 11
94.26269888809234
 21
99.5568234894785
 31
0.0
 11
94.40567749753455
 21
99.67589730548433
 31
0.0
 11
94.5534215908917
 21
99.78900228637505
 31
0.0
 11
94.70572805821023
 21
99.89585986315056
 31
0.0
 11
94.86240233216512
 21
99.99620431225009
 31
0.0
 11
95.02326378887183
 21
100.089776176167
 31
0.0
 11
95.18804214925267
 21
100.1762660885117
 31
0.0
 11
95.35647616468664
 21
100.2553759947973
 31
0.0
 11
95.52830482660018
 21
100.3268054974484
 31
0.0
 11
95.6981569928884
 21
100.3885525777488
 31
0.0
 11
95.87061304852372
 21
100.4426043618402
 31
0.0
 11
96.04535598431103
 21
100.4888083485817
 31
0.0
 11
96.22202278799236
 21
100.5270005727762
 31
0.0
 11
96.4001272885014
 21
100.5569991571352
 31
0.0
 11
96.5794383009511
 21
100.5786574197135
 31
0.0
  0
SPLINE
  5
1FC
330
1F
100
AcDbEntity
  8
1
  6
Continuous
 62
     3
100
AcDbSpline
210
0.0
220
0.0
230
1.0
 70
    11
 71
     3
 72
   135
 73
   131
 74
   129
 42
0.0000000001
 43
0.0000000001
 44
0.00000001
 40
0.0
 40
0.0
 40
0.0
 40
0.0
 40
0.3261258162168695
 40
0.652256550219029
 40
0.9783872842211604
 40
1.304513100437994
 40
1.63063637275295
 40
1.956759927486208
 40
2.282621302964287
 40
2.608485456835311
 40
2.934284942913285
 40
3.260074112598202
 40
3.618946336032762
 40
3.97783953783179
 40
4.336839823297751
 40
4.695836003893177
 40
5.052358012211088
 40
5.40887829659924
 40
5.765439620692198
 40
6.122004911456026
 40
6.365410555396213
 40
6.608805859203096
 40
6.852131953329121
 40
7.095449338504133
 40
7.34812640737048
 40
7.600811669913901
 40
7.853210707911393
 40
8.105639860428468
 40
8.310545652409592
 40
8.515406401253308
 40
8.722177738065035
 40
8.928945387663214
 40
9.118096812325104
 40
9.3074891458474
 40
9.492375404128623
 40
9.67634579097263
 40
9.860316177817099
 40
10.0452024360988
 40
10.23459476962157
 40
10.42374619428393
 40
10.63051384388264
 40
10.83728518069491
 40
11.0421459295391
 40
11.24705172152067
 40
11.49948087403856
 40
11.75187991203687
 40
12.00456517458113
 40
12.25724224344829
 40
12.50055962862408
 40
12.74388572275093
 40
12.98728102655861
 40
13.23068667049962
 40
13.58725196126404
 40
13.94381328535757
 40
14.30033356974626
 40
14.65685557806472
 40
15.0158517586607
 40
15.37485204412724
 40
15.73374524592671
 40
16.09261746936174
 40
16.41840663904705
 40
16.74420612512543
 40
17.07007027899668
 40
17.39593165447501
 40
17.72205520920872
 40
18.04817848152415
 40
18.37430429774144
 40
18.70043503174404
 40
19.02656576574681
 40
19.35269158196424
 40
19.67881485427977
 40
20.00493840901359
 40
20.33079978449217
 40
20.65666393836371
 40
20.98246342444221
 40
21.30825259412768
 40
21.66712481756281
 40
22.02601801936238
 40
22.38501830482889
 40
22.74401448542487
 40
23.10053649374332
 40
23.45705677813201
 40
23.81361810222553
 40
24.17018339298994
 40
24.41358903693091
 40
24.6569843407386
 40
24.90031043486541
 40
25.1436278200412
 40
25.39630488890841
 40
25.6489901514527
 40
25.901389189451
 40
26.15381834196885
 40
26.35872413395048
 40
26.56358488279471
 40
26.77035621960697
 40
26.97712386920566
 40
27.16627529386805
 40
27.35566762739085
 40
27.54055388567254
 40
27.72452427251699
 40
27.90849465936106
 40
28.09338091764231
 40
28.2827732511646
 40
28.47192467582648
 40
28.67869232542468
 40
28.88546366223644
 40
29.0903244110801
 40
29.29523020306121
 40
29.5476593555783
 40
29.80005839357581
 40
30.05274365611929
 40
30.30542072498566
 40
30.54873811016076
 40
30.79206420428691
 40
31.03545950809393
 40
31.27886515203428
 40
31.63543044279828
 40
31.99199176689136
 40
32.34851205127956
 40
32.70503405959751
 40
33.06403024019291
 40
33.42303052565882
 40
33.78192372745781
 40
34.14079595089237
 40
34.46658512057727
 40
34.79238460665523
 40
35.11824876052625
 40
35.44411013600433
 40
35.77023369073761
 40
36.09635696305261
 40
36.09635696305261
 40
36.09635696305261
 40
36.09635696305261
 10
-38.3808681082843
 20
66.21023294485273
 30
0.0
 10
-38.27218393595414
 20
66.20783488179363
 30
0.0
 10
-38.05481395240049
 20
66.20303871951405
 30
0.0
 10
-37.72867440140023
 20
66.20168354351787
 30
0.0
 10
-37.40254494363122
 20
66.20326408731452
 30
0.0
 10
-37.07646135636567
 20
66.20933147373437
 30
0.0
 10
-36.75052146322859
 20
66.2208075000269
 30
0.0
 10
-36.42495513145286
 20
66.2387665683689
 30
0.0
 10
-36.09996888080386
 20
66.2642327583444
 30
0.0
 10
-35.77585791113947
 20
66.2981729561834
 30
0.0
 10
-35.45288998613796
 20
66.34155553769355
 30
0.0
 10
-35.12062566588655
 20
66.39716360983928
 30
0.0
 10
-34.7798359813582
 20
66.46733776191601
 30
0.0
 10
-34.43115657421359
 20
66.55280008641134
 30
0.0
 10
-34.08570513384471
 20
66.65062710137232
 30
0.0
 10
-33.74453963074091
 20
66.75990154300659
 30
0.0
 10
-33.40787020371928
 20
66.8798712019387
 30
0.0
 10
-33.07588391984612
 20
67.01003490059603
 30
0.0
 10
-32.74800960492406
 20
67.15026212307805
 30
0.0
 10
-32.45864669949179
 20
67.28427652792257
 30
0.0
 10
-32.20646206976757
 20
67.40855068993524
 30
0.0
 10
-31.99094876366016
 20
67.52169742925578
 30
0.0
 10
-31.7791297815562
 20
67.6415858423088
 30
0.0
 10
-31.5693030512912
 20
67.77096711210433
 30
0.0
 10
-31.36282012792485
 20
67.9112834429456
 30
0.0
 10
-31.16044621228627
 20
68.0625703443967
 30
0.0
 10
-30.96515698174244
 20
68.22277175700259
 30
0.0
 10
-30.7891882128284
 20
68.38101778298952
 30
0.0
 10
-30.63127285124327
 20
68.53533570218184
 30
0.0
 10
-30.49191711302663
 20
68.68655396181826
 30
0.0
 10
-30.36269817327939
 20
68.84739643071933
 30
0.0
 10
-30.24930764615792
 20
69.01350262344664
 30
0.0
 10
-30.15312085837696
 20
69.18356125315846
 30
0.0
 10
-30.07859764507041
 20
69.35645244114771
 30
0.0
 10
-30.02778899658685
 20
69.53610980500187
 30
0.0
 10
-30.00781582838957
 20
69.72055459750813
 30
0.0
 10
-30.02778899658595
 20
69.90499939001458
 30
0.0
 10
-30.07859764506877
 20
70.08465675386945
 30
0.0
 10
-30.15312085837466
 20
70.25754794185953
 30
0.0
 10
-30.24930764615511
 20
70.42760657157223
 30
0.0
 10
-30.36269817327599
 20
70.5937127643005
 30
0.0
 10
-30.49191711302277
 20
70.75455523320261
 30
0.0
 10
-30.63127285123894
 20
70.90577349284017
 30
0.0
 10
-30.78918821282376
 20
71.06009141203363
 30
0.0
 10
-30.96515698173759
 20
71.21833743802179
 30
0.0
 10
-31.16044621228138
 20
71.37853885062907
 30
0.0
 10
-31.36282012791997
 20
71.5298257520815
 30
0.0
 10
-31.56930305128642
 20
71.67014208292407
 30
0.0
 10
-31.77912978155164
 20
71.79952335272078
 30
0.0
 10
-31.99094876365583
 20
71.91941176577501
 30
0.0
 10
-32.20646206976357
 20
72.0325585050967
 30
0.0
 10
-32.45864669948798
 20
72.15683266711068
 30
0.0
 10
-32.74800960492033
 20
72.2908470719564
 30
0.0
 10
-33.07588391984236
 20
72.43107429444089
 30
0.0
 10
-33.40787020371548
 20
72.56123799309614
 30
0.0
 10
-33.7445396307375
 20
72.68120765204267
 30
0.0
 10
-34.08570513384021
 20
72.79048209362969
 30
0.0
 10
-34.43115657421395
 20
72.88830910877358
 30
0.0
 10
-34.77983598134125
 20
72.97377143259286
 30
0.0
 10
-35.12062566593318
 20
73.04394558712025
 30
0.0
 10
-35.45288998596934
 20
73.0995536509322
 30
0.0
 10
-35.77585791175856
 20
73.14293626289981
 30
0.0
 10
-36.09996887848104
 20
73.17687634695375
 30
0.0
 10
-36.42495514011456
 20
73.20234296173811
 30
0.0
 10
-36.75052143086496
 20
73.22030044343958
 30
0.0
 10
-37.0764614771385
 20
73.23178239216438
 30
0.0
 10
-37.40254449289018
 20
73.23782767565189
 30
0.0
 10
-37.72867608361376
 20
73.239490710012
 30
0.0
 10
-38.05480767433739
 20
73.23782767565189
 30
0.0
 10
-38.38089069008919
 20
73.2317823921644
 30
0.0
 10
-38.70683073636285
 20
73.2203004434396
 30
0.0
 10
-39.0323970271134
 20
73.2023429617382
 30
0.0
 10
-39.35738328874714
 20
73.17687634695383
 30
0.0
 10
-39.68149425546984
 20
73.14293626289988
 30
0.0
 10
-40.00446218125927
 20
73.09955365093234
 30
0.0
 10
-40.33672650129556
 20
73.04394558712032
 30
0.0
 10
-40.6775161858876
 20
72.97377143259294
 30
0.0
 10
-41.02619559301495
 20
72.88830910877365
 30
0.0
 10
-41.37164703338875
 20
72.79048209362983
 30
0.0
 10
-41.71281253649139
 20
72.6812076520427
 30
0.0
 10
-42.04948196351344
 20
72.56123799309624
 30
0.0
 10
-42.38146824738651
 20
72.43107429444092
 30
0.0
 10
-42.70934256230857
 20
72.29084707195648
 30
0.0
 10
-42.99870546774089
 20
72.1568326671107
 30
0.0
 10
-43.25089009746532
 20
72.03255850509682
 30
0.0
 10
-43.466403403573
 20
71.9194117657751
 30
0.0
 10
-43.67822238567717
 20
71.79952335272084
 30
0.0
 10
-43.88804911594236
 20
71.67014208292409
 30
0.0
 10
-44.09453203930889
 20
71.52982575208158
 30
0.0
 10
-44.29690595494748
 20
71.37853885062907
 30
0.0
 10
-44.4921951854913
 20
71.21833743802189
 30
0.0
 10
-44.66816395440513
 20
71.0600914120337
 30
0.0
 10
-44.82607931598994
 20
70.90577349284021
 30
0.0
 10
-44.96543505420614
 20
70.75455523320264
 30
0.0
 10
-45.09465399395283
 20
70.59371276430048
 30
0.0
 10
-45.20804452107377
 20
70.42760657157218
 30
0.0
 10
-45.30423130885417
 20
70.25754794185947
 30
0.0
 10
-45.37875452216009
 20
70.08465675386941
 30
0.0
 10
-45.42956317064289
 20
69.90499939001452
 30
0.0
 10
-45.44953633883926
 20
69.72055459750804
 30
0.0
 10
-45.42956317064199
 20
69.53610980500177
 30
0.0
 10
-45.37875452215845
 20
69.35645244114758
 30
0.0
 10
-45.30423130885188
 20
69.18356125315833
 30
0.0
 10
-45.20804452107087
 20
69.01350262344654
 30
0.0
 10
-45.09465399394941
 20
68.84739643071921
 30
0.0
 10
-44.96543505420217
 20
68.68655396181813
 30
0.0
 10
-44.82607931598558
 20
68.53533570218168
 30
0.0
 10
-44.66816395440044
 20
68.38101778298935
 30
0.0
 10
-44.49219518548644
 20
68.22277175700245
 30
0.0
 10
-44.29690595494255
 20
68.06257034439653
 30
0.0
 10
-44.09453203930396
 20
67.91128344294542
 30
0.0
 10
-43.88804911593751
 20
67.77096711210416
 30
0.0
 10
-43.6782223856724
 20
67.6415858423086
 30
0.0
 10
-43.4664034035683
 20
67.52169742925604
 30
0.0
 10
-43.25089009746078
 20
67.40855068993365
 30
0.0
 10
-42.99870546773617
 20
67.28427652792914
 30
0.0
 10
-42.70934256230494
 20
67.15026212303954
 30
0.0
 10
-42.38146824737807
 20
67.01003490073695
 30
0.0
 10
-42.04948196352227
 20
66.87987120141241
 30
0.0
 10
-41.7128125364354
 20
66.75990154497558
 30
0.0
 10
-41.37164703357657
 20
66.65062709396636
 30
0.0
 10
-41.0261955922924
 20
66.55280011404054
 30
0.0
 10
-40.67751618856251
 20
66.46733765884021
 30
0.0
 10
-40.33672649168356
 20
66.39716397951416
 30
0.0
 10
-40.00446221345539
 20
66.34155429881858
 30
0.0
 10
-39.68149413489397
 20
66.2981775952215
 30
0.0
 10
-39.35738373893026
 20
66.26421543746754
 30
0.0
 10
-39.03239534642379
 20
66.2388312327702
 30
0.0
 10
-38.70683701439511
 20
66.22056595287557
 30
0.0
 10
-38.48952437895629
 20
66.21367727986609
 30
0.0
 10
-38.38086810828429
 20
66.21023294485273
 30
0.0
 11
-38.3808681082843
 21
66.21023294485273
 31
0.0
 11
-38.05480163216887
 21
66.20401191947215
 31
0.0
 11
-37.72867608361388
 21
66.20217283260936
 31
0.0
 11
-37.40255053505891
 21
66.20401191947222
 31
0.0
 11
-37.07648405894351
 21
66.21023294485279
 31
0.0
 11
-36.75056914739772
 21
66.22188880936434
 31
0.0
 11
-36.42495024675417
 21
66.24002453365492
 31
0.0
 11
-36.10009774095357
 21
66.2656465067158
 31
0.0
 11
-35.77602303217993
 21
66.29974973107012
 31
0.0
 11
-35.45314614502559
 21
66.34329075620961
 31
0.0
 11
-35.13185427513594
 21
66.39723626044116
 31
0.0
 11
-34.78033540061116
 21
66.46951179991129
 31
0.0
 11
-34.43173574713216
 21
66.55485002049198
 31
0.0
 11
-34.08629272628055
 21
66.65257578121839
 31
0.0
 11
-33.74437717914691
 21
66.76199249068458
 31
0.0
 11
-33.4085227219735
 21
66.88161575770147
 31
0.0
 11
-33.07658413015318
 21
67.0117060511155
 31
0.0
 11
-32.7487263122716
 21
67.15186749050898
 31
0.0
 11
-32.42515425948243
 21
67.30166713413772
 31
0.0
 11
-32.20692744050405
 21
67.40947883563858
 31
0.0
 11
-31.99153992378684
 21
67.52283443346083
 31
0.0
 11
-31.77989828984732
 21
67.6428986115742
 31
0.0
 11
-31.57291601810135
 21
67.77081142997517
 31
0.0
 11
-31.36392504433141
 21
67.91282718267037
 31
0.0
 11
-31.16154101740922
 21
68.06412340718835
 31
0.0
 11
-30.96640985083021
 21
68.22421432576768
 31
0.0
 11
-30.77872405282223
 21
68.3930175196551
 31
0.0
 11
-30.63253705726813
 21
68.53659936362668
 31
0.0
 11
-30.49408958863837
 21
68.68759679687248
 31
0.0
 11
-30.3648495385776
 21
68.84900124286824
 31
0.0
 11
-30.24856400466506
 21
69.01997064224436
 31
0.0
 11
-30.15619131069874
 21
69.18503289371642
 31
0.0
 11
-30.08195514503977
 21
69.35926965133454
 31
0.0
 11
-30.03279199415898
 21
69.53749959577908
 31
0.0
 11
-30.01446252123775
 21
69.72055459750797
 31
0.0
 11
-30.0327919941581
 21
69.90360959923741
 31
0.0
 11
-30.08195514503815
 21
70.08183954368265
 31
0.0
 11
-30.15619131069647
 21
70.25607630130156
 31
0.0
 11
-30.24856400466225
 21
70.42113855277447
 31
0.0
 11
-30.36484953857424
 21
70.59210795215161
 31
0.0
 11
-30.49408958863452
 21
70.75351239814844
 31
0.0
 11
-30.63253705726383
 21
70.9045098313953
 31
0.0
 11
-30.77872405281756
 21
71.0480916753679
 31
0.0
 11
-30.96640985082537
 21
71.21689486925672
 31
0.0
 11
-31.16154101740432
 21
71.37698578783741
 31
0.0
 11
-31.36392504432656
 21
71.52828201235674
 31
0.0
 11
-31.5729160180966
 21
71.67029776505323
 31
0.0
 11
-31.77989828984275
 21
71.7982105834554
 31
0.0
 11
-31.99153992378253
 21
71.91827476156996
 31
0.0
 11
-32.20692744050003
 21
72.03163035939338
 31
0.0
 11
-32.42515425947875
 21
72.13944206089542
 31
0.0
 11
-32.74872631226788
 21
72.28924170452566
 31
0.0
 11
-33.07658413014943
 21
72.42940314392067
 31
0.0
 11
-33.40852272196977
 21
72.55949343733612
 31
0.0
 11
-33.74437717914325
 21
72.67911670435444
 31
0.0
 11
-34.08629272627704
 21
72.78853341382201
 31
0.0
 11
-34.43173574712887
 21
72.88625917454975
 31
0.0
 11
-34.78033540060803
 21
72.97159739513165
 31
0.0
 11
-35.13185427513306
 21
73.04387293460289
 31
0.0
 11
-35.45314614502296
 21
73.09781843883539
 31
0.0
 11
-35.77602303217758
 21
73.14135946397576
 31
0.0
 11
-36.10009774095138
 21
73.17546268833077
 31
0.0
 11
-36.42495024675218
 21
73.20108466139223
 31
0.0
 11
-36.75056914739616
 21
73.2192203856833
 31
0.0
 11
-37.07648405894242
 21
73.2308762501952
 31
0.0
 11
-37.40255053505826
 21
73.237097275576
 31
0.0
 11
-37.7286760836137
 21
73.23893636243892
 31
0.0
 11
-38.05480163216931
 21
73.23709727557602
 31
0.0
 11
-38.3808681082853
 21
73.23087625019522
 31
0.0
 11
-38.70678301983165
 21
73.21922038568333
 31
0.0
 11
-39.03240192047573
 21
73.20108466139231
 31
0.0
 11
-39.3572544262768
 21
73.17546268833087
 31
0.0
 11
-39.68132913505088
 21
73.14135946397585
 31
0.0
 11
-40.00420602220564
 21
73.0978184388355
 31
0.0
 11
-40.32549789209569
 21
73.04387293460299
 31
0.0
 11
-40.67701676662082
 21
72.97159739513174
 31
0.0
 11
-41.02561642010009
 21
72.88625917454983
 31
0.0
 11
-41.3710594409519
 21
72.78853341382211
 31
0.0
 11
-41.71297498808566
 21
72.67911670435451
 31
0.0
 11
-42.04882944525912
 21
72.55949343733619
 31
0.0
 11
-42.38076803707946
 21
72.42940314392071
 31
0.0
 11
-42.70862585496101
 21
72.28924170452572
 31
0.0
 11
-43.03219790775013
 21
72.13944206089549
 31
0.0
 11
-43.25042472672882
 21
72.03163035939347
 31
0.0
 11
-43.46581224344631
 21
71.91827476157003
 31
0.0
 11
-43.67745387738604
 21
71.79821058345546
 31
0.0
 11
-43.88443614913218
 21
71.67029776505326
 31
0.0
 11
-44.09342712290229
 21
71.52828201235678
 31
0.0
 11
-44.29581114982455
 21
71.37698578783744
 31
0.0
 11
-44.49094231640352
 21
71.21689486925679
 31
0.0
 11
-44.67862811441131
 21
71.04809167536798
 31
0.0
 11
-44.82481510996507
 21
70.90450983139534
 31
0.0
 11
-44.96326257859439
 21
70.75351239814844
 31
0.0
 11
-45.09250262865462
 21
70.59210795215158
 31
0.0
 11
-45.20878816256658
 21
70.42113855277445
 31
0.0
 11
-45.30116085653237
 21
70.2560763013015
 31
0.0
 11
-45.3753970221907
 21
70.08183954368258
 31
0.0
 11
-45.42456017307074
 21
69.90360959923734
 31
0.0
 11
-45.44288964599107
 21
69.72055459750791
 31
0.0
 11
-45.42456017306986
 21
69.53749959577897
 31
0.0
 11
-45.37539702218908
 21
69.3592696513344
 31
0.0
 11
-45.3011608565301
 21
69.1850328937163
 31
0.0
 11
-45.20878816256375
 21
69.01997064224426
 31
0.0
 11
-45.09250262865119
 21
68.84900124286813
 31
0.0
 11
-44.96326257859042
 21
68.68759679687233
 31
0.0
 11
-44.82481510996072
 21
68.53659936362654
 31
0.0
 11
-44.67862811440665
 21
68.39301751965496
 31
0.0
 11
-44.49094231639867
 21
68.2242143257675
 31
0.0
 11
-44.29581114981963
 21
68.06412340718818
 31
0.0
 11
-44.09342712289737
 21
67.91282718267018
 31
0.0
 11
-43.88443614912739
 21
67.77081142997503
 31
0.0
 11
-43.67745387738129
 21
67.64289861157408
 31
0.0
 11
-43.46581224344163
 21
67.52283443346072
 31
0.0
 11
-43.25042472672427
 21
67.40947883563847
 31
0.0
 11
-43.03219790774571
 21
67.30166713413757
 31
0.0
 11
-42.70862585495637
 21
67.15186749050879
 31
0.0
 11
-42.38076803707467
 21
67.0117060511153
 31
0.0
 11
-42.04882944525428
 21
66.8816157577013
 31
0.0
 11
-41.71297498808084
 21
66.7619924906844
 31
0.0
 11
-41.37105944094723
 21
66.65257578121823
 31
0.0
 11
-41.02561642009567
 21
66.55485002049183
 31
0.0
 11
-40.67701676661669
 21
66.4695117999112
 31
0.0
 11
-40.3254978920919
 21
66.39723626044112
 31
0.0
 11
-40.00420602220226
 21
66.34329075620957
 31
0.0
 11
-39.68132913504794
 21
66.29974973107005
 31
0.0
 11
-39.35725442627431
 21
66.26564650671577
 31
0.0
 11
-39.0324019204737
 21
66.24002453365487
 31
0.0
 11
-38.70678301983013
 21
66.22188880936429
 31
0.0
 11
-38.38086810828429
 21
66.21023294485273
 31
0.0
  0
SPLINE
  5
1FD
330
1F
100
AcDbEntity
  8
1
  6
Continuous
 62
     3
100
AcDbSpline
210
0.0
220
0.0
230
1.0
 70
     8
 71
     3
 72
    11
 73
     7
 74
     5
 42
0.0000000001
 43
0.0000000001
 44
0.00000001
 40
0.0
 40
0.0
 40
0.0
 40
0.0
 40
3.787335703201594
 40
7.574671565018862
 40
11.36200742683651
 40
15.14934313003838
 40
15.14934313003838
 40
15.14934313003838
 40
15.14934313003838
 10
-30.6714540347127
 20
75.2100768540491
 30
0.0
 10
-31.73741743184976
 20
75.92364985303317
 30
0.0
 10
-33.86934427076702
 20
77.35079588088607
 30
0.0
 10
-37.72867608361405
 20
77.71095473525844
 30
0.0
 10
-41.58800789646111
 20
77.35079588088597
 30
0.0
 10
-43.71993473537869
 20
75.92364985303317
 30
0.0
 10
-44.7858981325159
 20
75.2100768540492
 30
0.0
 11
-30.6714540347127
 21
75.2100768540491
 31
0.0
 11
-33.97958447609572
 21
77.05403583177623
 31
0.0
 11
-37.72867608361391
 21
77.590901782125
 31
0.0
 11
-41.47776769113246
 21
77.05403583177615
 31
0.0
 11
-44.7858981325159
 21
75.2100768540492
 31
0.0
  0
SPLINE
  5
1FE
330
1F
100
AcDbEntity
  8
1
  6
Continuous
 62
     3
100
AcDbSpline
210
0.0
220
0.0
230
1.0
 70
     8
 71
     3
 72
    11
 73
     7
 74
     5
 42
0.0000000001
 43
0.0000000001
 44
0.00000001
 40
0.0
 40
0.0
 40
0.0
 40
0.0
 40
4.387342368604856
 40
8.774684738486716
 40
13.07544165725329
 40
17.37619857517613
 40
17.37619857517613
 40
17.37619857517613
 40
17.37619857517613
 10
-30.5789937076819
 20
231.125371536138
 30
0.0
 10
-31.46285940964889
 20
229.9232647569127
 30
0.0
 10
-33.23059081384013
 20
227.519051198112
 30
0.0
 10
-37.70061329456509
 20
226.1273400743229
 30
0.0
 10
-42.13202060828851
 20
227.4869482619414
 30
0.0
 10
-43.90523354107128
 20
229.8103851067291
 30
0.0
 10
-44.7918400073757
 20
230.972103529009
 30
0.0
 11
-30.5789937076819
 21
231.125371536138
 31
0.0
 11
-33.53859511696882
 21
227.8866167511161
 31
0.0
 11
-37.72867608361381
 21
226.5858498375148
 31
0.0
 11
-41.84167934833556
 21
227.8427166636769
 31
0.0
 11
-44.7918400073757
 21
230.972103529009
 31
0.0
  0
SPLINE
  5
1FF
330
1F
100
AcDbEntity
  8
1
  6
Continuous
 62
     3
100
AcDbSpline
210
0.0
220
0.0
230
1.0
 70
     8
 71
     3
 72
    11
 73
     7
 74
     5
 42
0.0000000001
 43
0.0000000001
 44
0.00000001
 40
0.0
 40
0.0
 40
0.0
 40
0.0
 40
4.618185340515382
 40
9.236370685990561
 40
13.82141898670382
 40
18.40646728308897
 40
18.40646728308897
 40
18.40646728308897
 40
18.40646728308897
 10
-30.3853363886829
 20
233.849754808333
 30
0.0
 10
-31.24984240698791
 20
232.5328372826723
 30
0.0
 10
-32.97885444452638
 20
229.8990022299368
 30
0.0
 10
-37.71812664355276
 20
228.3524968415889
 30
0.0
 10
-42.44119893755447
 20
229.8888474173575
 30
0.0
 10
-44.17344119392808
 20
232.4921041359227
 30
0.0
 10
-45.0395623217061
 20
233.793732494591
 30
0.0
 11
-30.3853363886829
 21
233.849754808333
 31
0.0
 11
-33.33837387872101
 21
230.2990921347211
 31
0.0
 11
-37.72867608361394
 21
228.8663037920571
 31
0.0
 11
-42.08897259483763
 21
230.2842185476345
 31
0.0
 11
-45.0395623217061
 21
233.793732494591
 31
0.0
  0
SPLINE
  5
200
330
1F
100
AcDbEntity
  8
1
  6
Continuous
 62
     3
100
AcDbSpline
210
0.0
220
0.0
230
1.0
 70
    11
 71
     3
 72
   135
 73
   131
 74
   129
 42
0.0000000001
 43
0.0000000001
 44
0.00000001
 40
0.0
 40
0.0
 40
0.0
 40
0.0
 40
0.1824510397933879
 40
0.3649028814736366
 40
0.5473547231623059
 40
0.7298057629640384
 40
0.912258322463511
 40
1.094710907017233
 40
1.276995387516565
 40
1.45928043793147
 40
1.641550221912784
 40
1.823817802028503
 40
2.01198015802547
 40
2.200147217930422
 40
2.388336064960598
 40
2.576523867720167
 40
2.764691432722553
 40
2.952858954479442
 40
3.141039070319463
 40
3.32921937248893
 40
3.491923158712435
 40
3.654620321368415
 40
3.817272682702847
 40
3.979925013431903
 40
4.14364863201334
 40
4.307373318035735
 40
4.471119033093834
 40
4.6348684245661
 40
4.787203199084992
 40
4.93952859040886
 40
5.09201435673318
 40
5.244501990731379
 40
5.394124535461241
 40
5.543764022474011
 40
5.692914777452158
 40
5.841986710623269
 40
5.991058643794238
 40
6.140209398772384
 40
6.289848885785155
 40
6.43947143051499
 40
6.591959064513216
 40
6.74444483083755
 40
6.896770222161444
 40
7.04910499668036
 40
7.212854388152547
 40
7.376600103210646
 40
7.540324789233044
 40
7.704048407814625
 40
7.866700738543947
 40
8.029353099878573
 40
8.192050262534682
 40
8.35475404875834
 40
8.542934350928055
 40
8.73111446676827
 40
8.919281988525196
 40
9.107449553527402
 40
9.295637356286631
 40
9.483826203316568
 40
9.671993263221388
 40
9.860155619218247
 40
10.04242319933398
 40
10.22469298331533
 40
10.40697803373025
 40
10.58926251422968
 40
10.77171509878334
 40
10.9541676582827
 40
11.13661869808449
 40
11.31907053977301
 40
11.50152238145295
 40
11.68397342124614
 40
11.86642598073707
 40
12.04887856528222
 40
12.23116304577275
 40
12.41344809617886
 40
12.59571788015151
 40
12.77798546025858
 40
12.96614781624567
 40
13.15431487614079
 40
13.34250372316132
 40
13.53069152591123
 40
13.71885909090386
 40
13.90702661265104
 40
14.09520672848145
 40
14.28338703064121
 40
14.44609081685709
 40
14.60878797950554
 40
14.77144034083271
 40
14.93409267155466
 40
15.09781629012829
 40
15.26154097614278
 40
15.42528669119273
 40
15.58903608265694
 40
15.74137085717034
 40
15.89369624848884
 40
16.04618201480784
 40
16.19866964880051
 40
16.34829219352543
 40
16.49793168053322
 40
16.64708243550678
 40
16.7961543686734
 40
16.94522630184004
 40
17.09437705681365
 40
17.24401654382134
 40
17.39363908854622
 40
17.5461267225389
 40
17.69861248885776
 40
17.85093788017605
 40
18.00327265468925
 40
18.16702204615365
 40
18.33076776120389
 40
18.49449244721845
 40
18.65821606579215
 40
18.82086839651401
 40
18.98352075784113
 40
19.14621792048964
 40
19.30892170670551
 40
19.49710200886504
 40
19.68528212469528
 40
19.87344964644252
 40
20.06161721143527
 40
20.24980501418511
 40
20.43799386120549
 40
20.62616092110062
 40
20.81432327708779
 40
20.99659085719492
 40
21.17886064116755
 40
21.36114569157371
 40
21.54343017206423
 40
21.72588275660902
 40
21.90833531609967
 40
21.90833531609967
 40
21.90833531609967
 40
21.90833531609967
 10
145.5534113646076
 20
137.25907629513
 30
0.0
 10
145.5575332879046
 20
137.1983910699797
 30
0.0
 10
145.5657771526149
 20
137.0770203529626
 30
0.0
 10
145.5689596343743
 20
136.8945240757875
 30
0.0
 10
145.5654755044366
 20
136.7120692939164
 30
0.0
 10
145.5546179210376
 20
136.5298883605525
 30
0.0
 10
145.5365207328626
 20
136.3482881167432
 30
0.0
 10
145.511104112551
 20
136.1676200534672
 30
0.0
 10
145.4783498158323
 20
135.9881934825856
 30
0.0
 10
145.4382300178282
 20
135.810329863848
 30
0.0
 10
145.3907058561747
 20
135.6343043494305
 30
0.0
 10
145.3351547080005
 20
135.4585864023065
 30
0.0
 10
145.2712639711862
 20
135.2836266936405
 30
0.0
 10
145.1990321321906
 20
135.1098061598021
 30
0.0
 10
145.119410602473
 20
134.9392366293638
 30
0.0
 10
145.0326685157948
 20
134.7721776397094
 30
0.0
 10
144.9390695862697
 20
134.6088714162877
 30
0.0
 10
144.8388430760051
 20
134.4495509318966
 30
0.0
 10
144.7322115897893
 20
134.2944404120096
 30
0.0
 10
144.6244945277089
 20
134.1505569486696
 30
0.0
 10
144.5168266286008
 20
134.0174143795016
 30
0.0
 10
144.4098843606763
 20
133.8947658354724
 30
0.0
 10
144.2981845061277
 20
133.7764510399109
 30
0.0
 10
144.1813619578825
 20
133.6626912961189
 30
0.0
 10
144.0592965300826
 20
133.554029767796
 30
0.0
 10
143.9320638208181
 20
133.4508826769627
 30
0.0
 10
143.8000675520428
 20
133.3538849956124
 30
0.0
 10
143.6666453362258
 20
133.2655592793283
 30
0.0
 10
143.5323513253761
 20
133.1857899368588
 30
0.0
 10
143.3973875167491
 20
133.1148781532187
 30
0.0
 10
143.2585086349618
 20
133.0518198294178
 30
0.0
 10
143.1167957809777
 20
132.9978615539669
 30
0.0
 10
142.9726878516737
 20
132.9537615328326
 30
0.0
 10
142.8267739564771
 20
132.9206568578501
 30
0.0
 10
142.6788007442289
 20
132.8995748486249
 30
0.0
 10
142.529654165718
 20
132.8920097293088
 30
0.0
 10
142.380507587207
 20
132.8995748486249
 30
0.0
 10
142.2325343749589
 20
132.9206568578501
 30
0.0
 10
142.0866204797624
 20
132.9537615328327
 30
0.0
 10
141.9425125504583
 20
132.9978615539668
 30
0.0
 10
141.8007996964742
 20
133.0518198294178
 30
0.0
 10
141.6619208146868
 20
133.1148781532186
 30
0.0
 10
141.5269570060599
 20
133.1857899368589
 30
0.0
 10
141.3926629952103
 20
133.2655592793283
 30
0.0
 10
141.2592407793932
 20
133.3538849956123
 30
0.0
 10
141.1272445106179
 20
133.4508826769627
 30
0.0
 10
141.0000118013533
 20
133.554029767796
 30
0.0
 10
140.8779463735534
 20
133.6626912961189
 30
0.0
 10
140.7611238253078
 20
133.7764510399109
 30
0.0
 10
140.649423970759
 20
133.8947658354724
 30
0.0
 10
140.5424817028341
 20
134.0174143795016
 30
0.0
 10
140.4348138037258
 20
134.1505569486697
 30
0.0
 10
140.3270967416455
 20
134.2944404120097
 30
0.0
 10
140.2204652554281
 20
134.4495509318967
 30
0.0
 10
140.1202387451676
 20
134.6088714162874
 30
0.0
 10
140.0266398156269
 20
134.7721776397104
 30
0.0
 10
139.9398977290087
 20
134.9392366293602
 30
0.0
 10
139.8602761990711
 20
135.109806159816
 30
0.0
 10
139.7880443608991
 20
135.283626693589
 30
0.0
 10
139.7241536210446
 20
135.4585864024963
 30
0.0
 10
139.6686024838738
 20
135.6343043487464
 30
0.0
 10
139.62107828143
 20
135.8103298664036
 30
0.0
 10
139.5809586357128
 20
135.9881934730464
 30
0.0
 10
139.5482037704578
 20
136.167620089082
 30
0.0
 10
139.5227892738447
 20
136.3482879836908
 30
0.0
 10
139.5046841584157
 20
136.5298888570937
 30
0.0
 10
139.493856159492
 20
136.7120674408172
 30
0.0
 10
139.4902616185774
 20
136.8945309916819
 30
0.0
 10
139.4938561595002
 20
137.0769945425436
 30
0.0
 10
139.5046841584315
 20
137.2591731262581
 30
0.0
 10
139.5227892738677
 20
137.4407739996517
 30
0.0
 10
139.5482037704874
 20
137.6214418942509
 30
0.0
 10
139.5809586357476
 20
137.8008685102766
 30
0.0
 10
139.6210782814697
 20
137.9787321169093
 30
0.0
 10
139.6686024839173
 20
138.1547576345564
 30
0.0
 10
139.7241536210913
 20
138.330475580796
 30
0.0
 10
139.7880443609482
 20
138.5054352896924
 30
0.0
 10
139.860276199122
 20
138.6792558234542
 30
0.0
 10
139.9398977290613
 20
138.8498253538989
 30
0.0
 10
140.0266398156803
 20
139.0168843435376
 30
0.0
 10
140.1202387452211
 20
139.1801905669495
 30
0.0
 10
140.2204652554809
 20
139.3395110513292
 30
0.0
 10
140.3270967416972
 20
139.494621571205
 30
0.0
 10
140.4348138037763
 20
139.6385050345344
 30
0.0
 10
140.5424817028834
 20
139.7716476036926
 30
0.0
 10
140.6494239708068
 20
139.8942961477129
 30
0.0
 10
140.761123825354
 20
140.0126109432658
 30
0.0
 10
140.8779463735972
 20
140.1263706870492
 30
0.0
 10
141.0000118013944
 20
140.2350322153636
 30
0.0
 10
141.1272445106556
 20
140.3381793061882
 30
0.0
 10
141.2592407794273
 20
140.4351769875302
 30
0.0
 10
141.3926629952407
 20
140.5235027038065
 30
0.0
 10
141.5269570060873
 20
140.6032720462687
 30
0.0
 10
141.6619208147114
 20
140.6741838299027
 30
0.0
 10
141.8007996964954
 20
140.737242153698
 30
0.0
 10
141.9425125504756
 20
140.7912004291443
 30
0.0
 10
142.0866204797755
 20
140.8353004502742
 30
0.0
 10
142.2325343749678
 20
140.8684051252535
 30
0.0
 10
142.3805075872116
 20
140.8894871344767
 30
0.0
 10
142.529654165718
 20
140.897052253792
 30
0.0
 10
142.6788007442245
 20
140.8894871344767
 30
0.0
 10
142.8267739564682
 20
140.8684051252536
 30
0.0
 10
142.9726878516605
 20
140.8353004502741
 30
0.0
 10
143.1167957809604
 20
140.7912004291444
 30
0.0
 10
143.2585086349405
 20
140.737242153698
 30
0.0
 10
143.3973875167244
 20
140.6741838299028
 30
0.0
 10
143.5323513253483
 20
140.6032720462686
 30
0.0
 10
143.6666453361947
 20
140.5235027038064
 30
0.0
 10
143.8000675520084
 20
140.4351769875301
 30
0.0
 10
143.9320638207802
 20
140.3381793061883
 30
0.0
 10
144.0592965300416
 20
140.2350322153636
 30
0.0
 10
144.1813619578388
 20
140.1263706870492
 30
0.0
 10
144.2981845060822
 20
140.0126109432657
 30
0.0
 10
144.4098843606284
 20
139.8942961477129
 30
0.0
 10
144.5168266285553
 20
139.7716476036929
 30
0.0
 10
144.6244945276489
 20
139.6385050345336
 30
0.0
 10
144.7322115897852
 20
139.4946215712087
 30
0.0
 10
144.8388430757803
 20
139.3395110513152
 30
0.0
 10
144.9390695868637
 20
139.1801905670011
 30
0.0
 10
145.0326685133321
 20
139.0168843433452
 30
0.0
 10
145.119410611419
 20
138.8498253546172
 30
0.0
 10
145.1990320985596
 20
138.6792558207735
 30
0.0
 10
145.271264096439
 20
138.5054352996956
 30
0.0
 10
145.3351542465194
 20
138.3304755439584
 30
0.0
 10
145.3907075182867
 20
138.1547577672512
 30
0.0
 10
145.4382238076475
 20
137.9787316211357
 30
0.0
 10
145.4783729962453
 20
137.8008703608394
 30
0.0
 10
145.5110175682644
 20
137.6214349851708
 30
0.0
 10
145.5368440520926
 20
137.4407998111703
 30
0.0
 10
145.5478889273554
 20
137.3196507977041
 30
0.0
 10
145.5534113646076
 20
137.25907629513
 30
0.0
 11
145.5534113646076
 21
137.25907629513
 31
0.0
 11
145.5642465882861
 21
137.0769472753404
 31
0.0
 11
145.567848530797
 21
136.8945309916849
 31
0.0
 11
145.5642465882943
 21
136.7121147080209
 31
0.0
 11
145.5534113646233
 21
136.5299856882225
 31
0.0
 11
145.5352995356546
 21
136.3484343232612
 31
0.0
 11
145.5098707456197
 21
136.1677624597968
 31
0.0
 11
145.4771204122998
 21
135.9884441743422
 31
0.0
 11
145.4369945049353
 21
135.8106303639592
 31
0.0
 11
145.3894663090866
 21
135.6346663200412
 31
0.0
 11
145.3345034148401
 21
135.4608832627046
 31
0.0
 11
145.2699872883371
 21
135.2841270983555
 31
0.0
 11
145.1978040114688
 21
135.1103559356908
 31
0.0
 11
145.118223657346
 21
134.9398214541798
 31
0.0
 11
145.0315219094728
 21
134.7727961386639
 31
0.0
 11
144.9379647942437
 21
134.6095353083679
 31
0.0
 11
144.8377782765977
 21
134.450256691077
 31
0.0
 11
144.731182636432
 21
134.2951788864265
 31
0.0
 11
144.6184127917342
 21
134.1445309914812
 31
0.0
 11
144.5160541188939
 21
134.0180587647046
 31
0.0
 11
144.409079478096
 21
133.895474944555
 31
0.0
 11
144.2973716591864
 21
133.777249930949
 31
0.0
 11
144.1807931068739
 21
133.663824969709
 31
0.0
 11
144.0584810102384
 21
133.554989431864
 31
0.0
 11
143.931276578698
 21
133.4519127351298
 31
0.0
 11
143.7993030143377
 21
133.3549816384171
 31
0.0
 11
143.6627383751077
 21
133.2646269898399
 31
0.0
 11
143.5316989659993
 21
133.1869445800663
 31
0.0
 11
143.396790667919
 21
133.1162142757331
 31
0.0
 11
143.2578962367861
 21
133.053283790817
 31
0.0
 11
143.1153434045337
 21
132.9991435235552
 31
0.0
 11
142.9722143933093
 21
132.9555431561558
 31
0.0
 11
142.8262403499763
 21
132.9226257633903
 31
0.0
 11
142.678547747429
 21
132.9018208874388
 31
0.0
 11
142.5296541657179
 21
132.8945309913749
 31
0.0
 11
142.380760584007
 21
132.9018208874388
 31
0.0
 11
142.2330679814597
 21
132.9226257633903
 31
0.0
 11
142.0870939381268
 21
132.9555431561558
 31
0.0
 11
141.9439649269024
 21
132.9991435235552
 31
0.0
 11
141.8014120946499
 21
133.053283790817
 31
0.0
 11
141.662517663517
 21
133.1162142757331
 31
0.0
 11
141.5276093654367
 21
133.1869445800663
 31
0.0
 11
141.3965699563283
 21
133.2646269898399
 31
0.0
 11
141.2600053170983
 21
133.3549816384171
 31
0.0
 11
141.128031752738
 21
133.4519127351297
 31
0.0
 11
141.0008273211976
 21
133.5549894318639
 31
0.0
 11
140.878515224562
 21
133.663824969709
 31
0.0
 11
140.761936672249
 21
133.777249930949
 31
0.0
 11
140.6502288533392
 21
133.895474944555
 31
0.0
 11
140.5432542125411
 21
134.0180587647046
 31
0.0
 11
140.4408955397006
 21
134.1445309914813
 31
0.0
 11
140.3281256950025
 21
134.2951788864266
 31
0.0
 11
140.2215300548364
 21
134.4502566910771
 31
0.0
 11
140.1213435371903
 21
134.609535308368
 31
0.0
 11
140.0277864219616
 21
134.7727961386639
 31
0.0
 11
139.941084674089
 21
134.9398214541798
 31
0.0
 11
139.8615043199668
 21
135.1103559356909
 31
0.0
 11
139.7893210430989
 21
135.2841270983556
 31
0.0
 11
139.724804916596
 21
135.4608832627045
 31
0.0
 11
139.6698420223494
 21
135.6346663200412
 31
0.0
 11
139.6223138265007
 21
135.8106303639592
 31
0.0
 11
139.5821879191362
 21
135.9884441743422
 31
0.0
 11
139.5494375858162
 21
136.1677624597968
 31
0.0
 11
139.5240087957814
 21
136.3484343232612
 31
0.0
 11
139.5058969668127
 21
136.5299856882224
 31
0.0
 11
139.4950617431418
 21
136.7121147080209
 31
0.0
 11
139.491459800639
 21
136.8945309916847
 31
0.0
 11
139.4950617431499
 21
137.0769472753399
 31
0.0
 11
139.5058969668284
 21
137.2590762951293
 31
0.0
 11
139.5240087958043
 21
137.4406276600813
 31
0.0
 11
139.5494375858456
 21
137.6212995235361
 31
0.0
 11
139.582187919171
 21
137.8006178089807
 31
0.0
 11
139.6223138265402
 21
137.9784316193537
 31
0.0
 11
139.6698420223928
 21
138.1543956632616
 31
0.0
 11
139.7248049166426
 21
138.3281787205882
 31
0.0
 11
139.7893210431479
 21
138.5049348849259
 31
0.0
 11
139.8615043200177
 21
138.6787060475793
 31
0.0
 11
139.9410846741414
 21
138.8492405290792
 31
0.0
 11
140.0277864220149
 21
139.0162658445841
 31
0.0
 11
140.1213435372438
 21
139.179526674869
 31
0.0
 11
140.2215300548892
 21
139.3388052921488
 31
0.0
 11
140.3281256950542
 21
139.4938830967882
 31
0.0
 11
140.4408955397508
 21
139.6445309917221
 31
0.0
 11
140.5432542125903
 21
139.7710032184896
 31
0.0
 11
140.650228853387
 21
139.8935870386302
 31
0.0
 11
140.7619366722951
 21
140.0118120522276
 31
0.0
 11
140.8785152246059
 21
140.1252370134592
 31
0.0
 11
141.0008273212387
 21
140.2340725512957
 31
0.0
 11
141.1280317527757
 21
140.3371492480213
 31
0.0
 11
141.2600053171322
 21
140.4340803447254
 31
0.0
 11
141.3965699563581
 21
140.5244349932943
 31
0.0
 11
141.5276093654641
 21
140.6021174030613
 31
0.0
 11
141.6625176635415
 21
140.6728477073883
 31
0.0
 11
141.801412094671
 21
140.735778192299
 31
0.0
 11
141.9439649269194
 21
140.7899184595559
 31
0.0
 11
142.0870939381399
 21
140.8335188269513
 31
0.0
 11
142.2330679814685
 21
140.8664362197135
 31
0.0
 11
142.3807605840114
 21
140.8872410956629
 31
0.0
 11
142.529654165718
 21
140.8945309917261
 31
0.0
 11
142.6785477474246
 21
140.8872410956629
 31
0.0
 11
142.8262403499676
 21
140.8664362197135
 31
0.0
 11
142.9722143932961
 21
140.8335188269512
 31
0.0
 11
143.1153434045166
 21
140.789918459556
 31
0.0
 11
143.2578962367649
 21
140.735778192299
 31
0.0
 11
143.3967906678943
 21
140.6728477073883
 31
0.0
 11
143.5316989659715
 21
140.6021174030613
 31
0.0
 11
143.6627383750772
 21
140.5244349932943
 31
0.0
 11
143.7993030143033
 21
140.4340803447254
 31
0.0
 11
143.9312765786601
 21
140.3371492480213
 31
0.0
 11
144.0584810101973
 21
140.2340725512957
 31
0.0
 11
144.1807931068302
 21
140.1252370134592
 31
0.0
 11
144.2973716591409
 21
140.0118120522276
 31
0.0
 11
144.409079478049
 21
139.8935870386303
 31
0.0
 11
144.5160541188457
 21
139.7710032184896
 31
0.0
 11
144.6184127916851
 21
139.6445309917221
 31
0.0
 11
144.7311826363814
 21
139.4938830967881
 31
0.0
 11
144.8377782765461
 21
139.3388052921488
 31
0.0
 11
144.9379647941917
 21
139.1795266748691
 31
0.0
 11
145.0315219094207
 21
139.0162658445842
 31
0.0
 11
145.1182236572941
 21
138.8492405290792
 31
0.0
 11
145.1978040114175
 21
138.6787060475793
 31
0.0
 11
145.2699872882872
 21
138.5049348849258
 31
0.0
 11
145.3345034147926
 21
138.3281787205881
 31
0.0
 11
145.3894663090427
 21
138.1543956632616
 31
0.0
 11
145.4369945048956
 21
137.9784316193538
 31
0.0
 11
145.4771204122649
 21
137.8006178089807
 31
0.0
 11
145.5098707455904
 21
137.6212995235362
 31
0.0
 11
145.5352995356317
 21
137.4406276600817
 31
0.0
 11
145.5534113646076
 21
137.25907629513
 31
0.0
  0
SPLINE
  5
201
330
1F
100
AcDbEntity
  8
1
  6
Continuous
 62
     3
100
AcDbSpline
210
0.0
220
0.0
230
1.0
 70
    11
 71
     3
 72
   135
 73
   131
 74
   129
 42
0.0000000001
 43
0.0000000001
 44
0.00000001
 40
0.0
 40
0.0
 40
0.0
 40
0.0
 40
0.2714620953546789
 40
0.5429295938622221
 40
0.8143970923790314
 40
1.08585918774284
 40
1.357300362100998
 40
1.628742389919215
 40
1.899665835316348
 40
2.170590586149399
 40
2.441489582034897
 40
2.712383165280707
 40
2.995024062537703
 40
3.277674968077463
 40
3.560376057714537
 40
3.84307512241419
 40
4.125571779582666
 40
4.408068219070517
 40
4.690587348170458
 40
4.973106433851273
 40
5.20037163788048
 40
5.427625758424132
 40
5.65479905985887
 40
5.881971210629874
 40
6.111856969525023
 40
6.341745160238456
 40
6.571652758189317
 40
6.801570153034155
 40
7.008877801969878
 40
7.216164742536406
 40
7.423883893606056
 40
7.631607184380238
 40
7.83280502665493
 40
8.034049174383632
 40
8.23405748613937
 40
8.433857589859931
 40
8.633657693577483
 40
8.833666005330297
 40
9.034910153055618
 40
9.236107995327055
 40
9.443831286097982
 40
9.65155043716452
 40
9.858837377727799
 40
10.06614502666019
 40
10.29606242150034
 40
10.52597001944648
 40
10.75585821015533
 40
10.98574396904587
 40
11.21291611981197
 40
11.44008942124201
 40
11.66734354178155
 40
11.89460874580673
 40
12.17712783148407
 40
12.4596469605801
 40
12.74214340006407
 40
13.0246400572288
 40
13.30733912192493
 40
13.59004021155838
 40
13.87269111709414
 40
14.15533201434697
 40
14.42622559758962
 40
14.6971245934721
 40
14.96804934430232
 40
15.2389727896967
 40
15.51041481751218
 40
15.78185599186768
 40
16.05331808722875
 40
16.32478558574265
 40
16.59625308424805
 40
16.86771517960055
 40
17.13915635394732
 40
17.41059838175414
 40
17.68152182714019
 40
17.95244657796218
 40
18.22334557383612
 40
18.49423915707023
 40
18.77688005431347
 40
19.05953095983949
 40
19.34223204946291
 40
19.62493111414899
 40
19.90742777130426
 40
20.18992421077899
 40
20.47244333986573
 40
20.75496242553341
 40
20.98222762955151
 40
21.2094817500839
 40
21.43665505150712
 40
21.66382720226659
 40
21.8937129611497
 40
22.12360115185131
 40
22.35350874979034
 40
22.58342614462327
 40
22.79073379355042
 40
22.99802073410855
 40
23.20573988517005
 40
23.41346317593602
 40
23.61466101820317
 40
23.81590516592412
 40
24.01591347767271
 40
24.2157135813862
 40
24.41551368510244
 40
24.61552199685383
 40
24.81676614457761
 40
25.01796398684748
 40
25.22568727761619
 40
25.43340642868039
 40
25.64069336924118
 40
25.84800101817111
 40
26.07791841300773
 40
26.3078260109506
 40
26.53771420165629
 40
26.76759996054354
 40
26.99477211130664
 40
27.22194541273336
 40
27.44919953326938
 40
27.67646473729105
 40
27.9589838229614
 40
28.24150295205089
 40
28.52399939152851
 40
28.80649604868678
 40
29.08919511337588
 40
29.37189620300214
 40
29.65454710853101
 40
29.93718800577711
 40
30.20808158901339
 40
30.4789805848895
 40
30.74990533571352
 40
31.02082878110155
 40
31.29227080891058
 40
31.56371198325957
 40
31.56371198325957
 40
31.56371198325957
 40
31.56371198325957
 10
130.7287034288038
 20
132.9108610904927
 30
0.0
 10
130.8190763373127
 20
132.9061666796753
 30
0.0
 10
130.9998239531035
 20
132.8967777646033
 30
0.0
 10
131.2713302319416
 20
132.89331758843
 30
0.0
 10
131.5427986181374
 20
132.8971377823728
 30
0.0
 10
131.8140258503529
 20
132.9094207372627
 30
0.0
 10
132.0847141626946
 20
132.9303427662051
 30
0.0
 10
132.3543757809021
 20
132.960317674405
 30
0.0
 10
132.6226572122461
 20
132.9996831884469
 30
0.0
 10
132.8891539400457
 20
133.0487612435965
 30
0.0
 10
133.1535935744209
 20
133.1079066833155
 30
0.0
 10
133.4192723561486
 20
133.1784557803149
 30
0.0
 10
133.6855000755014
 20
133.2612809582503
 30
0.0
 10
133.9517202270953
 20
133.3565254730352
 30
0.0
 10
134.2138219797529
 20
133.4626237921594
 30
0.0
 10
134.4713903780826
 20
133.5791648632555
 30
0.0
 10
134.7240906629384
 20
133.7057589160874
 30
0.0
 10
134.9715915978313
 20
133.8421125783562
 30
0.0
 10
135.2136191368945
 20
133.9879722090323
 30
0.0
 10
135.4344580695573
 20
134.1329356800608
 30
0.0
 10
135.635101643098
 20
134.2747819002858
 30
0.0
 10
135.816098122408
 20
134.4122468367282
 30
0.0
 10
135.9917842708236
 20
134.5564013012896
 30
0.0
 10
136.162077677211
 20
134.7082277995156
 30
0.0
 10
136.326060762696
 20
134.8681628041479
 30
0.0
 10
136.4830911659832
 20
135.0361846989027
 30
0.0
 10
136.6319464019398
 20
135.2115117049157
 30
0.0
 10
136.767417638028
 20
135.3879777546585
 30
0.0
 10
136.8899091933289
 20
135.5645761054326
 30
0.0
 10
136.9989367793139
 20
135.7411852506109
 30
0.0
 10
137.0970630644421
 20
135.9242670132056
 30
0.0
 10
137.1817627735951
 20
136.1117392368619
 30
0.0
 10
137.2517717642472
 20
136.3029135029422
 30
0.0
 10
137.3048917161433
 20
136.4968564862396
 30
0.0
 10
137.3393006937708
 20
136.6945702421979
 30
0.0
 10
137.3519164327896
 20
136.894530991684
 30
0.0
 10
137.3393006937655
 20
137.0944917411687
 30
0.0
 10
137.3048917161335
 20
137.2922054971231
 30
0.0
 10
137.2517717642332
 20
137.486148480416
 30
0.0
 10
137.1817627735776
 20
137.6773227464915
 30
0.0
 10
137.0970630644216
 20
137.864794970143
 30
0.0
 10
136.9989367792912
 20
138.0478767327327
 30
0.0
 10
136.8899091933044
 20
138.2244858779063
 30
0.0
 10
136.7674176380021
 20
138.4010842286748
 30
0.0
 10
136.6319464019132
 20
138.5775502784116
 30
0.0
 10
136.4830911659565
 20
138.7528772844184
 30
0.0
 10
136.3260607626696
 20
138.9208991791671
 30
0.0
 10
136.1620776771852
 20
139.0808341837934
 30
0.0
 10
135.9917842707989
 20
139.2326606820134
 30
0.0
 10
135.8160981223846
 20
139.3768151465693
 30
0.0
 10
135.6351016430759
 20
139.5142800830063
 30
0.0
 10
135.4344580695363
 20
139.6561263032261
 30
0.0
 10
135.2136191368744
 20
139.8010897742489
 30
0.0
 10
134.9715915978122
 20
139.9469494049207
 30
0.0
 10
134.7240906629205
 20
140.0833030671781
 30
0.0
 10
134.4713903780646
 20
140.2098971200231
 30
0.0
 10
134.2138219797409
 20
140.3264381910421
 30
0.0
 10
133.951720227069
 20
140.4325365104283
 30
0.0
 10
133.685500075538
 20
140.5277810242116
 30
0.0
 10
133.4192723559648
 20
140.6106062058097
 30
0.0
 10
133.153593575038
 20
140.6811552896653
 30
0.0
 10
132.889153937712
 20
140.7403007779792
 30
0.0
 10
132.6226572209413
 20
140.7893786516684
 30
0.0
 10
132.3543757484198
 20
140.8287448433777
 30
0.0
 10
132.0847142841855
 20
140.8587172177966
 30
0.0
 10
131.8140253969771
 20
140.8796487069222
 30
0.0
 10
131.5428003103422
 20
140.8918963536809
 30
0.0
 10
131.2713239164702
 20
140.8958483238603
 30
0.0
 10
130.9998475226013
 20
140.8918963536738
 30
0.0
 10
130.7286224359752
 20
140.8796487069085
 30
0.0
 10
130.457933548776
 20
140.8587172177772
 30
0.0
 10
130.1882720845509
 20
140.828744843353
 30
0.0
 10
129.9199906120385
 20
140.7893786516389
 30
0.0
 10
129.6534938952772
 20
140.7403007779455
 30
0.0
 10
129.3890542579606
 20
140.6811552896284
 30
0.0
 10
129.1233754770437
 20
140.6106062057698
 30
0.0
 10
128.8571477574811
 20
140.527781024169
 30
0.0
 10
128.5909276059612
 20
140.4325365103841
 30
0.0
 10
128.3288258533001
 20
140.3264381909976
 30
0.0
 10
128.0712574549871
 20
140.2098971199787
 30
0.0
 10
127.8185571701419
 20
140.0833030671336
 30
0.0
 10
127.5710562352609
 20
139.9469494048762
 30
0.0
 10
127.3290286962091
 20
139.8010897742053
 30
0.0
 10
127.1081897635569
 20
139.6561263031836
 30
0.0
 10
126.9075461900261
 20
139.5142800829651
 30
0.0
 10
126.7265497107254
 20
139.3768151465293
 30
0.0
 10
126.5508635623188
 20
139.2326606819748
 30
0.0
 10
126.3805701559403
 20
139.0808341837564
 30
0.0
 10
126.2165870704637
 20
138.9208991791324
 30
0.0
 10
126.0595566671845
 20
138.7528772843865
 30
0.0
 10
125.9107014312354
 20
138.5775502783827
 30
0.0
 10
125.7752301951535
 20
138.4010842286486
 30
0.0
 10
125.6527386398577
 20
138.2244858778828
 30
0.0
 10
125.5437110538764
 20
138.047876732712
 30
0.0
 10
125.4455847687511
 20
137.8647949701253
 30
0.0
 10
125.3608850595996
 20
137.6773227464769
 30
0.0
 10
125.2908760689479
 20
137.4861484804048
 30
0.0
 10
125.2377561170509
 20
137.2922054971154
 30
0.0
 10
125.203347139421
 20
137.094491741165
 30
0.0
 10
125.1907314003975
 20
136.8945309916845
 30
0.0
 10
125.2033471394153
 20
136.6945702422028
 30
0.0
 10
125.2377561170403
 20
136.4968564862486
 30
0.0
 10
125.2908760689335
 20
136.3029135029553
 30
0.0
 10
125.3608850595817
 20
136.111739236879
 30
0.0
 10
125.44558476873
 20
135.9242670132263
 30
0.0
 10
125.5437110538527
 20
135.741185250635
 30
0.0
 10
125.6527386398316
 20
135.5645761054596
 30
0.0
 10
125.7752301951255
 20
135.3879777546886
 30
0.0
 10
125.9107014312059
 20
135.2115117049491
 30
0.0
 10
126.059556667154
 20
135.0361846989394
 30
0.0
 10
126.2165870704327
 20
134.8681628041876
 30
0.0
 10
126.3805701559093
 20
134.7082277995578
 30
0.0
 10
126.5508635622883
 20
134.5564013013341
 30
0.0
 10
126.7265497106953
 20
134.4122468367754
 30
0.0
 10
126.9075461899964
 20
134.2747819003307
 30
0.0
 10
127.1081897635281
 20
134.1329356801215
 30
0.0
 10
127.3290286961761
 20
133.9879722090254
 30
0.0
 10
127.571056235244
 20
133.8421125786164
 30
0.0
 10
127.8185571700648
 20
133.7057589153576
 30
0.0
 10
128.0712574551362
 20
133.5791648662237
 30
0.0
 10
128.3288258526061
 20
133.4626237813171
 30
0.0
 10
128.5909276084163
 20
133.3565255137362
 30
0.0
 10
128.8571477481895
 20
133.2612808066189
 30
0.0
 10
129.1233755109869
 20
133.1784563364732
 30
0.0
 10
129.3890541370139
 20
133.1079047036877
 30
0.0
 10
129.6534943472104
 20
133.0487686427902
 30
0.0
 10
129.9199889249484
 20
132.9996555688012
 30
0.0
 10
130.1882783858424
 20
132.9604208357347
 30
0.0
 10
130.4579099818471
 20
132.9299569428475
 30
0.0
 10
130.6384390410874
 20
132.9172263679398
 30
0.0
 10
130.7287034288038
 20
132.9108610904927
 30
0.0
 11
130.7287034288038
 21
132.9108610904927
 31
0.0
 11
130.9998861454718
 21
132.8985483574525
 31
0.0
 11
131.2713239164557
 21
132.8945309914997
 31
0.0
 11
131.5427616874491
 21
132.898548357445
 31
0.0
 11
131.8139444041265
 21
132.910861090478
 31
0.0
 11
132.0845725150106
 21
132.9318548213574
 31
0.0
 11
132.3543456569968
 21
132.9619085454029
 31
0.0
 11
132.6223891791983
 21
133.0013063051317
 31
0.0
 11
132.88882112792
 21
133.0504411941042
 31
0.0
 11
133.1531725997242
 21
133.1096405634143
 31
0.0
 11
133.4149733159263
 21
133.1792373912142
 31
0.0
 11
133.6848691380768
 21
133.2631547433407
 31
0.0
 11
133.951015170016
 21
133.358327344889
 31
0.0
 11
134.2130748072429
 21
133.4643681512728
 31
0.0
 11
134.4706502033391
 21
133.5808742734636
 31
0.0
 11
134.7232331316073
 21
133.7073899865542
 31
0.0
 11
134.9706717329819
 21
133.8436925062414
 31
0.0
 11
135.2126534582931
 21
133.9895071245854
 31
0.0
 11
135.4488411684888
 21
134.1445309915428
 31
0.0
 11
135.6343411362548
 21
134.2758292585582
 31
0.0
 11
135.8152382762325
 21
134.4133816487664
 31
0.0
 11
135.9907767307332
 21
134.5575827579031
 31
0.0
 11
136.1602540327821
 21
134.7088594255559
 31
0.0
 11
136.324792621922
 21
134.8694038581179
 31
0.0
 11
136.4817231725165
 21
135.037396067817
 31
0.0
 11
136.6304778510371
 21
135.2126945253509
 31
0.0
 11
136.7704357208976
 21
135.3951056081183
 31
0.0
 11
136.8883731659825
 21
135.5655967232947
 31
0.0
 11
136.99703649049
 21
135.7421191231096
 31
0.0
 11
137.094962624417
 21
135.9253067810323
 31
0.0
 11
137.1802723520718
 21
136.1147037606743
 31
0.0
 11
137.2490943906285
 21
136.3037648585895
 31
0.0
 11
137.3018793317514
 21
136.4979631000483
 31
0.0
 11
137.3356897862738
 21
136.6950929504931
 31
0.0
 11
137.3477126466786
 21
136.8945309916849
 31
0.0
 11
137.3356897862686
 21
137.0939690328734
 31
0.0
 11
137.3018793317417
 21
137.2910988833144
 31
0.0
 11
137.2490943906146
 21
137.4852971247686
 31
0.0
 11
137.1802723520544
 21
137.674358222679
 31
0.0
 11
137.0949626243966
 21
137.8637552023162
 31
0.0
 11
136.9970364904673
 21
138.0469428602341
 31
0.0
 11
136.888373165958
 21
138.2234652600441
 31
0.0
 11
136.7704357208717
 21
138.3939563752155
 31
0.0
 11
136.6304778510106
 21
138.5763674579765
 31
0.0
 11
136.4817231724898
 21
138.751665915504
 31
0.0
 11
136.3247926218956
 21
138.9196581251971
 31
0.0
 11
136.1602540327564
 21
139.0802025577532
 31
0.0
 11
135.9907767307086
 21
139.2314792254
 31
0.0
 11
135.8152382762093
 21
139.375680334531
 31
0.0
 11
135.6343411362328
 21
139.5132327247338
 31
0.0
 11
135.4488411684681
 21
139.6445309917441
 31
0.0
 11
135.212653458273
 21
139.7995548586962
 31
0.0
 11
134.9706717329628
 21
139.9453694770343
 31
0.0
 11
134.7232331315893
 21
140.0816719967154
 31
0.0
 11
134.4706502033222
 21
140.2081877097999
 31
0.0
 11
134.2130748072274
 21
140.3246938319853
 31
0.0
 11
133.9510151700024
 21
140.4307346383639
 31
0.0
 11
133.6848691380657
 21
140.5259072399072
 31
0.0
 11
133.414973315918
 21
140.6098245920288
 31
0.0
 11
133.153172599718
 21
140.6794214198247
 31
0.0
 11
132.8888211279161
 21
140.7386207891313
 31
0.0
 11
132.6223891791968
 21
140.7877556781009
 31
0.0
 11
132.3543456569977
 21
140.8271534378274
 31
0.0
 11
132.0845725150142
 21
140.8572071618711
 31
0.0
 11
131.8139444041326
 21
140.8782008927492
 31
0.0
 11
131.5427616874579
 21
140.8905136257812
 31
0.0
 11
131.2713239164674
 21
140.8945309917261
 31
0.0
 11
130.9998861454856
 21
140.8905136257741
 31
0.0
 11
130.7287034288197
 21
140.8782008927356
 31
0.0
 11
130.4580753179474
 21
140.8572071618517
 31
0.0
 11
130.1883021759731
 21
140.8271534378028
 31
0.0
 11
129.9202586537831
 21
140.7877556780715
 31
0.0
 11
129.653826705073
 21
140.7386207890978
 31
0.0
 11
129.3894752332806
 21
140.6794214197878
 31
0.0
 11
129.1276745170903
 21
140.6098245919889
 31
0.0
 11
128.8577786949534
 21
140.5259072398648
 31
0.0
 11
128.5916326630276
 21
140.4307346383199
 31
0.0
 11
128.3295730258135
 21
140.3246938319408
 31
0.0
 11
128.0719976297297
 21
140.2081877097556
 31
0.0
 11
127.8194147014733
 21
140.0816719966709
 31
0.0
 11
127.5719761001103
 21
139.9453694769899
 31
0.0
 11
127.3299943748105
 21
139.7995548586526
 31
0.0
 11
127.093806664626
 21
139.644530991702
 31
0.0
 11
126.9083066968692
 21
139.5132327246927
 31
0.0
 11
126.7274095569008
 21
139.3756803344911
 31
0.0
 11
126.5518711024092
 21
139.2314792253615
 31
0.0
 11
126.382393800369
 21
139.0802025577161
 31
0.0
 11
126.2178552112377
 21
138.9196581251626
 31
0.0
 11
126.0609246606512
 21
138.7516659154722
 31
0.0
 11
125.9121699821379
 21
138.5763674579475
 31
0.0
 11
125.7722121122844
 21
138.3939563751898
 31
0.0
 11
125.654274667204
 21
138.2234652600208
 31
0.0
 11
125.5456113427002
 21
138.0469428602134
 31
0.0
 11
125.447685208776
 21
137.8637552022985
 31
0.0
 11
125.3623754811228
 21
137.6743582226648
 31
0.0
 11
125.2935534425664
 21
137.4852971247575
 31
0.0
 11
125.2407685014426
 21
137.2910988833069
 31
0.0
 11
125.2069580469176
 21
137.0939690328699
 31
0.0
 11
125.1949351865082
 21
136.8945309916854
 31
0.0
 11
125.206958046912
 21
136.6950929504978
 31
0.0
 11
125.2407685014322
 21
136.4979631000571
 31
0.0
 11
125.2935534425521
 21
136.3037648586026
 31
0.0
 11
125.362375481105
 21
136.1147037606912
 31
0.0
 11
125.4476852087551
 21
135.925306781053
 31
0.0
 11
125.5456113426766
 21
135.7421191231335
 31
0.0
 11
125.654274667178
 21
135.5655967233216
 31
0.0
 11
125.7722121122564
 21
135.3951056081478
 31
0.0
 11
125.9121699821084
 21
135.2126945253843
 31
0.0
 11
126.0609246606207
 21
135.0373960678538
 31
0.0
 11
126.2178552112068
 21
134.8694038581574
 31
0.0
 11
126.3823938003382
 21
134.708859425598
 31
0.0
 11
126.5518711023787
 21
134.5575827579476
 31
0.0
 11
126.7274095568706
 21
134.4133816488128
 31
0.0
 11
126.9083066968396
 21
134.2758292586059
 31
0.0
 11
127.093806664597
 21
134.1445309915913
 31
0.0
 11
127.3299943747809
 21
133.9895071246351
 31
0.0
 11
127.5719761000806
 21
133.8436925062921
 31
0.0
 11
127.8194147014438
 21
133.7073899866055
 31
0.0
 11
128.0719976297007
 21
133.5808742735151
 31
0.0
 11
128.3295730257851
 21
133.4643681513237
 31
0.0
 11
128.5916326629998
 21
133.3583273449388
 31
0.0
 11
128.8577786949267
 21
133.2631547433886
 31
0.0
 11
129.1276745170651
 21
133.1792373912596
 31
0.0
 11
129.3894752332564
 21
133.1096405634561
 31
0.0
 11
129.6538267050501
 21
133.0504411941419
 31
0.0
 11
129.9202586537617
 21
133.0013063051646
 31
0.0
 11
130.1883021759532
 21
132.9619085454304
 31
0.0
 11
130.4580753179294
 21
132.9318548213788
 31
0.0
 11
130.7287034288038
 21
132.9108610904927
 31
0.0
  0
SPLINE
  5
202
330
1F
100
AcDbEntity
  8
1
  6
Continuous
 62
     3
100
AcDbSpline
210
0.0
220
0.0
230
1.0
 70
    11
 71
     3
 72
   135
 73
   131
 74
   129
 42
0.0000000001
 43
0.0000000001
 44
0.00000001
 40
0.0
 40
0.0
 40
0.0
 40
0.0
 40
0.1824510397923186
 40
0.3649028814714432
 40
0.5473547231512682
 40
0.7298057629443232
 40
0.9122583224348806
 40
1.094710906979689
 40
1.276995387470304
 40
1.459280437876324
 40
1.641550221848634
 40
1.823817801955391
 40
2.011980157942646
 40
2.200147217838046
 40
2.388336064858581
 40
2.576523867608403
 40
2.764691432600939
 40
2.952858954348076
 40
3.14103907017842
 40
3.329219372338206
 40
3.491923158556191
 40
3.654620321206666
 40
3.817272682535677
 40
3.979925013259491
 40
4.143648631835498
 40
4.307373317852332
 40
4.471119032904654
 40
4.634868424371091
 40
4.787203198886407
 40
4.9395285902067
 40
5.092014356527293
 40
5.244501990521813
 40
5.394124535248911
 40
5.543764022258873
 40
5.692914777234264
 40
5.841986710402484
 40
5.991058643570889
 40
6.140209398546405
 40
6.289848885556263
 40
6.439471430283116
 40
6.591959064277487
 40
6.744444830598042
 40
6.896770221918322
 40
7.049104996433633
 40
7.212854387900038
 40
7.376600102952347
 40
7.540324788969087
 40
7.704048407545049
 40
7.866700738268927
 40
8.02935309959793
 40
8.192050262248392
 40
8.354754048466273
 40
8.542934350625616
 40
8.731114466455683
 40
8.919281988203055
 40
9.10744955319585
 40
9.295637355945587
 40
9.483826202965908
 40
9.671993262861193
 40
9.860155618848376
 40
10.04242319895513
 40
10.22469298292744
 40
10.40697803333347
 40
10.58926251382407
 40
10.77171509836886
 40
10.95416765785944
 40
11.1366186976525
 40
11.31907053933235
 40
11.50152238101148
 40
11.68397342080381
 40
11.86642598029373
 40
12.04887856483786
 40
12.23116304532773
 40
12.41344809573308
 40
12.59571787970498
 40
12.77798545981131
 40
12.96614781579767
 40
13.154314875692
 40
13.34250372271164
 40
13.53069152546067
 40
13.71885909045256
 40
13.90702661219911
 40
14.09520672802872
 40
14.28338703018785
 40
14.44609081640543
 40
14.60878797905552
 40
14.77144034038386
 40
14.93409267110694
 40
15.09781628968199
 40
15.261540975698
 40
15.42528669074963
 40
15.58903608221535
 40
15.74137085673019
 40
15.89369624805007
 40
16.0461820143705
 40
16.19866964836482
 40
16.34829219309147
 40
16.49793168010098
 40
16.64708243507616
 40
16.79615436824427
 40
16.94522630141236
 40
17.09437705638755
 40
17.24401654339711
 40
17.39363908812381
 40
17.54612672211805
 40
17.6986124884384
 40
17.85093787975829
 40
18.0032726542731
 40
18.16702204573896
 40
18.33076776079082
 40
18.49449244680708
 40
18.6582160653824
 40
18.82086839610555
 40
18.98352075743378
 40
19.14621792008354
 40
19.30892170630078
 40
19.49710200845989
 40
19.68528212428955
 40
19.87344964603584
 40
20.0616172110276
 40
20.24980501377674
 40
20.43799386079655
 40
20.626160920691
 40
20.81432327667737
 40
20.99659085678368
 40
21.17886064075556
 40
21.36114569116089
 40
21.54343017165073
 40
21.72588275619496
 40
21.90833531568494
 40
21.90833531568494
 40
21.90833531568494
 40
21.90833531568494
 10
123.0367508662193
 20
137.2590762951284
 30
0.0
 10
123.0408727895153
 20
137.1983910699784
 30
0.0
 10
123.0491166542236
 20
137.077020352962
 30
0.0
 10
123.0522991359792
 20
136.8945240757904
 30
0.0
 10
123.0488150060374
 20
136.7120692939256
 30
0.0
 10
123.0379574226347
 20
136.5298883605708
 30
0.0
 10
123.0198602344555
 20
136.3482881167707
 30
0.0
 10
122.9944436141403
 20
136.1676200535043
 30
0.0
 10
122.9616893174183
 20
135.9881934826321
 30
0.0
 10
122.9215695194115
 20
135.8103298639044
 30
0.0
 10
122.8740453577556
 20
135.6343043494966
 30
0.0
 10
122.8184942095795
 20
135.4585864023829
 30
0.0
 10
122.7546034727636
 20
135.2836266937276
 30
0.0
 10
122.6823716337671
 20
135.1098061599
 30
0.0
 10
122.6027501040495
 20
134.9392366294724
 30
0.0
 10
122.516008017372
 20
134.7721776398287
 30
0.0
 10
122.4224090878477
 20
134.6088714164177
 30
0.0
 10
122.3221825775841
 20
134.4495509320375
 30
0.0
 10
122.2155510913694
 20
134.2944404121615
 30
0.0
 10
122.1078340292899
 20
134.1505569488313
 30
0.0
 10
122.0001661301821
 20
134.0174143796719
 30
0.0
 10
121.8932238622573
 20
133.8947658356501
 30
0.0
 10
121.7815240077091
 20
133.7764510400958
 30
0.0
 10
121.6647014594645
 20
133.6626912963108
 30
0.0
 10
121.5426360316656
 20
133.5540297679949
 30
0.0
 10
121.4154033224024
 20
133.4508826771689
 30
0.0
 10
121.2834070536288
 20
133.3538849958259
 30
0.0
 10
121.1499848378133
 20
133.2655592795485
 30
0.0
 10
121.0156908269652
 20
133.1857899370853
 30
0.0
 10
120.8807270183395
 20
133.1148781534504
 30
0.0
 10
120.7418481365539
 20
133.0518198296543
 30
0.0
 10
120.6001352825719
 20
132.9978615542076
 30
0.0
 10
120.45602735327
 20
132.9537615330773
 30
0.0
 10
120.3101134580755
 20
132.9206568580976
 30
0.0
 10
120.16214024583
 20
132.8995748488743
 30
0.0
 10
120.0129936673218
 20
132.8920097295591
 30
0.0
 10
119.8638470888135
 20
132.8995748488743
 30
0.0
 10
119.7158738765679
 20
132.9206568580976
 30
0.0
 10
119.5699599813736
 20
132.9537615330773
 30
0.0
 10
119.4258520520718
 20
132.9978615542077
 30
0.0
 10
119.28413919809
 20
133.0518198296544
 30
0.0
 10
119.1452603163044
 20
133.1148781534504
 30
0.0
 10
119.0102965076789
 20
133.1857899370854
 30
0.0
 10
118.8760024968306
 20
133.2655592795485
 30
0.0
 10
118.7425802810152
 20
133.3538849958259
 30
0.0
 10
118.6105840122417
 20
133.450882677169
 30
0.0
 10
118.4833513029788
 20
133.5540297679954
 30
0.0
 10
118.3612858751803
 20
133.6626912963115
 30
0.0
 10
118.2444633269355
 20
133.7764510400962
 30
0.0
 10
118.1327634723869
 20
133.8947658356504
 30
0.0
 10
118.0258212044624
 20
134.0174143796723
 30
0.0
 10
117.9181533053551
 20
134.1505569488319
 30
0.0
 10
117.8104362432762
 20
134.294440412162
 30
0.0
 10
117.7038047570606
 20
134.4495509320381
 30
0.0
 10
117.6035782468011
 20
134.608871416418
 30
0.0
 10
117.5099793172607
 20
134.7721776398302
 30
0.0
 10
117.4232372306422
 20
134.9392366294691
 30
0.0
 10
117.3436157007039
 20
135.1098061599141
 30
0.0
 10
117.2713838625307
 20
135.2836266936761
 30
0.0
 10
117.2074931226745
 20
135.4585864025728
 30
0.0
 10
117.1519419855018
 20
135.6343043488126
 30
0.0
 10
117.1044177830558
 20
135.8103298664599
 30
0.0
 10
117.0642981373356
 20
135.988193473093
 30
0.0
 10
117.0315432720777
 20
136.167620089119
 30
0.0
 10
117.0061287754607
 20
136.3482879837183
 30
0.0
 10
116.9880236600277
 20
136.529888857112
 30
0.0
 10
116.9771956611001
 20
136.7120674408265
 30
0.0
 10
116.9736011201815
 20
136.8945309916851
 30
0.0
 10
116.9771956611007
 20
137.0769945425434
 30
0.0
 10
116.9880236600286
 20
137.2591731262572
 30
0.0
 10
117.0061287754617
 20
137.4407739996502
 30
0.0
 10
117.0315432720787
 20
137.6214418942488
 30
0.0
 10
117.0642981373372
 20
137.800868510274
 30
0.0
 10
117.1044177830578
 20
137.9787321169063
 30
0.0
 10
117.1519419855043
 20
138.1547576345529
 30
0.0
 10
117.2074931226774
 20
138.330475580792
 30
0.0
 10
117.2713838625337
 20
138.5054352896879
 30
0.0
 10
117.3436157007069
 20
138.6792558234491
 30
0.0
 10
117.4232372306451
 20
138.8498253538932
 30
0.0
 10
117.5099793172637
 20
139.0168843435314
 30
0.0
 10
117.6035782468041
 20
139.1801905669425
 30
0.0
 10
117.7038047570638
 20
139.3395110513216
 30
0.0
 10
117.8104362432792
 20
139.494621571197
 30
0.0
 10
117.9181533053581
 20
139.6385050345267
 30
0.0
 10
118.0258212044659
 20
139.7716476036856
 30
0.0
 10
118.1327634723906
 20
139.8942961477067
 30
0.0
 10
118.244463326939
 20
140.0126109432603
 30
0.0
 10
118.3612858751834
 20
140.1263706870442
 30
0.0
 10
118.4833513029819
 20
140.2350322153592
 30
0.0
 10
118.6105840122447
 20
140.3381793061844
 30
0.0
 10
118.7425802810176
 20
140.4351769875271
 30
0.0
 10
118.8760024968324
 20
140.5235027038042
 30
0.0
 10
119.0102965076802
 20
140.6032720462671
 30
0.0
 10
119.1452603163057
 20
140.6741838299018
 30
0.0
 10
119.284139198091
 20
140.7372421536976
 30
0.0
 10
119.4258520520728
 20
140.7912004291443
 30
0.0
 10
119.5699599813745
 20
140.8353004502742
 30
0.0
 10
119.7158738765686
 20
140.8684051252533
 30
0.0
 10
119.863847088814
 20
140.8894871344762
 30
0.0
 10
120.012993667322
 20
140.8970522537912
 30
0.0
 10
120.16214024583
 20
140.8894871344762
 30
0.0
 10
120.3101134580754
 20
140.8684051252534
 30
0.0
 10
120.4560273532695
 20
140.8353004502742
 30
0.0
 10
120.6001352825712
 20
140.7912004291442
 30
0.0
 10
120.741848136553
 20
140.7372421536976
 30
0.0
 10
120.8807270183382
 20
140.6741838299017
 30
0.0
 10
121.0156908269637
 20
140.6032720462673
 30
0.0
 10
121.1499848378115
 20
140.5235027038042
 30
0.0
 10
121.2834070536264
 20
140.4351769875271
 30
0.0
 10
121.4154033223995
 20
140.3381793061842
 30
0.0
 10
121.5426360316627
 20
140.2350322153591
 30
0.0
 10
121.6647014594615
 20
140.1263706870443
 30
0.0
 10
121.7815240077062
 20
140.0126109432602
 30
0.0
 10
121.8932238622535
 20
139.8942961477067
 30
0.0
 10
122.0001661301812
 20
139.7716476036858
 30
0.0
 10
122.1078340292754
 20
139.6385050345259
 30
0.0
 10
122.2155510914116
 20
139.4946215712008
 30
0.0
 10
122.3221825774061
 20
139.3395110513077
 30
0.0
 10
122.4224090884888
 20
139.1801905669941
 30
0.0
 10
122.5160080149564
 20
139.0168843433389
 30
0.0
 10
122.602750113043
 20
138.8498253546116
 30
0.0
 10
122.6823716001835
 20
138.6792558207684
 30
0.0
 10
122.7546035980624
 20
138.5054352996912
 30
0.0
 10
122.8184937481421
 20
138.3304755439544
 30
0.0
 10
122.8740470199083
 20
138.1547577672477
 30
0.0
 10
122.9215633092675
 20
137.9787316211327
 30
0.0
 10
122.9617124978639
 20
137.8008703608368
 30
0.0
 10
122.9943570698811
 20
137.6214349851685
 30
0.0
 10
123.0201835537071
 20
137.4407998111684
 30
0.0
 10
123.031228428968
 20
137.3196507977024
 30
0.0
 10
123.0367508662193
 20
137.2590762951284
 30
0.0
 11
123.0367508662193
 21
137.2590762951284
 31
0.0
 11
123.0475860898946
 21
137.0769472753397
 31
0.0
 11
123.0511880324018
 21
136.8945309916853
 31
0.0
 11
123.0475860898951
 21
136.7121147080302
 31
0.0
 11
123.0367508662203
 21
136.5299856882407
 31
0.0
 11
123.0186390372476
 21
136.3484343232887
 31
0.0
 11
122.9932102472091
 21
136.1677624598339
 31
0.0
 11
122.9604599138859
 21
135.9884441743888
 31
0.0
 11
122.9203340065186
 21
135.8106303640155
 31
0.0
 11
122.8728058106676
 21
135.6346663201075
 31
0.0
 11
122.8178429164191
 21
135.4608832627808
 31
0.0
 11
122.7533267899146
 21
135.2841270984427
 31
0.0
 11
122.6811435130455
 21
135.1103559357887
 31
0.0
 11
122.6015631589226
 21
134.9398214542883
 31
0.0
 11
122.5148614110499
 21
134.7727961387831
 31
0.0
 11
122.4213042958217
 21
134.609535308498
 31
0.0
 11
122.3211177781768
 21
134.4502566912179
 31
0.0
 11
122.2145221380122
 21
134.2951788865784
 31
0.0
 11
122.1017522933158
 21
134.1445309916442
 31
0.0
 11
121.9993936204751
 21
134.018058764875
 31
0.0
 11
121.8924189796771
 21
133.8954749447328
 31
0.0
 11
121.7807111607679
 21
133.7772499311339
 31
0.0
 11
121.6641326084559
 21
133.6638249699009
 31
0.0
 11
121.5418205118214
 21
133.5549894320629
 31
0.0
 11
121.4146160802823
 21
133.4519127353359
 31
0.0
 11
121.2826425159238
 21
133.3549816386306
 31
0.0
 11
121.1460778766959
 21
133.2646269900607
 31
0.0
 11
121.0150384675883
 21
133.1869445802926
 31
0.0
 11
120.8801301695093
 21
133.1162142759648
 31
0.0
 11
120.7412357383783
 21
133.0532837910535
 31
0.0
 11
120.5986829061282
 21
132.9991435237961
 31
0.0
 11
120.4555538949056
 21
132.9555431564002
 31
0.0
 11
120.3095798515748
 21
132.9226257636377
 31
0.0
 11
120.1618872490301
 21
132.9018208876881
 31
0.0
 11
120.0129936673219
 21
132.8945309916249
 31
0.0
 11
119.8641000856135
 21
132.9018208876881
 31
0.0
 11
119.7164074830686
 21
132.9226257636377
 31
0.0
 11
119.5704334397379
 21
132.9555431564003
 31
0.0
 11
119.4273044285156
 21
132.9991435237961
 31
0.0
 11
119.2847515962656
 21
133.0532837910536
 31
0.0
 11
119.1458571651346
 21
133.1162142759648
 31
0.0
 11
119.0109488670556
 21
133.1869445802927
 31
0.0
 11
118.879909457948
 21
133.2646269900607
 31
0.0
 11
118.7433448187202
 21
133.3549816386306
 31
0.0
 11
118.6113712543618
 21
133.4519127353361
 31
0.0
 11
118.4841668228231
 21
133.5549894320633
 31
0.0
 11
118.3618547261888
 21
133.6638249699015
 31
0.0
 11
118.2452761738766
 21
133.7772499311344
 31
0.0
 11
118.1335683549672
 21
133.8954749447331
 31
0.0
 11
118.0265937141694
 21
134.0180587648754
 31
0.0
 11
117.9242350413291
 21
134.1445309916448
 31
0.0
 11
117.8114651966332
 21
134.2951788865789
 31
0.0
 11
117.7048695564689
 21
134.4502566912183
 31
0.0
 11
117.6046830388238
 21
134.6095353084985
 31
0.0
 11
117.5111259235952
 21
134.7727961387837
 31
0.0
 11
117.4244241757224
 21
134.9398214542888
 31
0.0
 11
117.3448438215995
 21
135.1103559357889
 31
0.0
 11
117.2726605447304
 21
135.2841270984428
 31
0.0
 11
117.2081444182259
 21
135.4608832627808
 31
0.0
 11
117.1531815239774
 21
135.6346663201075
 31
0.0
 11
117.1056533281264
 21
135.8106303640155
 31
0.0
 11
117.0655274207591
 21
135.9884441743888
 31
0.0
 11
117.0327770874359
 21
136.1677624598339
 31
0.0
 11
117.0073482973974
 21
136.3484343232887
 31
0.0
 11
116.9892364684247
 21
136.5299856882407
 31
0.0
 11
116.9784012447499
 21
136.7121147080302
 31
0.0
 11
116.9747993022432
 21
136.8945309916853
 31
0.0
 11
116.9784012447504
 21
137.0769472753397
 31
0.0
 11
116.9892364684255
 21
137.2590762951285
 31
0.0
 11
117.0073482973984
 21
137.4406276600798
 31
0.0
 11
117.0327770874371
 21
137.6212995235339
 31
0.0
 11
117.0655274207606
 21
137.8006178089782
 31
0.0
 11
117.1056533281284
 21
137.9784316193507
 31
0.0
 11
117.1531815239799
 21
138.1543956632581
 31
0.0
 11
117.2081444182288
 21
138.3281787205842
 31
0.0
 11
117.2726605447334
 21
138.5049348849214
 31
0.0
 11
117.3448438216025
 21
138.6787060475742
 31
0.0
 11
117.4244241757253
 21
138.8492405290736
 31
0.0
 11
117.5111259235982
 21
139.0162658445778
 31
0.0
 11
117.6046830388268
 21
139.179526674862
 31
0.0
 11
117.7048695564719
 21
139.3388052921412
 31
0.0
 11
117.8114651966362
 21
139.4938830967801
 31
0.0
 11
117.9242350413323
 21
139.6445309917137
 31
0.0
 11
118.0265937141728
 21
139.7710032184825
 31
0.0
 11
118.1335683549709
 21
139.8935870386241
 31
0.0
 11
118.2452761738801
 21
140.0118120522221
 31
0.0
 11
118.361854726192
 21
140.1252370134542
 31
0.0
 11
118.4841668228262
 21
140.2340725512912
 31
0.0
 11
118.6113712543647
 21
140.3371492480175
 31
0.0
 11
118.7433448187226
 21
140.4340803447224
 31
0.0
 11
118.8799094579499
 21
140.524434993292
 31
0.0
 11
119.0109488670571
 21
140.6021174030598
 31
0.0
 11
119.1458571651357
 21
140.6728477073873
 31
0.0
 11
119.2847515962666
 21
140.7357781922985
 31
0.0
 11
119.4273044285166
 21
140.7899184595558
 31
0.0
 11
119.5704334397389
 21
140.8335188269512
 31
0.0
 11
119.7164074830692
 21
140.8664362197133
 31
0.0
 11
119.8641000856139
 21
140.8872410956624
 31
0.0
 11
120.012993667322
 21
140.8945309917254
 31
0.0
 11
120.1618872490301
 21
140.8872410956624
 31
0.0
 11
120.3095798515747
 21
140.8664362197133
 31
0.0
 11
120.4555538949051
 21
140.8335188269512
 31
0.0
 11
120.5986829061274
 21
140.7899184595557
 31
0.0
 11
120.7412357383773
 21
140.7357781922985
 31
0.0
 11
120.8801301695082
 21
140.6728477073874
 31
0.0
 11
121.0150384675869
 21
140.6021174030598
 31
0.0
 11
121.1460778766941
 21
140.5244349932921
 31
0.0
 11
121.2826425159214
 21
140.4340803447224
 31
0.0
 11
121.4146160802796
 21
140.3371492480174
 31
0.0
 11
121.5418205118184
 21
140.2340725512911
 31
0.0
 11
121.6641326084529
 21
140.1252370134541
 31
0.0
 11
121.780711160765
 21
140.011812052222
 31
0.0
 11
121.892418979674
 21
139.8935870386241
 31
0.0
 11
121.9993936204716
 21
139.7710032184825
 31
0.0
 11
122.1017522933118
 21
139.6445309917139
 31
0.0
 11
122.2145221380077
 21
139.4938830967802
 31
0.0
 11
122.321117778172
 21
139.3388052921412
 31
0.0
 11
122.4213042958168
 21
139.1795266748621
 31
0.0
 11
122.5148614110451
 21
139.0162658445779
 31
0.0
 11
122.6015631589181
 21
138.8492405290736
 31
0.0
 11
122.6811435130413
 21
138.6787060475742
 31
0.0
 11
122.7533267899106
 21
138.5049348849213
 31
0.0
 11
122.8178429164152
 21
138.3281787205842
 31
0.0
 11
122.8728058106641
 21
138.1543956632581
 31
0.0
 11
122.9203340065156
 21
137.9784316193507
 31
0.0
 11
122.9604599138834
 21
137.8006178089782
 31
0.0
 11
122.9932102472071
 21
137.621299523534
 31
0.0
 11
123.0186390372461
 21
137.4406276600798
 31
0.0
 11
123.0367508662193
 21
137.2590762951284
 31
0.0
  0
LEADER
  5
203
330
1F
100
AcDbEntity
  8
1
  6
Continuous
 62
     4
100
AcDbLeader
  3
Standard
 71
     0
 76
     3
 10
181.282920827851
 20
115.394530991645
 30
0.0
 10
188.081321496797
 20
125.452174917449
 30
0.0
 10
220.251410726252
 20
125.452174917449
 30
0.0
  0
ENDSEC
  0
SECTION
  2
OBJECTS
  0
DICTIONARY
  5
C
330
0
100
AcDbDictionary
281
     1
  3
ACAD_GROUP
350
D
  3
ACAD_LAYOUT
350
1A
  3
ACAD_MATERIAL
350
3B
  3
ACAD_MLEADERSTYLE
350
206
  3
ACAD_MLINESTYLE
350
17
  3
ACAD_PLOTSETTINGS
350
19
  3
ACAD_PLOTSTYLENAME
350
E
  3
ACAD_SCALELIST
350
4E
  3
ACAD_VISUALSTYLE
350
2A
  3
AcDbVariableDictionary
350
204
  0
DICTIONARY
  5
D
102
{ACAD_REACTORS
330
C
102
}
330
C
100
AcDbDictionary
281
     1
  0
DICTIONARY
  5
1A
102
{ACAD_REACTORS
330
C
102
}
330
C
100
AcDbDictionary
281
     1
  3
Layout1
350
1E
  3
Layout2
350
26
  3
Model
350
22
  0
DICTIONARY
  5
3B
102
{ACAD_REACTORS
330
C
102
}
330
C
100
AcDbDictionary
281
     1
  3
ByBlock
350
3D
  3
ByLayer
350
3C
  3
Global
350
3E
  0
DICTIONARY
  5
206
102
{ACAD_REACTORS
330
C
102
}
330
C
100
AcDbDictionary
281
     1
  0
DICTIONARY
  5
17
102
{ACAD_REACTORS
330
C
102
}
330
C
100
AcDbDictionary
281
     1
  3
Standard
350
18
  0
DICTIONARY
  5
19
102
{ACAD_REACTORS
330
C
102
}
330
C
100
AcDbDictionary
281
     1
  0
ACDBDICTIONARYWDFLT
  5
E
102
{ACAD_REACTORS
330
C
102
}
330
C
100
AcDbDictionary
281
     1
  3
Normal
350
F
100
AcDbDictionaryWithDefault
340
F
  0
DICTIONARY
  5
4E
102
{ACAD_REACTORS
330
C
102
}
330
C
100
AcDbDictionary
281
     1
  3
A0
350
4F
  3
A1
350
50
  3
A2
350
51
  3
A3
350
52
  3
A4
350
53
  3
A5
350
54
  3
A6
350
55
  3
A7
350
56
  3
A8
350
57
  3
A9
350
58
  3
B0
350
59
  3
B1
350
5A
  3
B2
350
5B
  3
B3
350
5C
  3
B4
350
5D
  3
B5
350
5E
  3
B6
350
5F
  3
B7
350
60
  3
B8
350
61
  3
B9
350
62
  3
C0
350
63
  3
C1
350
64
  3
C2
350
65
  3
C3
350
66
  3
C4
350
67
  3
C5
350
68
  3
C6
350
69
  3
C7
350
6A
  3
C8
350
6B
  3
C9
350
6C
  3
D0
350
6D
  3
D1
350
6E
  3
D2
350
6F
  0
DICTIONARY
  5
2A
102
{ACAD_REACTORS
330
C
102
}
330
C
100
AcDbDictionary
281
     1
  3
2dWireframe
350
2F
  3
3D Hidden
350
31
  3
3dWireframe
350
30
  3
Basic
350
32
  3
Brighten
350
36
  3
ColorChange
350
3A
  3
Conceptual
350
34
  3
Dim
350
35
  3
Facepattern
350
39
  3
Flat
350
2B
  3
FlatWithEdges
350
2C
  3
Gouraud
350
2D
  3
GouraudWithEdges
350
2E
  3
Linepattern
350
38
  3
Realistic
350
33
  3
Thicken
350
37
  0
DICTIONARY
  5
204
102
{ACAD_REACTORS
330
C
102
}
330
C
100
AcDbDictionary
281
     1
  3
CANNOSCALE
350
207
  3
DIMASSOC
350
208
  3
HIDETEXT
350
209
  0
LAYOUT
  5
1E
102
{ACAD_REACTORS
330
1A
102
}
330
1A
100
AcDbPlotSettings
  1

  2
none_device
  4

  6

 40
0.0
 41
0.0
 42
0.0
 43
0.0
 44
0.0
 45
0.0
 46
0.0
 47
0.0
 48
0.0
 49
0.0
140
0.0
141
0.0
142
1.0
143
1.0
 70
   688
 72
     0
 73
     0
 74
     5
  7

 75
    16
147
1.0
148
0.0
149
0.0
100
AcDbLayout
  1
Layout1
 70
     1
 71
     1
 10
0.0
 20
0.0
 11
12.0
 21
9.0
 12
0.0
 22
0.0
 32
0.0
 14
1.00000000000000E+20
 24
1.00000000000000E+20
 34
1.00000000000000E+20
 15
-1.00000000000000E+20
 25
-1.00000000000000E+20
 35
-1.00000000000000E+20
146
0.0
 13
0.0
 23
0.0
 33
0.0
 16
1.0
 26
0.0
 36
0.0
 17
0.0
 27
1.0
 37
0.0
 76
     0
330
1B
  0
LAYOUT
  5
26
102
{ACAD_REACTORS
330
1A
102
}
330
1A
100
AcDbPlotSettings
  1

  2
none_device
  4

  6

 40
0.0
 41
0.0
 42
0.0
 43
0.0
 44
0.0
 45
0.0
 46
0.0
 47
0.0
 48
0.0
 49
0.0
140
0.0
141
0.0
142
1.0
143
1.0
 70
   688
 72
     0
 73
     0
 74
     5
  7

 75
    16
147
1.0
148
0.0
149
0.0
100
AcDbLayout
  1
Layout2
 70
     1
 71
     2
 10
0.0
 20
0.0
 11
0.0
 21
0.0
 12
0.0
 22
0.0
 32
0.0
 14
0.0
 24
0.0
 34
0.0
 15
0.0
 25
0.0
 35
0.0
146
0.0
 13
0.0
 23
0.0
 33
0.0
 16
1.0
 26
0.0
 36
0.0
 17
0.0
 27
1.0
 37
0.0
 76
     0
330
23
  0
LAYOUT
  5
22
102
{ACAD_REACTORS
330
1A
102
}
330
1A
100
AcDbPlotSettings
  1

  2
none_device
  4

  6

 40
0.0
 41
0.0
 42
0.0
 43
0.0
 44
0.0
 45
0.0
 46
0.0
 47
0.0
 48
0.0
 49
0.0
140
0.0
141
0.0
142
1.0
143
1.0
 70
  1712
 72
     0
 73
     0
 74
     0
  7

 75
     0
147
1.0
148
0.0
149
0.0
100
AcDbLayout
  1
Model
 70
     1
 71
     0
 10
0.0
 20
0.0
 11
12.0
 21
9.0
 12
0.0
 22
0.0
 32
0.0
 14
-64.728676083614
 24
63.2021728326086
 34
0.0
 15
220.251410726252
 25
374.439071112191
 35
0.0
146
0.0
 13
0.0
 23
0.0
 33
0.0
 16
1.0
 26
0.0
 36
0.0
 17
0.0
 27
1.0
 37
0.0
 76
     0
330
1F
331
29
  0
MATERIAL
  5
3D
102
{ACAD_REACTORS
330
3B
102
}
102
{ACAD_XDICTIONARY
360
22C
102
}
330
3B
100
AcDbMaterial
  1
ByBlock
  0
MATERIAL
  5
3C
102
{ACAD_REACTORS
330
3B
102
}
102
{ACAD_XDICTIONARY
360
22A
102
}
330
3B
100
AcDbMaterial
  1
ByLayer
  0
MATERIAL
  5
3E
102
{ACAD_REACTORS
330
3B
102
}
102
{ACAD_XDICTIONARY
360
22E
102
}
330
3B
100
AcDbMaterial
  1
Global
  0
MLINESTYLE
  5
18
102
{ACAD_REACTORS
330
17
102
}
330
17
100
AcDbMlineStyle
  2
Standard
 70
     0
  3

 62
   256
 51
90.0
 52
90.0
 71
     2
 49
0.5
 62
   256
  6
BYLAYER
 49
-0.5
 62
   256
  6
BYLAYER
  0
ACDBPLACEHOLDER
  5
F
102
{ACAD_REACTORS
330
E
102
}
330
E
  0
SCALE
  5
4F
102
{ACAD_REACTORS
330
4E
102
}
330
4E
100
AcDbScale
 70
     0
300
1:1
140
1.0
141
1.0
290
     1
  0
SCALE
  5
50
102
{ACAD_REACTORS
330
4E
102
}
330
4E
100
AcDbScale
 70
     0
300
1:2
140
1.0
141
2.0
290
     0
  0
SCALE
  5
51
102
{ACAD_REACTORS
330
4E
102
}
330
4E
100
AcDbScale
 70
     0
300
1:4
140
1.0
141
4.0
290
     0
  0
SCALE
  5
52
102
{ACAD_REACTORS
330
4E
102
}
330
4E
100
AcDbScale
 70
     0
300
1:5
140
1.0
141
5.0
290
     0
  0
SCALE
  5
53
102
{ACAD_REACTORS
330
4E
102
}
330
4E
100
AcDbScale
 70
     0
300
1:8
140
1.0
141
8.0
290
     0
  0
SCALE
  5
54
102
{ACAD_REACTORS
330
4E
102
}
330
4E
100
AcDbScale
 70
     0
300
1:10
140
1.0
141
10.0
290
     0
  0
SCALE
  5
55
102
{ACAD_REACTORS
330
4E
102
}
330
4E
100
AcDbScale
 70
     0
300
1:16
140
1.0
141
16.0
290
     0
  0
SCALE
  5
56
102
{ACAD_REACTORS
330
4E
102
}
330
4E
100
AcDbScale
 70
     0
300
1:20
140
1.0
141
20.0
290
     0
  0
SCALE
  5
57
102
{ACAD_REACTORS
330
4E
102
}
330
4E
100
AcDbScale
 70
     0
300
1:30
140
1.0
141
30.0
290
     0
  0
SCALE
  5
58
102
{ACAD_REACTORS
330
4E
102
}
330
4E
100
AcDbScale
 70
     0
300
1:40
140
1.0
141
40.0
290
     0
  0
SCALE
  5
59
102
{ACAD_REACTORS
330
4E
102
}
330
4E
100
AcDbScale
 70
     0
300
1:50
140
1.0
141
50.0
290
     0
  0
SCALE
  5
5A
102
{ACAD_REACTORS
330
4E
102
}
330
4E
100
AcDbScale
 70
     0
300
1:100
140
1.0
141
100.0
290
     0
  0
SCALE
  5
5B
102
{ACAD_REACTORS
330
4E
102
}
330
4E
100
AcDbScale
 70
     0
300
2:1
140
2.0
141
1.0
290
     0
  0
SCALE
  5
5C
102
{ACAD_REACTORS
330
4E
102
}
330
4E
100
AcDbScale
 70
     0
300
4:1
140
4.0
141
1.0
290
     0
  0
SCALE
  5
5D
102
{ACAD_REACTORS
330
4E
102
}
330
4E
100
AcDbScale
 70
     0
300
8:1
140
8.0
141
1.0
290
     0
  0
SCALE
  5
5E
102
{ACAD_REACTORS
330
4E
102
}
330
4E
100
AcDbScale
 70
     0
300
10:1
140
10.0
141
1.0
290
     0
  0
SCALE
  5
5F
102
{ACAD_REACTORS
330
4E
102
}
330
4E
100
AcDbScale
 70
     0
300
100:1
140
100.0
141
1.0
290
     0
  0
SCALE
  5
60
102
{ACAD_REACTORS
330
4E
102
}
330
4E
100
AcDbScale
 70
     0
300
1/128" = 1'-0"
140
0.0078125
141
12.0
290
     0
  0
SCALE
  5
61
102
{ACAD_REACTORS
330
4E
102
}
330
4E
100
AcDbScale
 70
     0
300
1/64" = 1'-0"
140
0.015625
141
12.0
290
     0
  0
SCALE
  5
62
102
{ACAD_REACTORS
330
4E
102
}
330
4E
100
AcDbScale
 70
     0
300
1/32" = 1'-0"
140
0.03125
141
12.0
290
     0
  0
SCALE
  5
63
102
{ACAD_REACTORS
330
4E
102
}
330
4E
100
AcDbScale
 70
     0
300
1/16" = 1'-0"
140
0.0625
141
12.0
290
     0
  0
SCALE
  5
64
102
{ACAD_REACTORS
330
4E
102
}
330
4E
100
AcDbScale
 70
     0
300
3/32" = 1'-0"
140
0.09375
141
12.0
290
     0
  0
SCALE
  5
65
102
{ACAD_REACTORS
330
4E
102
}
330
4E
100
AcDbScale
 70
     0
300
1/8" = 1'-0"
140
0.125
141
12.0
290
     0
  0
SCALE
  5
66
102
{ACAD_REACTORS
330
4E
102
}
330
4E
100
AcDbScale
 70
     0
300
3/16" = 1'-0"
140
0.1875
141
12.0
290
     0
  0
SCALE
  5
67
102
{ACAD_REACTORS
330
4E
102
}
330
4E
100
AcDbScale
 70
     0
300
1/4" = 1'-0"
140
0.25
141
12.0
290
     0
  0
SCALE
  5
68
102
{ACAD_REACTORS
330
4E
102
}
330
4E
100
AcDbScale
 70
     0
300
3/8" = 1'-0"
140
0.375
141
12.0
290
     0
  0
SCALE
  5
69
102
{ACAD_REACTORS
330
4E
102
}
330
4E
100
AcDbScale
 70
     0
300
1/2" = 1'-0"
140
0.5
141
12.0
290
     0
  0
SCALE
  5
6A
102
{ACAD_REACTORS
330
4E
102
}
330
4E
100
AcDbScale
 70
     0
300
3/4" = 1'-0"
140
0.75
141
12.0
290
     0
  0
SCALE
  5
6B
102
{ACAD_REACTORS
330
4E
102
}
330
4E
100
AcDbScale
 70
     0
300
1" = 1'-0"
140
1.0
141
12.0
290
     0
  0
SCALE
  5
6C
102
{ACAD_REACTORS
330
4E
102
}
330
4E
100
AcDbScale
 70
     0
300
1-1/2" = 1'-0"
140
1.5
141
12.0
290
     0
  0
SCALE
  5
6D
102
{ACAD_REACTORS
330
4E
102
}
330
4E
100
AcDbScale
 70
     0
300
3" = 1'-0"
140
3.0
141
12.0
290
     0
  0
SCALE
  5
6E
102
{ACAD_REACTORS
330
4E
102
}
330
4E
100
AcDbScale
 70
     0
300
6" = 1'-0"
140
6.0
141
12.0
290
     0
  0
SCALE
  5
6F
102
{ACAD_REACTORS
330
4E
102
}
330
4E
100
AcDbScale
 70
     0
300
1'-0" = 1'-0"
140
12.0
141
12.0
290
     0
  0
VISUALSTYLE
  5
2F
102
{ACAD_REACTORS
330
2A
102
}
102
{ACAD_XDICTIONARY
360
212
102
}
330
2A
100
AcDbVisualStyle
  2
2dWireframe
 70
     4
 71
     0
 72
     2
 73
     0
 90
        0
 40
-0.6
 41
-30.0
 62
     5
 63
     7
 74
     1
 91
        4
 64
     7
 65
   257
 75
     1
175
     1
 42
1.0
 92
        0
 66
   257
 43
1.0
 76
     1
 77
     6
 78
     2
 67
     7
 79
     5
170
     0
171
     0
290
     0
174
     0
 93
        1
 44
0.0
173
     0
291
     0
 45
0.0
1001
ACAD
1000
AcDbSavedByObjectVersion
1070
     0
  0
VISUALSTYLE
  5
31
102
{ACAD_REACTORS
330
2A
102
}
102
{ACAD_XDICTIONARY
360
216
102
}
330
2A
100
AcDbVisualStyle
  2
3D Hidden
 70
     6
 71
     1
 72
     2
 73
     2
 90
        0
 40
-0.6
 41
-30.0
 62
     5
 63
     7
 74
     2
 91
        2
 64
     7
 65
   257
 75
     2
175
     1
 42
40.0
 92
        0
 66
   257
 43
1.0
 76
     1
 77
     6
 78
     2
 67
     7
 79
     3
170
     0
171
     0
290
     0
174
     0
 93
        1
 44
0.0
173
     0
291
     0
 45
0.0
1001
ACAD
1000
AcDbSavedByObjectVersion
1070
     0
  0
VISUALSTYLE
  5
30
102
{ACAD_REACTORS
330
2A
102
}
102
{ACAD_XDICTIONARY
360
214
102
}
330
2A
100
AcDbVisualStyle
  2
3dWireframe
 70
     5
 71
     0
 72
     2
 73
     0
 90
        0
 40
-0.6
 41
-30.0
 62
     5
 63
     7
 74
     1
 91
        4
 64
     7
 65
   257
 75
     1
175
     1
 42
1.0
 92
        0
 66
   257
 43
1.0
 76
     1
 77
     6
 78
     2
 67
     7
 79
     5
170
     0
171
     0
290
     0
174
     0
 93
        1
 44
0.0
173
     0
291
     0
 45
0.0
1001
ACAD
1000
AcDbSavedByObjectVersion
1070
     0
  0
VISUALSTYLE
  5
32
102
{ACAD_REACTORS
330
2A
102
}
102
{ACAD_XDICTIONARY
360
218
102
}
330
2A
100
AcDbVisualStyle
  2
Basic
 70
     7
 71
     1
 72
     0
 73
     1
 90
        0
 40
-0.6
 41
-30.0
 62
     5
 63
     7
 74
     0
 91
        4
 64
     7
 65
   257
 75
     1
175
     1
 42
1.0
 92
        8
 66
     7
 43
1.0
 76
     1
 77
     6
 78
     2
 67
     7
 79
     5
170
     0
171
     0
290
     0
174
     0
 93
        1
 44
0.0
173
     0
291
     1
 45
0.0
1001
ACAD
1000
AcDbSavedByObjectVersion
1070
     0
  0
VISUALSTYLE
  5
36
102
{ACAD_REACTORS
330
2A
102
}
102
{ACAD_XDICTIONARY
360
220
102
}
330
2A
100
AcDbVisualStyle
  2
Brighten
 70
    12
 71
     2
 72
     2
 73
     0
 90
        0
 40
-0.6
 41
-30.0
 62
     5
 63
     7
 74
     1
 91
        4
 64
     7
 65
   257
 75
     1
175
     1
 42
1.0
 92
        8
 66
     7
 43
1.0
 76
     1
 77
     6
 78
     2
 67
     7
 79
     5
170
     0
171
     0
290
     0
174
     0
 93
        1
 44
50.0
173
     0
291
     1
 45
0.0
1001
ACAD
1000
AcDbSavedByObjectVersion
1070
     0
  0
VISUALSTYLE
  5
3A
102
{ACAD_REACTORS
330
2A
102
}
102
{ACAD_XDICTIONARY
360
228
102
}
330
2A
100
AcDbVisualStyle
  2
ColorChange
 70
    16
 71
     2
 72
     2
 73
     3
 90
        0
 40
-0.6
 41
-30.0
 62
     5
 63
     8
 74
     1
 91
        4
 64
     7
 65
   257
 75
     1
175
     1
 42
1.0
 92
        8
 66
     8
 43
1.0
 76
     1
 77
     6
 78
     2
 67
     7
 79
     5
170
     0
171
     0
290
     0
174
     0
 93
        1
 44
0.0
173
     0
291
     1
 45
0.0
1001
ACAD
1000
AcDbSavedByObjectVersion
1070
     0
  0
VISUALSTYLE
  5
34
102
{ACAD_REACTORS
330
2A
102
}
102
{ACAD_XDICTIONARY
360
21C
102
}
330
2A
100
AcDbVisualStyle
  2
Conceptual
 70
     9
 71
     3
 72
     2
 73
     0
 90
        0
 40
-0.6
 41
-30.0
 62
     5
 63
     7
 74
     2
 91
        2
 64
     7
 65
   257
 75
     1
175
     1
 42
40.0
 92
        8
 66
     7
 43
1.0
 76
     1
 77
     6
 78
     2
 67
     7
 79
     3
170
     0
171
     0
290
     0
174
     0
 93
        1
 44
0.0
173
     0
291
     0
 45
0.0
1001
ACAD
1000
AcDbSavedByObjectVersion
1070
     0
  0
VISUALSTYLE
  5
35
102
{ACAD_REACTORS
330
2A
102
}
102
{ACAD_XDICTIONARY
360
21E
102
}
330
2A
100
AcDbVisualStyle
  2
Dim
 70
    11
 71
     2
 72
     2
 73
     0
 90
        0
 40
-0.6
 41
-30.0
 62
     5
 63
     7
 74
     1
 91
        4
 64
     7
 65
   257
 75
     1
175
     1
 42
1.0
 92
        8
 66
     7
 43
1.0
 76
     1
 77
     6
 78
     2
 67
     7
 79
     5
170
     0
171
     0
290
     0
174
     0
 93
        1
 44
-50.0
173
     0
291
     1
 45
0.0
1001
ACAD
1000
AcDbSavedByObjectVersion
1070
     0
  0
VISUALSTYLE
  5
39
102
{ACAD_REACTORS
330
2A
102
}
102
{ACAD_XDICTIONARY
360
226
102
}
330
2A
100
AcDbVisualStyle
  2
Facepattern
 70
    15
 71
     2
 72
     2
 73
     0
 90
        0
 40
-0.6
 41
-30.0
 62
     5
 63
     7
 74
     1
 91
        4
 64
     7
 65
   257
 75
     1
175
     1
 42
1.0
 92
        8
 66
     7
 43
1.0
 76
     1
 77
     6
 78
     2
 67
     7
 79
     5
170
     0
171
     0
290
     0
174
     0
 93
        1
 44
0.0
173
     0
291
     1
 45
0.0
1001
ACAD
1000
AcDbSavedByObjectVersion
1070
     0
  0
VISUALSTYLE
  5
2B
102
{ACAD_REACTORS
330
2A
102
}
102
{ACAD_XDICTIONARY
360
20A
102
}
330
2A
100
AcDbVisualStyle
  2
Flat
 70
     0
 71
     2
 72
     1
 73
     1
 90
        2
 40
-0.6
 41
30.0
 62
     5
 63
     7
 74
     0
 91
        4
 64
     7
 65
   257
 75
     1
175
     1
 42
1.0
 92
        8
 66
     7
 43
1.0
 76
     1
 77
     6
 78
     2
 67
     7
 79
     5
170
     0
171
     0
290
     0
174
     0
 93
       13
 44
0.0
173
     0
291
     1
 45
0.0
1001
ACAD
1000
AcDbSavedByObjectVersion
1070
     0
  0
VISUALSTYLE
  5
2C
102
{ACAD_REACTORS
330
2A
102
}
102
{ACAD_XDICTIONARY
360
20C
102
}
330
2A
100
AcDbVisualStyle
  2
FlatWithEdges
 70
     1
 71
     2
 72
     1
 73
     1
 90
        2
 40
-0.6
 41
30.0
 62
     5
 63
     7
 74
     1
 91
        4
 64
     7
 65
   257
 75
     1
175
     1
 42
1.0
 92
        0
 66
   257
 43
1.0
 76
     1
 77
     6
 78
     2
 67
     7
 79
     5
170
     0
171
     0
290
     0
174
     0
 93
       13
 44
0.0
173
     0
291
     1
 45
0.0
1001
ACAD
1000
AcDbSavedByObjectVersion
1070
     0
  0
VISUALSTYLE
  5
2D
102
{ACAD_REACTORS
330
2A
102
}
102
{ACAD_XDICTIONARY
360
20E
102
}
330
2A
100
AcDbVisualStyle
  2
Gouraud
 70
     2
 71
     2
 72
     2
 73
     1
 90
        2
 40
-0.6
 41
30.0
 62
     5
 63
     7
 74
     0
 91
        4
 64
     7
 65
   257
 75
     1
175
     1
 42
1.0
 92
        0
 66
     7
 43
1.0
 76
     1
 77
     6
 78
     2
 67
     7
 79
     5
170
     0
171
     0
290
     0
174
     0
 93
       13
 44
0.0
173
     0
291
     1
 45
0.0
1001
ACAD
1000
AcDbSavedByObjectVersion
1070
     0
  0
VISUALSTYLE
  5
2E
102
{ACAD_REACTORS
330
2A
102
}
102
{ACAD_XDICTIONARY
360
210
102
}
330
2A
100
AcDbVisualStyle
  2
GouraudWithEdges
 70
     3
 71
     2
 72
     2
 73
     1
 90
        2
 40
-0.6
 41
30.0
 62
     5
 63
     7
 74
     1
 91
        4
 64
     7
 65
   257
 75
     1
175
     1
 42
1.0
 92
        0
 66
   257
 43
1.0
 76
     1
 77
     6
 78
     2
 67
     7
 79
     5
170
     0
171
     0
290
     0
174
     0
 93
       13
 44
0.0
173
     0
291
     1
 45
0.0
1001
ACAD
1000
AcDbSavedByObjectVersion
1070
     0
  0
VISUALSTYLE
  5
38
102
{ACAD_REACTORS
330
2A
102
}
102
{ACAD_XDICTIONARY
360
224
102
}
330
2A
100
AcDbVisualStyle
  2
Linepattern
 70
    14
 71
     2
 72
     2
 73
     0
 90
        0
 40
-0.6
 41
-30.0
 62
     5
 63
     7
 74
     1
 91
        4
 64
     7
 65
   257
 75
     7
175
     7
 42
1.0
 92
        8
 66
     7
 43
1.0
 76
     1
 77
     6
 78
     2
 67
     7
 79
     5
170
     0
171
     0
290
     0
174
     0
 93
        1
 44
0.0
173
     0
291
     1
 45
0.0
1001
ACAD
1000
AcDbSavedByObjectVersion
1070
     0
  0
VISUALSTYLE
  5
33
102
{ACAD_REACTORS
330
2A
102
}
102
{ACAD_XDICTIONARY
360
21A
102
}
330
2A
100
AcDbVisualStyle
  2
Realistic
 70
     8
 71
     2
 72
     2
 73
     0
 90
        0
 40
-0.6
 41
-30.0
 62
     5
 63
     7
 74
     1
 91
        0
 64
     7
 65
   257
 75
     1
175
     1
 42
1.0
 92
        8
 66
     8
 43
1.0
 76
     1
 77
     6
 78
     2
 67
     7
 79
     5
170
     0
171
     0
290
     0
174
     0
 93
       13
 44
0.0
173
     0
291
     0
 45
0.0
1001
ACAD
1000
AcDbSavedByObjectVersion
1070
     0
  0
VISUALSTYLE
  5
37
102
{ACAD_REACTORS
330
2A
102
}
102
{ACAD_XDICTIONARY
360
222
102
}
330
2A
100
AcDbVisualStyle
  2
Thicken
 70
    13
 71
     2
 72
     2
 73
     0
 90
        0
 40
-0.6
 41
-30.0
 62
     5
 63
     7
 74
     1
 91
        4
 64
     7
 65
   257
 75
     1
175
     1
 42
1.0
 92
       12
 66
     7
 43
1.0
 76
     1
 77
     6
 78
     2
 67
     7
 79
     5
170
     0
171
     0
290
     0
174
     0
 93
        1
 44
0.0
173
     0
291
     1
 45
0.0
1001
ACAD
1000
AcDbSavedByObjectVersion
1070
     0
  0
DICTIONARYVAR
  5
207
102
{ACAD_REACTORS
330
204
102
}
330
204
100
DictionaryVariables
280
     0
  1
1:1
  0
DICTIONARYVAR
  5
208
102
{ACAD_REACTORS
330
204
102
}
330
204
100
DictionaryVariables
280
     0
  1
2
  0
DICTIONARYVAR
  5
209
102
{ACAD_REACTORS
330
204
102
}
330
204
100
DictionaryVariables
280
     0
  1
1
  0
DICTIONARY
  5
22C
330
3D
100
AcDbDictionary
280
     1
281
     1
  3
ACAD_XREC_ROUNDTRIP
360
22D
  0
DICTIONARY
  5
22A
330
3C
100
AcDbDictionary
280
     1
281
     1
  3
ACAD_XREC_ROUNDTRIP
360
22B
  0
DICTIONARY
  5
22E
330
3E
100
AcDbDictionary
280
     1
281
     1
  3
ACAD_XREC_ROUNDTRIP
360
22F
  0
DICTIONARY
  5
212
330
2F
100
AcDbDictionary
280
     1
281
     1
  3
ACAD_XREC_ROUNDTRIP
360
213
  0
DICTIONARY
  5
216
330
31
100
AcDbDictionary
280
     1
281
     1
  3
ACAD_XREC_ROUNDTRIP
360
217
  0
DICTIONARY
  5
214
330
30
100
AcDbDictionary
280
     1
281
     1
  3
ACAD_XREC_ROUNDTRIP
360
215
  0
DICTIONARY
  5
218
330
32
100
AcDbDictionary
280
     1
281
     1
  3
ACAD_XREC_ROUNDTRIP
360
219
  0
DICTIONARY
  5
220
330
36
100
AcDbDictionary
280
     1
281
     1
  3
ACAD_XREC_ROUNDTRIP
360
221
  0
DICTIONARY
  5
228
330
3A
100
AcDbDictionary
280
     1
281
     1
  3
ACAD_XREC_ROUNDTRIP
360
229
  0
DICTIONARY
  5
21C
330
34
100
AcDbDictionary
280
     1
281
     1
  3
ACAD_XREC_ROUNDTRIP
360
21D
  0
DICTIONARY
  5
21E
330
35
100
AcDbDictionary
280
     1
281
     1
  3
ACAD_XREC_ROUNDTRIP
360
21F
  0
DICTIONARY
  5
226
330
39
100
AcDbDictionary
280
     1
281
     1
  3
ACAD_XREC_ROUNDTRIP
360
227
  0
DICTIONARY
  5
20A
330
2B
100
AcDbDictionary
280
     1
281
     1
  3
ACAD_XREC_ROUNDTRIP
360
20B
  0
DICTIONARY
  5
20C
330
2C
100
AcDbDictionary
280
     1
281
     1
  3
ACAD_XREC_ROUNDTRIP
360
20D
  0
DICTIONARY
  5
20E
330
2D
100
AcDbDictionary
280
     1
281
     1
  3
ACAD_XREC_ROUNDTRIP
360
20F
  0
DICTIONARY
  5
210
330
2E
100
AcDbDictionary
280
     1
281
     1
  3
ACAD_XREC_ROUNDTRIP
360
211
  0
DICTIONARY
  5
224
330
38
100
AcDbDictionary
280
     1
281
     1
  3
ACAD_XREC_ROUNDTRIP
360
225
  0
DICTIONARY
  5
21A
330
33
100
AcDbDictionary
280
     1
281
     1
  3
ACAD_XREC_ROUNDTRIP
360
21B
  0
DICTIONARY
  5
222
330
37
100
AcDbDictionary
280
     1
281
     1
  3
ACAD_XREC_ROUNDTRIP
360
223
  0
XRECORD
  5
22D
102
{ACAD_REACTORS
330
22C
102
}
330
22C
100
AcDbXrecord
280
     1
102
MATERIAL
148
0.0
149
0.0
149
0.0
 93
        0
 94
      127
282
     0
 72
     1
 77
     1
171
     1
175
     1
179
     1
273
     0
  0
XRECORD
  5
22B
102
{ACAD_REACTORS
330
22A
102
}
330
22A
100
AcDbXrecord
280
     1
102
MATERIAL
148
0.0
149
0.0
149
0.0
 93
        0
 94
      127
282
     0
 72
     1
 77
     1
171
     1
175
     1
179
     1
273
     0
  0
XRECORD
  5
22F
102
{ACAD_REACTORS
330
22E
102
}
330
22E
100
AcDbXrecord
280
     1
102
MATERIAL
148
0.0
149
0.0
149
0.0
 93
        0
 94
      127
282
     0
 72
     1
 77
     1
171
     1
175
     1
179
     1
273
     0
  0
XRECORD
  5
213
102
{ACAD_REACTORS
330
212
102
}
330
212
100
AcDbXrecord
280
     1
102
RTVSPropertyOp0
 70
     1
102
RTVSPropertyOp1
 70
     1
102
RTVSPropertyOp2
 70
     1
102
RTVSPropertyOp3
 70
     1
102
RTVSPropertyOp4
 70
     1
102
RTVSPropertyOp5
 70
     1
102
RTVSPropertyOp6
 70
     1
102
RTVSPropertyOp7
 70
     1
102
RTVSPropertyOp8
 70
     1
102
RTVSPropertyOp9
 70
     1
102
RTVSPropertyOp10
 70
     1
102
RTVSPropertyOp11
 70
     1
102
RTVSPropertyOp12
 70
     1
102
RTVSPropertyOp13
 70
     1
102
RTVSPropertyOp14
 70
     1
102
RTVSPropertyOp15
 70
     1
102
RTVSPropertyOp16
 70
     1
102
RTVSPropertyOp17
 70
     1
102
RTVSPropertyOp18
 70
     1
102
RTVSPropertyOp19
 70
     1
102
RTVSPropertyOp20
 70
     1
102
RTVSPropertyOp21
 70
     1
102
RTVSPropertyOp22
 70
     1
102
RTVSPropertyOp23
 70
     1
102
RTVSPropertyOp24
 70
     1
102
RTVSPropertyOp25
 70
     1
102
RTVSPropertyOp26
 70
     1
102
RTVSPropertyOp27
 70
     1
  0
XRECORD
  5
217
102
{ACAD_REACTORS
330
216
102
}
330
216
100
AcDbXrecord
280
     1
102
RTVSPropertyOp0
 70
     1
102
RTVSPropertyOp1
 70
     1
102
RTVSPropertyOp2
 70
     1
102
RTVSPropertyOp3
 70
     1
102
RTVSPropertyOp4
 70
     1
102
RTVSPropertyOp5
 70
     1
102
RTVSPropertyOp6
 70
     1
102
RTVSPropertyOp7
 70
     1
102
RTVSPropertyOp8
 70
     1
102
RTVSPropertyOp9
 70
     1
102
RTVSPropertyOp10
 70
     1
102
RTVSPropertyOp11
 70
     1
102
RTVSPropertyOp12
 70
     1
102
RTVSPropertyOp13
 70
     1
102
RTVSPropertyOp14
 70
     1
102
RTVSPropertyOp15
 70
     1
102
RTVSPropertyOp16
 70
     1
102
RTVSPropertyOp17
 70
     1
102
RTVSPropertyOp18
 70
     1
102
RTVSPropertyOp19
 70
     1
102
RTVSPropertyOp20
 70
     1
102
RTVSPropertyOp21
 70
     1
102
RTVSPropertyOp22
 70
     1
102
RTVSPropertyOp23
 70
     1
102
RTVSPropertyOp24
 70
     1
102
RTVSPropertyOp25
 70
     1
102
RTVSPropertyOp26
 70
     1
102
RTVSPropertyOp27
 70
     1
  0
XRECORD
  5
215
102
{ACAD_REACTORS
330
214
102
}
330
214
100
AcDbXrecord
280
     1
102
RTVSPropertyOp0
 70
     1
102
RTVSPropertyOp1
 70
     1
102
RTVSPropertyOp2
 70
     1
102
RTVSPropertyOp3
 70
     1
102
RTVSPropertyOp4
 70
     1
102
RTVSPropertyOp5
 70
     1
102
RTVSPropertyOp6
 70
     1
102
RTVSPropertyOp7
 70
     1
102
RTVSPropertyOp8
 70
     1
102
RTVSPropertyOp9
 70
     1
102
RTVSPropertyOp10
 70
     1
102
RTVSPropertyOp11
 70
     1
102
RTVSPropertyOp12
 70
     1
102
RTVSPropertyOp13
 70
     1
102
RTVSPropertyOp14
 70
     1
102
RTVSPropertyOp15
 70
     1
102
RTVSPropertyOp16
 70
     1
102
RTVSPropertyOp17
 70
     1
102
RTVSPropertyOp18
 70
     1
102
RTVSPropertyOp19
 70
     1
102
RTVSPropertyOp20
 70
     1
102
RTVSPropertyOp21
 70
     1
102
RTVSPropertyOp22
 70
     1
102
RTVSPropertyOp23
 70
     1
102
RTVSPropertyOp24
 70
     1
102
RTVSPropertyOp25
 70
     1
102
RTVSPropertyOp26
 70
     1
102
RTVSPropertyOp27
 70
     1
  0
XRECORD
  5
219
102
{ACAD_REACTORS
330
218
102
}
330
218
100
AcDbXrecord
280
     1
102
RTVSPropertyOp0
 70
     1
102
RTVSPropertyOp1
 70
     1
102
RTVSPropertyOp2
 70
     1
102
RTVSPropertyOp3
 70
     1
102
RTVSPropertyOp4
 70
     1
102
RTVSPropertyOp5
 70
     1
102
RTVSPropertyOp6
 70
     1
102
RTVSPropertyOp7
 70
     1
102
RTVSPropertyOp8
 70
     1
102
RTVSPropertyOp9
 70
     1
102
RTVSPropertyOp10
 70
     1
102
RTVSPropertyOp11
 70
     1
102
RTVSPropertyOp12
 70
     1
102
RTVSPropertyOp13
 70
     1
102
RTVSPropertyOp14
 70
     1
102
RTVSPropertyOp15
 70
     1
102
RTVSPropertyOp16
 70
     1
102
RTVSPropertyOp17
 70
     1
102
RTVSPropertyOp18
 70
     1
102
RTVSPropertyOp19
 70
     1
102
RTVSPropertyOp20
 70
     1
102
RTVSPropertyOp21
 70
     1
102
RTVSPropertyOp22
 70
     1
102
RTVSPropertyOp23
 70
     1
102
RTVSPropertyOp24
 70
     1
102
RTVSPropertyOp25
 70
     1
102
RTVSPropertyOp26
 70
     1
102
RTVSPropertyOp27
 70
     1
  0
XRECORD
  5
221
102
{ACAD_REACTORS
330
220
102
}
330
220
100
AcDbXrecord
280
     1
102
RTVSPropertyOp0
 70
     1
102
RTVSPropertyOp1
 70
     1
102
RTVSPropertyOp2
 70
     1
102
RTVSPropertyOp3
 70
     1
102
RTVSPropertyOp4
 70
     1
102
RTVSPropertyOp5
 70
     1
102
RTVSPropertyOp6
 70
     1
102
RTVSPropertyOp7
 70
     1
102
RTVSPropertyOp8
 70
     1
102
RTVSPropertyOp9
 70
     1
102
RTVSPropertyOp10
 70
     1
102
RTVSPropertyOp11
 70
     1
102
RTVSPropertyOp12
 70
     1
102
RTVSPropertyOp13
 70
     1
102
RTVSPropertyOp14
 70
     1
102
RTVSPropertyOp15
 70
     1
102
RTVSPropertyOp16
 70
     1
102
RTVSPropertyOp17
 70
     1
102
RTVSPropertyOp18
 70
     1
102
RTVSPropertyOp19
 70
     1
102
RTVSPropertyOp20
 70
     1
102
RTVSPropertyOp21
 70
     1
102
RTVSPropertyOp22
 70
     1
102
RTVSPropertyOp23
 70
     1
102
RTVSPropertyOp24
 70
     1
102
RTVSPropertyOp25
 70
     1
102
RTVSPropertyOp26
 70
     1
102
RTVSPropertyOp27
 70
     1
  0
XRECORD
  5
229
102
{ACAD_REACTORS
330
228
102
}
330
228
100
AcDbXrecord
280
     1
102
RTVSPropertyOp0
 70
     1
102
RTVSPropertyOp1
 70
     1
102
RTVSPropertyOp2
 70
     1
102
RTVSPropertyOp3
 70
     1
102
RTVSPropertyOp4
 70
     1
102
RTVSPropertyOp5
 70
     1
102
RTVSPropertyOp6
 70
     1
102
RTVSPropertyOp7
 70
     1
102
RTVSPropertyOp8
 70
     1
102
RTVSPropertyOp9
 70
     1
102
RTVSPropertyOp10
 70
     1
102
RTVSPropertyOp11
 70
     1
102
RTVSPropertyOp12
 70
     1
102
RTVSPropertyOp13
 70
     1
102
RTVSPropertyOp14
 70
     1
102
RTVSPropertyOp15
 70
     1
102
RTVSPropertyOp16
 70
     1
102
RTVSPropertyOp17
 70
     1
102
RTVSPropertyOp18
 70
     1
102
RTVSPropertyOp19
 70
     1
102
RTVSPropertyOp20
 70
     1
102
RTVSPropertyOp21
 70
     1
102
RTVSPropertyOp22
 70
     1
102
RTVSPropertyOp23
 70
     1
102
RTVSPropertyOp24
 70
     1
102
RTVSPropertyOp25
 70
     1
102
RTVSPropertyOp26
 70
     1
102
RTVSPropertyOp27
 70
     1
  0
XRECORD
  5
21D
102
{ACAD_REACTORS
330
21C
102
}
330
21C
100
AcDbXrecord
280
     1
102
RTVSPropertyOp0
 70
     1
102
RTVSPropertyOp1
 70
     1
102
RTVSPropertyOp2
 70
     1
102
RTVSPropertyOp3
 70
     1
102
RTVSPropertyOp4
 70
     1
102
RTVSPropertyOp5
 70
     1
102
RTVSPropertyOp6
 70
     1
102
RTVSPropertyOp7
 70
     1
102
RTVSPropertyOp8
 70
     1
102
RTVSPropertyOp9
 70
     1
102
RTVSPropertyOp10
 70
     1
102
RTVSPropertyOp11
 70
     1
102
RTVSPropertyOp12
 70
     1
102
RTVSPropertyOp13
 70
     1
102
RTVSPropertyOp14
 70
     1
102
RTVSPropertyOp15
 70
     1
102
RTVSPropertyOp16
 70
     1
102
RTVSPropertyOp17
 70
     1
102
RTVSPropertyOp18
 70
     1
102
RTVSPropertyOp19
 70
     1
102
RTVSPropertyOp20
 70
     1
102
RTVSPropertyOp21
 70
     1
102
RTVSPropertyOp22
 70
     1
102
RTVSPropertyOp23
 70
     1
102
RTVSPropertyOp24
 70
     1
102
RTVSPropertyOp25
 70
     1
102
RTVSPropertyOp26
 70
     1
102
RTVSPropertyOp27
 70
     1
  0
XRECORD
  5
21F
102
{ACAD_REACTORS
330
21E
102
}
330
21E
100
AcDbXrecord
280
     1
102
RTVSPropertyOp0
 70
     1
102
RTVSPropertyOp1
 70
     1
102
RTVSPropertyOp2
 70
     1
102
RTVSPropertyOp3
 70
     1
102
RTVSPropertyOp4
 70
     1
102
RTVSPropertyOp5
 70
     1
102
RTVSPropertyOp6
 70
     1
102
RTVSPropertyOp7
 70
     1
102
RTVSPropertyOp8
 70
     1
102
RTVSPropertyOp9
 70
     1
102
RTVSPropertyOp10
 70
     1
102
RTVSPropertyOp11
 70
     1
102
RTVSPropertyOp12
 70
     1
102
RTVSPropertyOp13
 70
     1
102
RTVSPropertyOp14
 70
     1
102
RTVSPropertyOp15
 70
     1
102
RTVSPropertyOp16
 70
     1
102
RTVSPropertyOp17
 70
     1
102
RTVSPropertyOp18
 70
     1
102
RTVSPropertyOp19
 70
     1
102
RTVSPropertyOp20
 70
     1
102
RTVSPropertyOp21
 70
     1
102
RTVSPropertyOp22
 70
     1
102
RTVSPropertyOp23
 70
     1
102
RTVSPropertyOp24
 70
     1
102
RTVSPropertyOp25
 70
     1
102
RTVSPropertyOp26
 70
     1
102
RTVSPropertyOp27
 70
     1
  0
XRECORD
  5
227
102
{ACAD_REACTORS
330
226
102
}
330
226
100
AcDbXrecord
280
     1
102
RTVSPropertyOp0
 70
     1
102
RTVSPropertyOp1
 70
     1
102
RTVSPropertyOp2
 70
     1
102
RTVSPropertyOp3
 70
     1
102
RTVSPropertyOp4
 70
     1
102
RTVSPropertyOp5
 70
     1
102
RTVSPropertyOp6
 70
     1
102
RTVSPropertyOp7
 70
     1
102
RTVSPropertyOp8
 70
     1
102
RTVSPropertyOp9
 70
     1
102
RTVSPropertyOp10
 70
     1
102
RTVSPropertyOp11
 70
     1
102
RTVSPropertyOp12
 70
     1
102
RTVSPropertyOp13
 70
     1
102
RTVSPropertyOp14
 70
     1
102
RTVSPropertyOp15
 70
     1
102
RTVSPropertyOp16
 70
     1
102
RTVSPropertyOp17
 70
     1
102
RTVSPropertyOp18
 70
     1
102
RTVSPropertyOp19
 70
     1
102
RTVSPropertyOp20
 70
     1
102
RTVSPropertyOp21
 70
     1
102
RTVSPropertyOp22
 70
     1
102
RTVSPropertyOp23
 70
     1
102
RTVSPropertyOp24
 70
     1
102
RTVSPropertyOp25
 70
     1
102
RTVSPropertyOp26
 70
     1
102
RTVSPropertyOp27
 70
     1
  0
XRECORD
  5
20B
102
{ACAD_REACTORS
330
20A
102
}
330
20A
100
AcDbXrecord
280
     1
102
RTVSPropertyOp0
 70
     1
102
RTVSPropertyOp1
 70
     1
102
RTVSPropertyOp2
 70
     1
102
RTVSPropertyOp3
 70
     1
102
RTVSPropertyOp4
 70
     1
102
RTVSPropertyOp5
 70
     1
102
RTVSPropertyOp6
 70
     1
102
RTVSPropertyOp7
 70
     1
102
RTVSPropertyOp8
 70
     1
102
RTVSPropertyOp9
 70
     1
102
RTVSPropertyOp10
 70
     1
102
RTVSPropertyOp11
 70
     1
102
RTVSPropertyOp12
 70
     1
102
RTVSPropertyOp13
 70
     1
102
RTVSPropertyOp14
 70
     1
102
RTVSPropertyOp15
 70
     1
102
RTVSPropertyOp16
 70
     1
102
RTVSPropertyOp17
 70
     1
102
RTVSPropertyOp18
 70
     1
102
RTVSPropertyOp19
 70
     1
102
RTVSPropertyOp20
 70
     1
102
RTVSPropertyOp21
 70
     1
102
RTVSPropertyOp22
 70
     1
102
RTVSPropertyOp23
 70
     1
102
RTVSPropertyOp24
 70
     1
102
RTVSPropertyOp25
 70
     1
102
RTVSPropertyOp26
 70
     1
102
RTVSPropertyOp27
 70
     1
  0
XRECORD
  5
20D
102
{ACAD_REACTORS
330
20C
102
}
330
20C
100
AcDbXrecord
280
     1
102
RTVSPropertyOp0
 70
     1
102
RTVSPropertyOp1
 70
     1
102
RTVSPropertyOp2
 70
     1
102
RTVSPropertyOp3
 70
     1
102
RTVSPropertyOp4
 70
     1
102
RTVSPropertyOp5
 70
     1
102
RTVSPropertyOp6
 70
     1
102
RTVSPropertyOp7
 70
     1
102
RTVSPropertyOp8
 70
     1
102
RTVSPropertyOp9
 70
     1
102
RTVSPropertyOp10
 70
     1
102
RTVSPropertyOp11
 70
     1
102
RTVSPropertyOp12
 70
     1
102
RTVSPropertyOp13
 70
     1
102
RTVSPropertyOp14
 70
     1
102
RTVSPropertyOp15
 70
     1
102
RTVSPropertyOp16
 70
     1
102
RTVSPropertyOp17
 70
     1
102
RTVSPropertyOp18
 70
     1
102
RTVSPropertyOp19
 70
     1
102
RTVSPropertyOp20
 70
     1
102
RTVSPropertyOp21
 70
     1
102
RTVSPropertyOp22
 70
     1
102
RTVSPropertyOp23
 70
     1
102
RTVSPropertyOp24
 70
     1
102
RTVSPropertyOp25
 70
     1
102
RTVSPropertyOp26
 70
     1
102
RTVSPropertyOp27
 70
     1
  0
XRECORD
  5
20F
102
{ACAD_REACTORS
330
20E
102
}
330
20E
100
AcDbXrecord
280
     1
102
RTVSPropertyOp0
 70
     1
102
RTVSPropertyOp1
 70
     1
102
RTVSPropertyOp2
 70
     1
102
RTVSPropertyOp3
 70
     1
102
RTVSPropertyOp4
 70
     1
102
RTVSPropertyOp5
 70
     1
102
RTVSPropertyOp6
 70
     1
102
RTVSPropertyOp7
 70
     1
102
RTVSPropertyOp8
 70
     1
102
RTVSPropertyOp9
 70
     1
102
RTVSPropertyOp10
 70
     1
102
RTVSPropertyOp11
 70
     1
102
RTVSPropertyOp12
 70
     1
102
RTVSPropertyOp13
 70
     1
102
RTVSPropertyOp14
 70
     1
102
RTVSPropertyOp15
 70
     1
102
RTVSPropertyOp16
 70
     1
102
RTVSPropertyOp17
 70
     1
102
RTVSPropertyOp18
 70
     1
102
RTVSPropertyOp19
 70
     1
102
RTVSPropertyOp20
 70
     1
102
RTVSPropertyOp21
 70
     1
102
RTVSPropertyOp22
 70
     1
102
RTVSPropertyOp23
 70
     1
102
RTVSPropertyOp24
 70
     1
102
RTVSPropertyOp25
 70
     1
102
RTVSPropertyOp26
 70
     1
102
RTVSPropertyOp27
 70
     1
  0
XRECORD
  5
211
102
{ACAD_REACTORS
330
210
102
}
330
210
100
AcDbXrecord
280
     1
102
RTVSPropertyOp0
 70
     1
102
RTVSPropertyOp1
 70
     1
102
RTVSPropertyOp2
 70
     1
102
RTVSPropertyOp3
 70
     1
102
RTVSPropertyOp4
 70
     1
102
RTVSPropertyOp5
 70
     1
102
RTVSPropertyOp6
 70
     1
102
RTVSPropertyOp7
 70
     1
102
RTVSPropertyOp8
 70
     1
102
RTVSPropertyOp9
 70
     1
102
RTVSPropertyOp10
 70
     1
102
RTVSPropertyOp11
 70
     1
102
RTVSPropertyOp12
 70
     1
102
RTVSPropertyOp13
 70
     1
102
RTVSPropertyOp14
 70
     1
102
RTVSPropertyOp15
 70
     1
102
RTVSPropertyOp16
 70
     1
102
RTVSPropertyOp17
 70
     1
102
RTVSPropertyOp18
 70
     1
102
RTVSPropertyOp19
 70
     1
102
RTVSPropertyOp20
 70
     1
102
RTVSPropertyOp21
 70
     1
102
RTVSPropertyOp22
 70
     1
102
RTVSPropertyOp23
 70
     1
102
RTVSPropertyOp24
 70
     1
102
RTVSPropertyOp25
 70
     1
102
RTVSPropertyOp26
 70
     1
102
RTVSPropertyOp27
 70
     1
  0
XRECORD
  5
225
102
{ACAD_REACTORS
330
224
102
}
330
224
100
AcDbXrecord
280
     1
102
RTVSPropertyOp0
 70
     1
102
RTVSPropertyOp1
 70
     1
102
RTVSPropertyOp2
 70
     1
102
RTVSPropertyOp3
 70
     1
102
RTVSPropertyOp4
 70
     1
102
RTVSPropertyOp5
 70
     1
102
RTVSPropertyOp6
 70
     1
102
RTVSPropertyOp7
 70
     1
102
RTVSPropertyOp8
 70
     1
102
RTVSPropertyOp9
 70
     1
102
RTVSPropertyOp10
 70
     1
102
RTVSPropertyOp11
 70
     1
102
RTVSPropertyOp12
 70
     1
102
RTVSPropertyOp13
 70
     1
102
RTVSPropertyOp14
 70
     1
102
RTVSPropertyOp15
 70
     1
102
RTVSPropertyOp16
 70
     1
102
RTVSPropertyOp17
 70
     1
102
RTVSPropertyOp18
 70
     1
102
RTVSPropertyOp19
 70
     1
102
RTVSPropertyOp20
 70
     1
102
RTVSPropertyOp21
 70
     1
102
RTVSPropertyOp22
 70
     1
102
RTVSPropertyOp23
 70
     1
102
RTVSPropertyOp24
 70
     1
102
RTVSPropertyOp25
 70
     1
102
RTVSPropertyOp26
 70
     1
102
RTVSPropertyOp27
 70
     1
  0
XRECORD
  5
21B
102
{ACAD_REACTORS
330
21A
102
}
330
21A
100
AcDbXrecord
280
     1
102
RTVSPropertyOp0
 70
     1
102
RTVSPropertyOp1
 70
     1
102
RTVSPropertyOp2
 70
     1
102
RTVSPropertyOp3
 70
     1
102
RTVSPropertyOp4
 70
     1
102
RTVSPropertyOp5
 70
     1
102
RTVSPropertyOp6
 70
     1
102
RTVSPropertyOp7
 70
     1
102
RTVSPropertyOp8
 70
     1
102
RTVSPropertyOp9
 70
     1
102
RTVSPropertyOp10
 70
     1
102
RTVSPropertyOp11
 70
     1
102
RTVSPropertyOp12
 70
     1
102
RTVSPropertyOp13
 70
     1
102
RTVSPropertyOp14
 70
     1
102
RTVSPropertyOp15
 70
     1
102
RTVSPropertyOp16
 70
     1
102
RTVSPropertyOp17
 70
     1
102
RTVSPropertyOp18
 70
     1
102
RTVSPropertyOp19
 70
     1
102
RTVSPropertyOp20
 70
     1
102
RTVSPropertyOp21
 70
     1
102
RTVSPropertyOp22
 70
     1
102
RTVSPropertyOp23
 70
     1
102
RTVSPropertyOp24
 70
     1
102
RTVSPropertyOp25
 70
     1
102
RTVSPropertyOp26
 70
     1
102
RTVSPropertyOp27
 70
     1
  0
XRECORD
  5
223
102
{ACAD_REACTORS
330
222
102
}
330
222
100
AcDbXrecord
280
     1
102
RTVSPropertyOp0
 70
     1
102
RTVSPropertyOp1
 70
     1
102
RTVSPropertyOp2
 70
     1
102
RTVSPropertyOp3
 70
     1
102
RTVSPropertyOp4
 70
     1
102
RTVSPropertyOp5
 70
     1
102
RTVSPropertyOp6
 70
     1
102
RTVSPropertyOp7
 70
     1
102
RTVSPropertyOp8
 70
     1
102
RTVSPropertyOp9
 70
     1
102
RTVSPropertyOp10
 70
     1
102
RTVSPropertyOp11
 70
     1
102
RTVSPropertyOp12
 70
     1
102
RTVSPropertyOp13
 70
     1
102
RTVSPropertyOp14
 70
     1
102
RTVSPropertyOp15
 70
     1
102
RTVSPropertyOp16
 70
     1
102
RTVSPropertyOp17
 70
     1
102
RTVSPropertyOp18
 70
     1
102
RTVSPropertyOp19
 70
     1
102
RTVSPropertyOp20
 70
     1
102
RTVSPropertyOp21
 70
     1
102
RTVSPropertyOp22
 70
     1
102
RTVSPropertyOp23
 70
     1
102
RTVSPropertyOp24
 70
     1
102
RTVSPropertyOp25
 70
     1
102
RTVSPropertyOp26
 70
     1
102
RTVSPropertyOp27
 70
     1
  0
ENDSEC
  0
EOF
