  0
SECTION
  2
HEADER
  9
$ACADVER
  1
AC1015
  9
$ACADMAINTVER
 70
     6
  9
$DWGCODEPAGE
  3
ANSI_932
  9
$INSBASE
 10
0.0
 20
0.0
 30
0.0
  9
$EXTMIN
 10
64.5980963743049
 20
-127.815611140842
 30
0.0
  9
$EXTMAX
 10
259.0
 20
61.2096326204652
 30
0.0
  9
$LIMMIN
 10
0.0
 20
0.0
  9
$LIMMAX
 10
12.0
 20
9.0
  9
$ORTHOMODE
 70
     0
  9
$REGENMODE
 70
     1
  9
$FILLMODE
 70
     1
  9
$QTEXTMODE
 70
     0
  9
$MIRRTEXT
 70
     1
  9
$LTSCALE
 40
1.0
  9
$ATTMODE
 70
     1
  9
$TEXTSIZE
 40
0.2
  9
$TRACEWID
 40
0.05
  9
$TEXTSTYLE
  7
Standard
  9
$CLAYER
  8
0
  9
$CELTYPE
  6
ByLayer
  9
$CECOLOR
 62
   256
  9
$CELTSCALE
 40
1.0
  9
$DISPSILH
 70
     0
  9
$DIMSCALE
 40
1.0
  9
$DIMASZ
 40
0.18
  9
$DIMEXO
 40
0.0625
  9
$DIMDLI
 40
0.38
  9
$DIMRND
 40
0.0
  9
$DIMDLE
 40
0.0
  9
$DIMEXE
 40
0.18
  9
$DIMTP
 40
0.0
  9
$DIMTM
 40
0.0
  9
$DIMTXT
 40
0.18
  9
$DIMCEN
 40
0.09
  9
$DIMTSZ
 40
0.0
  9
$DIMTOL
 70
     0
  9
$DIMLIM
 70
     0
  9
$DIMTIH
 70
     1
  9
$DIMTOH
 70
     1
  9
$DIMSE1
 70
     0
  9
$DIMSE2
 70
     0
  9
$DIMTAD
 70
     0
  9
$DIMZIN
 70
     0
  9
$DIMBLK
  1

  9
$DIMASO
 70
     1
  9
$DIMSHO
 70
     1
  9
$DIMPOST
  1

  9
$DIMAPOST
  1

  9
$DIMALT
 70
     0
  9
$DIMALTD
 70
     2
  9
$DIMALTF
 40
25.4
  9
$DIMLFAC
 40
1.0
  9
$DIMTOFL
 70
     0
  9
$DIMTVP
 40
0.0
  9
$DIMTIX
 70
     0
  9
$DIMSOXD
 70
     0
  9
$DIMSAH
 70
     0
  9
$DIMBLK1
  1

  9
$DIMBLK2
  1

  9
$DIMSTYLE
  2
Standard
  9
$DIMCLRD
 70
     0
  9
$DIMCLRE
 70
     0
  9
$DIMCLRT
 70
     0
  9
$DIMTFAC
 40
1.0
  9
$DIMGAP
 40
0.09
  9
$DIMJUST
 70
     0
  9
$DIMSD1
 70
     0
  9
$DIMSD2
 70
     0
  9
$DIMTOLJ
 70
     1
  9
$DIMTZIN
 70
     0
  9
$DIMALTZ
 70
     0
  9
$DIMALTTZ
 70
     0
  9
$DIMUPT
 70
     0
  9
$DIMDEC
 70
     4
  9
$DIMTDEC
 70
     4
  9
$DIMALTU
 70
     2
  9
$DIMALTTD
 70
     2
  9
$DIMTXSTY
  7
Standard
  9
$DIMAUNIT
 70
     0
  9
$DIMADEC
 70
     0
  9
$DIMALTRND
 40
0.0
  9
$DIMAZIN
 70
     0
  9
$DIMDSEP
 70
    46
  9
$DIMATFIT
 70
     3
  9
$DIMFRAC
 70
     0
  9
$DIMLDRBLK
  1

  9
$DIMLUNIT
 70
     2
  9
$DIMLWD
 70
    -2
  9
$DIMLWE
 70
    -2
  9
$DIMTMOVE
 70
     0
  9
$LUNITS
 70
     2
  9
$LUPREC
 70
     4
  9
$SKETCHINC
 40
0.1
  9
$FILLETRAD
 40
0.5
  9
$AUNITS
 70
     0
  9
$AUPREC
 70
     0
  9
$MENU
  1
.
  9
$ELEVATION
 40
0.0
  9
$PELEVATION
 40
0.0
  9
$THICKNESS
 40
0.0
  9
$LIMCHECK
 70
     0
  9
$CHAMFERA
 40
0.5
  9
$CHAMFERB
 40
0.5
  9
$CHAMFERC
 40
1.0
  9
$CHAMFERD
 40
0.0
  9
$SKPOLY
 70
     0
  9
$TDCREATE
 40
2457624.659444433
  9
$TDUCREATE
 40
2457624.284444433
  9
$TDUPDATE
 40
2457624.659444444
  9
$TDUUPDATE
 40
2457624.284444444
  9
$TDINDWG
 40
0.0000000116
  9
$TDUSRTIMER
 40
0.0000000116
  9
$USRTIMER
 70
     1
  9
$ANGBASE
 50
0.0
  9
$ANGDIR
 70
     0
  9
$PDMODE
 70
     0
  9
$PDSIZE
 40
0.0
  9
$PLINEWID
 40
0.0
  9
$SPLFRAME
 70
     0
  9
$SPLINETYPE
 70
     6
  9
$SPLINESEGS
 70
     8
  9
$HANDSEED
  5
23E
  9
$SURFTAB1
 70
     6
  9
$SURFTAB2
 70
     6
  9
$SURFTYPE
 70
     6
  9
$SURFU
 70
     6
  9
$SURFV
 70
     6
  9
$UCSBASE
  2

  9
$UCSNAME
  2

  9
$UCSORG
 10
0.0
 20
0.0
 30
0.0
  9
$UCSXDIR
 10
1.0
 20
0.0
 30
0.0
  9
$UCSYDIR
 10
0.0
 20
1.0
 30
0.0
  9
$UCSORTHOREF
  2

  9
$UCSORTHOVIEW
 70
     0
  9
$UCSORGTOP
 10
0.0
 20
0.0
 30
0.0
  9
$UCSORGBOTTOM
 10
0.0
 20
0.0
 30
0.0
  9
$UCSORGLEFT
 10
0.0
 20
0.0
 30
0.0
  9
$UCSORGRIGHT
 10
0.0
 20
0.0
 30
0.0
  9
$UCSORGFRONT
 10
0.0
 20
0.0
 30
0.0
  9
$UCSORGBACK
 10
0.0
 20
0.0
 30
0.0
  9
$PUCSBASE
  2

  9
$PUCSNAME
  2

  9
$PUCSORG
 10
0.0
 20
0.0
 30
0.0
  9
$PUCSXDIR
 10
1.0
 20
0.0
 30
0.0
  9
$PUCSYDIR
 10
0.0
 20
1.0
 30
0.0
  9
$PUCSORTHOREF
  2

  9
$PUCSORTHOVIEW
 70
     0
  9
$PUCSORGTOP
 10
0.0
 20
0.0
 30
0.0
  9
$PUCSORGBOTTOM
 10
0.0
 20
0.0
 30
0.0
  9
$PUCSORGLEFT
 10
0.0
 20
0.0
 30
0.0
  9
$PUCSORGRIGHT
 10
0.0
 20
0.0
 30
0.0
  9
$PUCSORGFRONT
 10
0.0
 20
0.0
 30
0.0
  9
$PUCSORGBACK
 10
0.0
 20
0.0
 30
0.0
  9
$USERI1
 70
     0
  9
$USERI2
 70
     0
  9
$USERI3
 70
     0
  9
$USERI4
 70
     0
  9
$USERI5
 70
     0
  9
$USERR1
 40
18.0
  9
$USERR2
 40
0.0
  9
$USERR3
 40
0.0
  9
$USERR4
 40
0.0
  9
$USERR5
 40
0.0
  9
$WORLDVIEW
 70
     1
  9
$SHADEDGE
 70
     3
  9
$SHADEDIF
 70
    70
  9
$TILEMODE
 70
     1
  9
$MAXACTVP
 70
    64
  9
$PINSBASE
 10
0.0
 20
0.0
 30
0.0
  9
$PLIMCHECK
 70
     0
  9
$PEXTMIN
 10
1.00000000000000E+20
 20
1.00000000000000E+20
 30
1.00000000000000E+20
  9
$PEXTMAX
 10
-1.00000000000000E+20
 20
-1.00000000000000E+20
 30
-1.00000000000000E+20
  9
$PLIMMIN
 10
0.0
 20
0.0
  9
$PLIMMAX
 10
12.0
 20
9.0
  9
$UNITMODE
 70
     0
  9
$VISRETAIN
 70
     1
  9
$PLINEGEN
 70
     0
  9
$PSLTSCALE
 70
     1
  9
$TREEDEPTH
 70
  3020
  9
$CMLSTYLE
  2
Standard
  9
$CMLJUST
 70
     0
  9
$CMLSCALE
 40
1.0
  9
$PROXYGRAPHICS
 70
     1
  9
$MEASUREMENT
 70
     1
  9
$CELWEIGHT
370
    -1
  9
$ENDCAPS
280
     0
  9
$JOINSTYLE
280
     0
  9
$LWDISPLAY
290
     0
  9
$INSUNITS
 70
     1
  9
$HYPERLINKBASE
  1

  9
$STYLESHEET
  1

  9
$XEDIT
290
     1
  9
$CEPSNTYPE
380
     0
  9
$PSTYLEMODE
290
     1
  9
$FINGERPRINTGUID
  2
{AA2555B7-B4FC-436D-899A-D4AC6B6610C6}
  9
$VERSIONGUID
  2
{FAEB1C32-E019-11D5-929B-00C0DF256EC4}
  9
$EXTNAMES
290
     1
  9
$PSVPSCALE
 40
0.0
  9
$OLESTARTUP
290
     0
  0
ENDSEC
  0
SECTION
  2
CLASSES
  0
CLASS
  1
ACDBDICTIONARYWDFLT
  2
AcDbDictionaryWithDefault
  3
ObjectDBX Classes
 90
        0
280
     0
281
     0
  0
CLASS
  1
VISUALSTYLE
  2
AcDbVisualStyle
  3
ObjectDBX Classes
 90
     4095
280
     0
281
     0
  0
CLASS
  1
MATERIAL
  2
AcDbMaterial
  3
ObjectDBX Classes
 90
     1153
280
     0
281
     0
  0
CLASS
  1

  2
exOdDbCircle
  3

 90
        0
280
     0
281
     1
  0
CLASS
  1

  2
exOdDbSpline
  3

 90
        0
280
     0
281
     1
  0
CLASS
  1
DICTIONARYVAR
  2
AcDbDictionaryVar
  3
ObjectDBX Classes
 90
        0
280
     0
281
     0
  0
CLASS
  1
ACDBPLACEHOLDER
  2
AcDbPlaceHolder
  3
ObjectDBX Classes
 90
        0
280
     0
281
     0
  0
CLASS
  1
LAYOUT
  2
AcDbLayout
  3
ObjectDBX Classes
 90
        0
280
     0
281
     0
  0
ENDSEC
  0
SECTION
  2
TABLES
  0
TABLE
  2
VPORT
  5
8
330
0
100
AcDbSymbolTable
 70
     1
  0
VPORT
  5
29
330
8
100
AcDbSymbolTableRecord
100
AcDbViewportTableRecord
  2
*Active
 70
     0
 10
0.0
 20
0.0
 11
1.0
 21
1.0
 12
161.7990481871524
 22
-33.3029892601884
 13
0.0
 23
0.0
 14
0.5
 24
0.5
 15
0.5
 25
0.5
 16
0.0
 26
0.0
 36
1.0
 17
0.0
 27
0.0
 37
0.0
 40
207.9277681374379
 41
1.60267857142857
 42
50.0
 43
0.0
 44
0.0
 50
0.0
 51
0.0
 71
     0
 72
   100
 73
     1
 74
     3
 75
     0
 76
     0
 77
     0
 78
     0
281
     0
 65
     1
110
0.0
120
0.0
130
0.0
111
1.0
121
0.0
131
0.0
112
0.0
122
1.0
132
0.0
 79
     0
146
0.0
  0
ENDTAB
  0
TABLE
  2
LTYPE
  5
5
330
0
100
AcDbSymbolTable
 70
     8
  0
LTYPE
  5
14
330
5
100
AcDbSymbolTableRecord
100
AcDbLinetypeTableRecord
  2
ByBlock
 70
     0
  3

 72
    65
 73
     0
 40
0.0
  0
LTYPE
  5
15
330
5
100
AcDbSymbolTableRecord
100
AcDbLinetypeTableRecord
  2
ByLayer
 70
     0
  3

 72
    65
 73
     0
 40
0.0
  0
LTYPE
  5
16
330
5
100
AcDbSymbolTableRecord
100
AcDbLinetypeTableRecord
  2
Continuous
 70
     0
  3
Solid line
 72
    65
 73
     0
 40
0.0
  0
LTYPE
  5
3F
330
5
100
AcDbSymbolTableRecord
100
AcDbLinetypeTableRecord
  2
DASHED
 70
     0
  3
Dashed
 72
    65
 73
     2
 40
15.0
 49
7.0
 74
     0
 49
-8.0
 74
     0
  0
LTYPE
  5
40
330
5
100
AcDbSymbolTableRecord
100
AcDbLinetypeTableRecord
  2
DOTTED
 70
     0
  3
Dotted
 72
    65
 73
     2
 40
1.0
 49
0.0
 74
     0
 49
-1.0
 74
     0
  0
LTYPE
  5
41
330
5
100
AcDbSymbolTableRecord
100
AcDbLinetypeTableRecord
  2
DOT_CENTER
 70
     0
  3
Dot_Center
 72
    65
 73
     4
 40
14.0
 49
12.0
 74
     0
 49
-1.0
 74
     0
 49
0.0
 74
     0
 49
-1.0
 74
     0
  0
LTYPE
  5
42
330
5
100
AcDbSymbolTableRecord
100
AcDbLinetypeTableRecord
  2
LONG_DASHED
 70
     0
  3
Long_Dashed
 72
    65
 73
     2
 40
15.0
 49
10.0
 74
     0
 49
-5.0
 74
     0
  0
LTYPE
  5
43
330
5
100
AcDbSymbolTableRecord
100
AcDbLinetypeTableRecord
  2
DASH_CENTER
 70
     0
  3
Dash_Center
 72
    65
 73
     4
 40
14.0
 49
11.0
 74
     0
 49
-1.0
 74
     0
 49
1.0
 74
     0
 49
-1.0
 74
     0
  0
LTYPE
  5
44
330
5
100
AcDbSymbolTableRecord
100
AcDbLinetypeTableRecord
  2
PHANTOM
 70
     0
  3
Phantom
 72
    65
 73
     6
 40
13.0
 49
10.0
 74
     0
 49
-1.0
 74
     0
 49
0.0
 74
     0
 49
-1.0
 74
     0
 49
0.0
 74
     0
 49
-1.0
 74
     0
  0
LTYPE
  5
45
330
5
100
AcDbSymbolTableRecord
100
AcDbLinetypeTableRecord
  2
CENTER_DASH_DASH
 70
     0
  3
Center_Dash_Dash
 72
    65
 73
     6
 40
14.0
 49
9.0
 74
     0
 49
-1.0
 74
     0
 49
1.0
 74
     0
 49
-1.0
 74
     0
 49
1.0
 74
     0
 49
-1.0
 74
     0
  0
ENDTAB
  0
TABLE
  2
LAYER
  5
2
330
0
100
AcDbSymbolTable
 70
     3
  0
LAYER
  5
10
330
2
100
AcDbSymbolTableRecord
100
AcDbLayerTableRecord
  2
0
 70
     0
 62
     7
  6
Continuous
370
    -3
390
F
  0
LAYER
  5
46
330
2
100
AcDbSymbolTableRecord
100
AcDbLayerTableRecord
  2
1
 70
     0
 62
     7
  6
Continuous
370
    -3
390
F
  0
LAYER
  5
47
330
2
100
AcDbSymbolTableRecord
100
AcDbLayerTableRecord
  2
LEVEL001
 70
     0
 62
     7
  6
Continuous
370
    -3
390
F
  0
ENDTAB
  0
TABLE
  2
STYLE
  5
3
330
0
100
AcDbSymbolTable
 70
     1
  0
STYLE
  5
11
330
3
100
AcDbSymbolTableRecord
100
AcDbTextStyleTableRecord
  2
Standard
 70
     0
 40
0.0
 41
1.0
 50
0.0
 71
     0
 42
0.2
  3
txt
  4

  0
ENDTAB
  0
TABLE
  2
VIEW
  5
6
330
0
100
AcDbSymbolTable
 70
     0
  0
ENDTAB
  0
TABLE
  2
UCS
  5
7
330
0
100
AcDbSymbolTable
 70
     0
  0
ENDTAB
  0
TABLE
  2
APPID
  5
9
330
0
100
AcDbSymbolTable
 70
     1
  0
APPID
  5
12
330
9
100
AcDbSymbolTableRecord
100
AcDbRegAppTableRecord
  2
ACAD
 70
     0
  0
ENDTAB
  0
TABLE
  2
DIMSTYLE
  5
A
330
0
100
AcDbSymbolTable
 70
     1
100
AcDbDimStyleTable
  0
DIMSTYLE
105
27
330
A
100
AcDbSymbolTableRecord
100
AcDbDimStyleTableRecord
  2
Standard
 70
     0
340
11
  0
ENDTAB
  0
TABLE
  2
BLOCK_RECORD
  5
1
330
0
100
AcDbSymbolTable
 70
     1
  0
BLOCK_RECORD
  5
1F
330
1
100
AcDbSymbolTableRecord
100
AcDbBlockTableRecord
  2
*Model_Space
340
22
  0
BLOCK_RECORD
  5
1B
330
1
100
AcDbSymbolTableRecord
100
AcDbBlockTableRecord
  2
*Paper_Space
340
1E
  0
BLOCK_RECORD
  5
23
330
1
100
AcDbSymbolTableRecord
100
AcDbBlockTableRecord
  2
*Paper_Space0
340
26
  0
ENDTAB
  0
ENDSEC
  0
SECTION
  2
BLOCKS
  0
BLOCK
  5
20
330
1F
100
AcDbEntity
  8
0
100
AcDbBlockBegin
  2
*Model_Space
 70
     0
 10
0.0
 20
0.0
 30
0.0
  3
*Model_Space
  1

  0
ENDBLK
  5
21
330
1F
100
AcDbEntity
  8
0
100
AcDbBlockEnd
  0
BLOCK
  5
1C
330
1B
100
AcDbEntity
 67
     1
  8
0
100
AcDbBlockBegin
  2
*Paper_Space
 70
     0
 10
0.0
 20
0.0
 30
0.0
  3
*Paper_Space
  1

  0
ENDBLK
  5
1D
330
1B
100
AcDbEntity
 67
     1
  8
0
100
AcDbBlockEnd
  0
BLOCK
  5
24
330
23
100
AcDbEntity
  8
0
100
AcDbBlockBegin
  2
*Paper_Space0
 70
     0
 10
0.0
 20
0.0
 30
0.0
  3
*Paper_Space0
  1

  0
ENDBLK
  5
25
330
23
100
AcDbEntity
  8
0
100
AcDbBlockEnd
  0
ENDSEC
  0
SECTION
  2
ENTITIES
  0
LINE
  5
48
330
1F
100
AcDbEntity
  8
1
  6
Continuous
 62
     4
100
AcDbLine
 10
256.0
 20
-54.0
 30
0.0
 11
257.8
 21
-54.0
 31
0.0
  0
LINE
  5
49
330
1F
100
AcDbEntity
  8
1
  6
Continuous
 62
     4
100
AcDbLine
 10
257.65
 20
-52.05
 30
0.0
 11
256.0
 21
-54.0
 31
0.0
  0
LINE
  5
4A
330
1F
100
AcDbEntity
  8
1
  6
Continuous
 62
     4
100
AcDbLine
 10
257.8
 20
-51.75
 30
0.0
 11
257.65
 21
-52.05
 31
0.0
  0
LINE
  5
4B
330
1F
100
AcDbEntity
  8
1
  6
Continuous
 62
     4
100
AcDbLine
 10
257.8
 20
-51.45
 30
0.0
 11
257.8
 21
-51.75
 31
0.0
  0
LINE
  5
4C
330
1F
100
AcDbEntity
  8
1
  6
Continuous
 62
     4
100
AcDbLine
 10
257.65
 20
-51.225
 30
0.0
 11
257.8
 21
-51.45
 31
0.0
  0
LINE
  5
4D
330
1F
100
AcDbEntity
  8
1
  6
Continuous
 62
     4
100
AcDbLine
 10
257.425
 20
-51.075
 30
0.0
 11
257.65
 21
-51.225
 31
0.0
  0
LINE
  5
4E
330
1F
100
AcDbEntity
  8
1
  6
Continuous
 62
     4
100
AcDbLine
 10
257.125
 20
-51.0
 30
0.0
 11
257.425
 21
-51.075
 31
0.0
  0
LINE
  5
4F
330
1F
100
AcDbEntity
  8
1
  6
Continuous
 62
     4
100
AcDbLine
 10
256.675
 20
-51.0
 30
0.0
 11
257.125
 21
-51.0
 31
0.0
  0
LINE
  5
50
330
1F
100
AcDbEntity
  8
1
  6
Continuous
 62
     4
100
AcDbLine
 10
256.375
 20
-51.075
 30
0.0
 11
256.675
 21
-51.0
 31
0.0
  0
LINE
  5
51
330
1F
100
AcDbEntity
  8
1
  6
Continuous
 62
     4
100
AcDbLine
 10
256.15
 20
-51.225
 30
0.0
 11
256.375
 21
-51.075
 31
0.0
  0
LINE
  5
52
330
1F
100
AcDbEntity
  8
1
  6
Continuous
 62
     4
100
AcDbLine
 10
256.0
 20
-51.45
 30
0.0
 11
256.15
 21
-51.225
 31
0.0
  0
LINE
  5
53
330
1F
100
AcDbEntity
  8
1
  6
Continuous
 62
     4
100
AcDbLine
 10
253.9
 20
-54.0
 30
0.0
 11
255.1
 21
-51.0
 31
0.0
  0
LINE
  5
54
330
1F
100
AcDbEntity
  8
1
  6
Continuous
 62
     4
100
AcDbLine
 10
253.0
 20
-51.0
 30
0.0
 11
253.0
 21
-54.0
 31
0.0
  0
LINE
  5
55
330
1F
100
AcDbEntity
  8
1
  6
Continuous
 62
     4
100
AcDbLine
 10
252.1
 20
-51.9
 30
0.0
 11
253.0
 21
-51.0
 31
0.0
  0
LINE
  5
56
330
1F
100
AcDbEntity
  8
1
  6
Continuous
 62
     4
100
AcDbLine
 10
250.6
 20
-54.0
 30
0.0
 11
250.0
 21
-54.0
 31
0.0
  0
LINE
  5
57
330
1F
100
AcDbEntity
  8
1
  6
Continuous
 62
     4
100
AcDbLine
 10
250.825
 20
-53.925
 30
0.0
 11
250.6
 21
-54.0
 31
0.0
  0
LINE
  5
58
330
1F
100
AcDbEntity
  8
1
  6
Continuous
 62
     4
100
AcDbLine
 10
251.05
 20
-53.775
 30
0.0
 11
250.825
 21
-53.925
 31
0.0
  0
LINE
  5
59
330
1F
100
AcDbEntity
  8
1
  6
Continuous
 62
     4
100
AcDbLine
 10
251.2
 20
-53.475
 30
0.0
 11
251.05
 21
-53.775
 31
0.0
  0
LINE
  5
5A
330
1F
100
AcDbEntity
  8
1
  6
Continuous
 62
     4
100
AcDbLine
 10
251.2
 20
-51.0
 30
0.0
 11
251.2
 21
-53.475
 31
0.0
  0
LINE
  5
5B
330
1F
100
AcDbEntity
  8
1
  6
Continuous
 62
     4
100
AcDbLine
 10
248.425
 20
-52.5
 30
0.0
 11
247.0
 21
-52.5
 31
0.0
  0
LINE
  5
5C
330
1F
100
AcDbEntity
  8
1
  6
Continuous
 62
     4
100
AcDbLine
 10
248.725
 20
-52.425
 30
0.0
 11
248.425
 21
-52.5
 31
0.0
  0
LINE
  5
5D
330
1F
100
AcDbEntity
  8
1
  6
Continuous
 62
     4
100
AcDbLine
 10
248.95
 20
-52.275
 30
0.0
 11
248.725
 21
-52.425
 31
0.0
  0
LINE
  5
5E
330
1F
100
AcDbEntity
  8
1
  6
Continuous
 62
     4
100
AcDbLine
 10
249.025
 20
-52.125
 30
0.0
 11
248.95
 21
-52.275
 31
0.0
  0
LINE
  5
5F
330
1F
100
AcDbEntity
  8
1
  6
Continuous
 62
     4
100
AcDbLine
 10
249.1
 20
-51.9
 30
0.0
 11
249.025
 21
-52.125
 31
0.0
  0
LINE
  5
60
330
1F
100
AcDbEntity
  8
1
  6
Continuous
 62
     4
100
AcDbLine
 10
249.1
 20
-51.6
 30
0.0
 11
249.1
 21
-51.9
 31
0.0
  0
LINE
  5
61
330
1F
100
AcDbEntity
  8
1
  6
Continuous
 62
     4
100
AcDbLine
 10
249.025
 20
-51.375
 30
0.0
 11
249.1
 21
-51.6
 31
0.0
  0
LINE
  5
62
330
1F
100
AcDbEntity
  8
1
  6
Continuous
 62
     4
100
AcDbLine
 10
248.95
 20
-51.225
 30
0.0
 11
249.025
 21
-51.375
 31
0.0
  0
LINE
  5
63
330
1F
100
AcDbEntity
  8
1
  6
Continuous
 62
     4
100
AcDbLine
 10
248.725
 20
-51.075
 30
0.0
 11
248.95
 21
-51.225
 31
0.0
  0
LINE
  5
64
330
1F
100
AcDbEntity
  8
1
  6
Continuous
 62
     4
100
AcDbLine
 10
248.425
 20
-51.0
 30
0.0
 11
248.725
 21
-51.075
 31
0.0
  0
LINE
  5
65
330
1F
100
AcDbEntity
  8
1
  6
Continuous
 62
     4
100
AcDbLine
 10
247.0
 20
-51.0
 30
0.0
 11
248.425
 21
-51.0
 31
0.0
  0
LINE
  5
66
330
1F
100
AcDbEntity
  8
1
  6
Continuous
 62
     4
100
AcDbLine
 10
247.0
 20
-52.5
 30
0.0
 11
247.0
 21
-51.0
 31
0.0
  0
LINE
  5
67
330
1F
100
AcDbEntity
  8
1
  6
Continuous
 62
     4
100
AcDbLine
 10
247.0
 20
-54.0
 30
0.0
 11
247.0
 21
-52.5
 31
0.0
  0
LINE
  5
68
330
1F
100
AcDbEntity
  8
1
  6
Continuous
 62
     4
100
AcDbLine
 10
199.875
 20
23.0
 30
0.0
 11
198.0
 21
23.0
 31
0.0
  0
LINE
  5
69
330
1F
100
AcDbEntity
  8
1
  6
Continuous
 62
     4
100
AcDbLine
 10
200.25
 20
23.125
 30
0.0
 11
199.875
 21
23.0
 31
0.0
  0
LINE
  5
6A
330
1F
100
AcDbEntity
  8
1
  6
Continuous
 62
     4
100
AcDbLine
 10
200.625
 20
23.375
 30
0.0
 11
200.25
 21
23.125
 31
0.0
  0
LINE
  5
6B
330
1F
100
AcDbEntity
  8
1
  6
Continuous
 62
     4
100
AcDbLine
 10
200.875
 20
23.75
 30
0.0
 11
200.625
 21
23.375
 31
0.0
  0
LINE
  5
6C
330
1F
100
AcDbEntity
  8
1
  6
Continuous
 62
     4
100
AcDbLine
 10
201.0
 20
24.25
 30
0.0
 11
200.875
 21
23.75
 31
0.0
  0
LINE
  5
6D
330
1F
100
AcDbEntity
  8
1
  6
Continuous
 62
     4
100
AcDbLine
 10
201.0
 20
24.875
 30
0.0
 11
201.0
 21
24.25
 31
0.0
  0
LINE
  5
6E
330
1F
100
AcDbEntity
  8
1
  6
Continuous
 62
     4
100
AcDbLine
 10
200.875
 20
25.375
 30
0.0
 11
201.0
 21
24.875
 31
0.0
  0
LINE
  5
6F
330
1F
100
AcDbEntity
  8
1
  6
Continuous
 62
     4
100
AcDbLine
 10
200.75
 20
25.625
 30
0.0
 11
200.875
 21
25.375
 31
0.0
  0
LINE
  5
70
330
1F
100
AcDbEntity
  8
1
  6
Continuous
 62
     4
100
AcDbLine
 10
200.5
 20
25.875
 30
0.0
 11
200.75
 21
25.625
 31
0.0
  0
LINE
  5
71
330
1F
100
AcDbEntity
  8
1
  6
Continuous
 62
     4
100
AcDbLine
 10
200.0
 20
26.0
 30
0.0
 11
200.5
 21
25.875
 31
0.0
  0
LINE
  5
72
330
1F
100
AcDbEntity
  8
1
  6
Continuous
 62
     4
100
AcDbLine
 10
200.375
 20
26.125
 30
0.0
 11
200.0
 21
26.0
 31
0.0
  0
LINE
  5
73
330
1F
100
AcDbEntity
  8
1
  6
Continuous
 62
     4
100
AcDbLine
 10
200.625
 20
26.25
 30
0.0
 11
200.375
 21
26.125
 31
0.0
  0
LINE
  5
74
330
1F
100
AcDbEntity
  8
1
  6
Continuous
 62
     4
100
AcDbLine
 10
200.875
 20
26.5
 30
0.0
 11
200.625
 21
26.25
 31
0.0
  0
LINE
  5
75
330
1F
100
AcDbEntity
  8
1
  6
Continuous
 62
     4
100
AcDbLine
 10
201.0
 20
26.875
 30
0.0
 11
200.875
 21
26.5
 31
0.0
  0
LINE
  5
76
330
1F
100
AcDbEntity
  8
1
  6
Continuous
 62
     4
100
AcDbLine
 10
201.0
 20
27.25
 30
0.0
 11
201.0
 21
26.875
 31
0.0
  0
LINE
  5
77
330
1F
100
AcDbEntity
  8
1
  6
Continuous
 62
     4
100
AcDbLine
 10
200.875
 20
27.625
 30
0.0
 11
201.0
 21
27.25
 31
0.0
  0
LINE
  5
78
330
1F
100
AcDbEntity
  8
1
  6
Continuous
 62
     4
100
AcDbLine
 10
200.5
 20
27.875
 30
0.0
 11
200.875
 21
27.625
 31
0.0
  0
LINE
  5
79
330
1F
100
AcDbEntity
  8
1
  6
Continuous
 62
     4
100
AcDbLine
 10
199.875
 20
28.0
 30
0.0
 11
200.5
 21
27.875
 31
0.0
  0
LINE
  5
7A
330
1F
100
AcDbEntity
  8
1
  6
Continuous
 62
     4
100
AcDbLine
 10
198.0
 20
28.0
 30
0.0
 11
199.875
 21
28.0
 31
0.0
  0
LINE
  5
7B
330
1F
100
AcDbEntity
  8
1
  6
Continuous
 62
     4
100
AcDbLine
 10
198.75
 20
26.0
 30
0.0
 11
200.0
 21
26.0
 31
0.0
  0
LINE
  5
7C
330
1F
100
AcDbEntity
  8
1
  6
Continuous
 62
     4
100
AcDbLine
 10
196.5
 20
28.0
 30
0.0
 11
196.5
 21
23.0
 31
0.0
  0
LINE
  5
7D
330
1F
100
AcDbEntity
  8
1
  6
Continuous
 62
     4
100
AcDbLine
 10
195.0
 20
26.5
 30
0.0
 11
196.5
 21
28.0
 31
0.0
  0
LINE
  5
7E
330
1F
100
AcDbEntity
  8
1
  6
Continuous
 62
     4
100
AcDbLine
 10
191.0
 20
24.75
 30
0.0
 11
193.5
 21
24.75
 31
0.0
  0
LINE
  5
7F
330
1F
100
AcDbEntity
  8
1
  6
Continuous
 62
     4
100
AcDbLine
 10
188.375
 20
25.5
 30
0.0
 11
186.0
 21
25.5
 31
0.0
  0
LINE
  5
80
330
1F
100
AcDbEntity
  8
1
  6
Continuous
 62
     4
100
AcDbLine
 10
188.875
 20
25.625
 30
0.0
 11
188.375
 21
25.5
 31
0.0
  0
LINE
  5
81
330
1F
100
AcDbEntity
  8
1
  6
Continuous
 62
     4
100
AcDbLine
 10
189.25
 20
25.875
 30
0.0
 11
188.875
 21
25.625
 31
0.0
  0
LINE
  5
82
330
1F
100
AcDbEntity
  8
1
  6
Continuous
 62
     4
100
AcDbLine
 10
189.375
 20
26.125
 30
0.0
 11
189.25
 21
25.875
 31
0.0
  0
LINE
  5
83
330
1F
100
AcDbEntity
  8
1
  6
Continuous
 62
     4
100
AcDbLine
 10
189.5
 20
26.5
 30
0.0
 11
189.375
 21
26.125
 31
0.0
  0
LINE
  5
84
330
1F
100
AcDbEntity
  8
1
  6
Continuous
 62
     4
100
AcDbLine
 10
189.5
 20
27.0
 30
0.0
 11
189.5
 21
26.5
 31
0.0
  0
LINE
  5
85
330
1F
100
AcDbEntity
  8
1
  6
Continuous
 62
     4
100
AcDbLine
 10
189.375
 20
27.375
 30
0.0
 11
189.5
 21
27.0
 31
0.0
  0
LINE
  5
86
330
1F
100
AcDbEntity
  8
1
  6
Continuous
 62
     4
100
AcDbLine
 10
189.25
 20
27.625
 30
0.0
 11
189.375
 21
27.375
 31
0.0
  0
LINE
  5
87
330
1F
100
AcDbEntity
  8
1
  6
Continuous
 62
     4
100
AcDbLine
 10
188.875
 20
27.875
 30
0.0
 11
189.25
 21
27.625
 31
0.0
  0
LINE
  5
88
330
1F
100
AcDbEntity
  8
1
  6
Continuous
 62
     4
100
AcDbLine
 10
188.375
 20
28.0
 30
0.0
 11
188.875
 21
27.875
 31
0.0
  0
LINE
  5
89
330
1F
100
AcDbEntity
  8
1
  6
Continuous
 62
     4
100
AcDbLine
 10
186.0
 20
28.0
 30
0.0
 11
188.375
 21
28.0
 31
0.0
  0
LINE
  5
8A
330
1F
100
AcDbEntity
  8
1
  6
Continuous
 62
     4
100
AcDbLine
 10
186.0
 20
25.5
 30
0.0
 11
186.0
 21
28.0
 31
0.0
  0
LINE
  5
8B
330
1F
100
AcDbEntity
  8
1
  6
Continuous
 62
     4
100
AcDbLine
 10
186.0
 20
23.0
 30
0.0
 11
186.0
 21
25.5
 31
0.0
  0
LINE
  5
8C
330
1F
100
AcDbEntity
  8
1
  6
Continuous
 62
     4
100
AcDbLine
 10
182.875
 20
28.0
 30
0.0
 11
184.5
 21
28.0
 31
0.0
  0
LINE
  5
8D
330
1F
100
AcDbEntity
  8
1
  6
Continuous
 62
     4
100
AcDbLine
 10
182.375
 20
27.875
 30
0.0
 11
182.875
 21
28.0
 31
0.0
  0
LINE
  5
8E
330
1F
100
AcDbEntity
  8
1
  6
Continuous
 62
     4
100
AcDbLine
 10
182.0
 20
27.625
 30
0.0
 11
182.375
 21
27.875
 31
0.0
  0
LINE
  5
8F
330
1F
100
AcDbEntity
  8
1
  6
Continuous
 62
     4
100
AcDbLine
 10
181.75
 20
27.375
 30
0.0
 11
182.0
 21
27.625
 31
0.0
  0
LINE
  5
90
330
1F
100
AcDbEntity
  8
1
  6
Continuous
 62
     4
100
AcDbLine
 10
181.625
 20
27.0
 30
0.0
 11
181.75
 21
27.375
 31
0.0
  0
LINE
  5
91
330
1F
100
AcDbEntity
  8
1
  6
Continuous
 62
     4
100
AcDbLine
 10
181.5
 20
26.5
 30
0.0
 11
181.625
 21
27.0
 31
0.0
  0
LINE
  5
92
330
1F
100
AcDbEntity
  8
1
  6
Continuous
 62
     4
100
AcDbLine
 10
181.5
 20
24.5
 30
0.0
 11
181.5
 21
26.5
 31
0.0
  0
LINE
  5
93
330
1F
100
AcDbEntity
  8
1
  6
Continuous
 62
     4
100
AcDbLine
 10
181.625
 20
24.0
 30
0.0
 11
181.5
 21
24.5
 31
0.0
  0
LINE
  5
94
330
1F
100
AcDbEntity
  8
1
  6
Continuous
 62
     4
100
AcDbLine
 10
181.75
 20
23.625
 30
0.0
 11
181.625
 21
24.0
 31
0.0
  0
LINE
  5
95
330
1F
100
AcDbEntity
  8
1
  6
Continuous
 62
     4
100
AcDbLine
 10
182.0
 20
23.375
 30
0.0
 11
181.75
 21
23.625
 31
0.0
  0
LINE
  5
96
330
1F
100
AcDbEntity
  8
1
  6
Continuous
 62
     4
100
AcDbLine
 10
182.375
 20
23.125
 30
0.0
 11
182.0
 21
23.375
 31
0.0
  0
LINE
  5
97
330
1F
100
AcDbEntity
  8
1
  6
Continuous
 62
     4
100
AcDbLine
 10
182.875
 20
23.0
 30
0.0
 11
182.375
 21
23.125
 31
0.0
  0
LINE
  5
98
330
1F
100
AcDbEntity
  8
1
  6
Continuous
 62
     4
100
AcDbLine
 10
184.5
 20
23.0
 30
0.0
 11
182.875
 21
23.0
 31
0.0
  0
LINE
  5
99
330
1F
100
AcDbEntity
  8
1
  6
Continuous
 62
     4
100
AcDbLine
 10
178.875
 20
23.0
 30
0.0
 11
177.0
 21
23.0
 31
0.0
  0
LINE
  5
9A
330
1F
100
AcDbEntity
  8
1
  6
Continuous
 62
     4
100
AcDbLine
 10
179.25
 20
23.125
 30
0.0
 11
178.875
 21
23.0
 31
0.0
  0
LINE
  5
9B
330
1F
100
AcDbEntity
  8
1
  6
Continuous
 62
     4
100
AcDbLine
 10
179.625
 20
23.375
 30
0.0
 11
179.25
 21
23.125
 31
0.0
  0
LINE
  5
9C
330
1F
100
AcDbEntity
  8
1
  6
Continuous
 62
     4
100
AcDbLine
 10
179.875
 20
23.75
 30
0.0
 11
179.625
 21
23.375
 31
0.0
  0
LINE
  5
9D
330
1F
100
AcDbEntity
  8
1
  6
Continuous
 62
     4
100
AcDbLine
 10
180.0
 20
24.25
 30
0.0
 11
179.875
 21
23.75
 31
0.0
  0
LINE
  5
9E
330
1F
100
AcDbEntity
  8
1
  6
Continuous
 62
     4
100
AcDbLine
 10
180.0
 20
25.0
 30
0.0
 11
180.0
 21
24.25
 31
0.0
  0
LINE
  5
9F
330
1F
100
AcDbEntity
  8
1
  6
Continuous
 62
     4
100
AcDbLine
 10
179.875
 20
25.5
 30
0.0
 11
180.0
 21
25.0
 31
0.0
  0
LINE
  5
A0
330
1F
100
AcDbEntity
  8
1
  6
Continuous
 62
     4
100
AcDbLine
 10
179.5
 20
25.875
 30
0.0
 11
179.875
 21
25.5
 31
0.0
  0
LINE
  5
A1
330
1F
100
AcDbEntity
  8
1
  6
Continuous
 62
     4
100
AcDbLine
 10
178.875
 20
26.0
 30
0.0
 11
179.5
 21
25.875
 31
0.0
  0
LINE
  5
A2
330
1F
100
AcDbEntity
  8
1
  6
Continuous
 62
     4
100
AcDbLine
 10
177.0
 20
26.0
 30
0.0
 11
178.875
 21
26.0
 31
0.0
  0
LINE
  5
A3
330
1F
100
AcDbEntity
  8
1
  6
Continuous
 62
     4
100
AcDbLine
 10
177.0
 20
28.0
 30
0.0
 11
177.0
 21
26.0
 31
0.0
  0
LINE
  5
A4
330
1F
100
AcDbEntity
  8
1
  6
Continuous
 62
     4
100
AcDbLine
 10
179.75
 20
28.0
 30
0.0
 11
177.0
 21
28.0
 31
0.0
  0
LINE
  5
A5
330
1F
100
AcDbEntity
  8
1
  6
Continuous
 62
     4
100
AcDbLine
 10
173.0
 20
24.75
 30
0.0
 11
175.5
 21
24.75
 31
0.0
  0
LINE
  5
A6
330
1F
100
AcDbEntity
  8
1
  6
Continuous
 62
     4
100
AcDbLine
 10
168.0
 20
24.5
 30
0.0
 11
168.0
 21
28.0
 31
0.0
  0
LINE
  5
A7
330
1F
100
AcDbEntity
  8
1
  6
Continuous
 62
     4
100
AcDbLine
 10
168.0
 20
23.0
 30
0.0
 11
168.0
 21
24.5
 31
0.0
  0
LINE
  5
A8
330
1F
100
AcDbEntity
  8
1
  6
Continuous
 62
     4
100
AcDbLine
 10
169.0
 20
25.5
 30
0.0
 11
171.5
 21
23.0
 31
0.0
  0
LINE
  5
A9
330
1F
100
AcDbEntity
  8
1
  6
Continuous
 62
     4
100
AcDbLine
 10
171.5
 20
28.0
 30
0.0
 11
169.0
 21
25.5
 31
0.0
  0
LINE
  5
AA
330
1F
100
AcDbEntity
  8
1
  6
Continuous
 62
     4
100
AcDbLine
 10
169.0
 20
25.5
 30
0.0
 11
168.0
 21
24.5
 31
0.0
  0
LINE
  5
AB
330
1F
100
AcDbEntity
  8
1
  6
Continuous
 62
     4
100
AcDbLine
 10
237.963191303994
 20
-64.5656111406782
 30
0.0
 11
239.999408265961
 21
-63.141753747043
 31
0.0
  0
LINE
  5
AC
330
1F
100
AcDbEntity
  8
1
  6
Continuous
 62
     4
100
AcDbLine
 10
237.963191303994
 20
-64.5656111406782
 30
0.0
 11
239.014678223857
 21
-62.3144059854401
 31
0.0
  0
LINE
  5
AD
330
1F
100
AcDbEntity
  8
LEVEL001
  6
Continuous
 62
     3
100
AcDbLine
 10
75.8480963742863
 20
46.2096326204608
 30
0.0
 11
86.0980963743047
 21
46.2096326204907
 31
0.0
  0
LINE
  5
AE
330
1F
100
AcDbEntity
  8
LEVEL001
  6
Continuous
 62
     1
100
AcDbLine
 10
76.7825963742858
 20
57.9441326204603
 30
0.0
 11
76.7825963742852
 21
46.2096326204635
 31
0.0
  0
LINE
  5
AF
330
1F
100
AcDbEntity
  8
LEVEL001
  6
Continuous
 62
     1
100
AcDbLine
 10
95.4135963743244
 20
46.2096326204635
 30
0.0
 11
95.4135963743239
 21
57.9441326204603
 31
0.0
  0
LINE
  5
B0
330
1F
100
AcDbEntity
  8
LEVEL001
  6
Continuous
 62
     3
100
AcDbLine
 10
86.0980963743047
 20
46.2096326204907
 30
0.0
 11
96.3480963743234
 21
46.2096326204608
 31
0.0
  0
LINE
  5
B1
330
1F
100
AcDbEntity
  8
1
  6
DOT_CENTER
 62
     1
100
AcDbLine
 10
86.0980963743049
 20
-35.3068670894901
 30
0.0
 11
86.0980963743048
 21
61.2096326204652
 31
0.0
  0
LINE
  5
B2
330
1F
100
AcDbEntity
  8
1
  6
DOT_CENTER
 62
     1
100
AcDbLine
 10
64.5980963743049
 20
-74.8156111406949
 30
0.0
 11
107.598096374305
 21
-74.8156111406949
 31
0.0
  0
LINE
  5
B3
330
1F
100
AcDbEntity
  8
1
  6
DOT_CENTER
 62
     1
100
AcDbLine
 10
86.0980963743049
 20
-53.3156111406949
 30
0.0
 11
86.0980963743048
 21
-127.815611140713
 31
0.0
  0
LINE
  5
B4
330
1F
100
AcDbEntity
  8
1
  6
DOT_CENTER
 62
     1
100
AcDbLine
 10
150.532217699503
 20
-74.8156111406936
 30
0.0
 11
247.048717409458
 21
-74.8156111406949
 31
0.0
  0
LINE
  5
B5
330
1F
100
AcDbEntity
  8
1
  6
DOT_CENTER
 62
     1
100
AcDbLine
 10
204.54871740965
 20
-71.8156111406949
 30
0.0
 11
204.54871740965
 21
-127.815611140842
 31
0.0
  0
LINE
  5
B6
330
1F
100
AcDbEntity
  8
LEVEL001
  6
Continuous
 62
     3
100
AcDbLine
 10
232.048717409484
 20
-74.8156111406947
 30
0.0
 11
232.048717409454
 21
-85.0656111407134
 31
0.0
  0
LINE
  5
B7
330
1F
100
AcDbEntity
  8
LEVEL001
  6
Continuous
 62
     1
100
AcDbLine
 10
232.048717409456
 20
-84.1311111407145
 30
0.0
 11
243.783217409453
 21
-84.1311111407139
 31
0.0
  0
LINE
  5
B8
330
1F
100
AcDbEntity
  8
LEVEL001
  6
Continuous
 62
     1
100
AcDbLine
 10
243.783217409453
 20
-65.5001111406759
 30
0.0
 11
232.048717409456
 21
-65.5001111406753
 31
0.0
  0
LINE
  5
B9
330
1F
100
AcDbEntity
  8
LEVEL001
  6
Continuous
 62
     3
100
AcDbLine
 10
232.048717409454
 20
-64.5656111406764
 30
0.0
 11
232.048717409484
 21
-74.8156111406947
 31
0.0
  0
LINE
  5
BA
330
1F
100
AcDbEntity
  8
0
  6
Continuous
 62
     3
100
AcDbLine
 10
186.548717409134
 20
-74.8156712339556
 30
0.0
 11
186.548717409134
 21
-74.8155510454901
 31
0.0
  0
LINE
  5
BB
330
1F
100
AcDbEntity
  8
0
  6
Continuous
 62
     3
100
AcDbLine
 10
156.548717409177
 20
-69.0528595559761
 30
0.0
 11
156.548717409166
 21
-58.8156111406946
 31
0.0
  0
LINE
  5
BC
330
1F
100
AcDbEntity
  8
0
  6
Continuous
 62
     3
100
AcDbLine
 10
156.548717409166
 20
-90.8156111406946
 30
0.0
 11
156.548717409177
 21
-80.5783627254112
 31
0.0
  0
LINE
  5
BD
330
1F
100
AcDbEntity
  8
0
  6
Continuous
 62
     3
100
AcDbLine
 10
156.548717409177
 20
-80.5783627254112
 30
0.0
 11
156.548717409177
 21
-77.0783627254112
 31
0.0
  0
LINE
  5
BE
330
1F
100
AcDbEntity
  8
0
  6
Continuous
 62
     3
100
AcDbLine
 10
156.548717409177
 20
-77.0783627254112
 30
0.0
 11
156.548717409177
 21
-72.5528595559761
 31
0.0
  0
LINE
  5
BF
330
1F
100
AcDbEntity
  8
0
  6
Continuous
 62
     3
100
AcDbLine
 10
156.548717409177
 20
-72.5528595559761
 30
0.0
 11
156.548717409177
 21
-69.0528595559761
 31
0.0
  0
LINE
  5
C0
330
1F
100
AcDbEntity
  8
0
  6
Continuous
 62
     3
100
AcDbLine
 10
168.148717409166
 20
-91.8156111406946
 30
0.0
 11
186.548717409169
 21
-91.8156111406946
 31
0.0
  0
LINE
  5
C1
330
1F
100
AcDbEntity
  8
0
  6
Continuous
 62
     3
100
AcDbLine
 10
157.548717409166
 20
-91.8156111406946
 30
0.0
 11
159.948717409166
 21
-91.8156111406946
 31
0.0
  0
LINE
  5
C2
330
1F
100
AcDbEntity
  8
0
  6
Continuous
 62
     3
100
AcDbLine
 10
187.548717409169
 20
-90.8156111406946
 30
0.0
 11
187.548717409169
 21
-58.8156111406946
 31
0.0
  0
LINE
  5
C3
330
1F
100
AcDbEntity
  8
0
  6
Continuous
 62
     3
100
AcDbLine
 10
157.548717409166
 20
-57.8156111406946
 30
0.0
 11
186.548717409169
 21
-57.8156111406946
 31
0.0
  0
LINE
  5
C4
330
1F
100
AcDbEntity
  8
0
  6
Continuous
 62
     3
100
AcDbLine
 10
186.548717409134
 20
-74.8156712339556
 30
0.0
 11
186.548717409134
 21
-74.8155510454901
 31
0.0
  0
LINE
  5
C5
330
1F
100
AcDbEntity
  8
0
  6
Continuous
 62
     3
100
AcDbLine
 10
156.548717409177
 20
-80.5783627254112
 30
0.0
 11
156.548717409177
 21
-77.0783627254112
 31
0.0
  0
LINE
  5
C6
330
1F
100
AcDbEntity
  8
0
  6
Continuous
 62
     3
100
AcDbLine
 10
156.548717409177
 20
-77.0783627254112
 30
0.0
 11
156.548717409177
 21
-72.5528595559761
 31
0.0
  0
LINE
  5
C7
330
1F
100
AcDbEntity
  8
0
  6
Continuous
 62
     3
100
AcDbLine
 10
156.548717409177
 20
-72.5528595559761
 30
0.0
 11
156.548717409177
 21
-69.0528595559761
 31
0.0
  0
LINE
  5
C8
330
1F
100
AcDbEntity
  8
0
  6
Continuous
 62
     3
100
AcDbLine
 10
154.457051730056
 20
-69.0528595559761
 30
0.0
 11
156.548717409177
 21
-69.0528595559761
 31
0.0
  0
LINE
  5
C9
330
1F
100
AcDbEntity
  8
0
  6
Continuous
 62
     3
100
AcDbLine
 10
154.457051730056
 20
-80.5783627254112
 30
0.0
 11
156.548717409177
 21
-80.5783627254112
 31
0.0
  0
LINE
  5
CA
330
1F
100
AcDbEntity
  8
0
  6
Continuous
 62
     3
100
AcDbLine
 10
244.048717409458
 20
-65.7656111406812
 30
0.0
 11
244.048717409458
 21
-83.8656111407087
 31
0.0
  0
LINE
  5
CB
330
1F
100
AcDbEntity
  8
0
  6
Continuous
 62
     3
100
AcDbLine
 10
242.848717409456
 20
-64.5656111406787
 30
0.0
 11
242.848717409456
 21
-85.0656111407112
 31
0.0
  0
LINE
  5
CC
330
1F
100
AcDbEntity
  8
0
  6
Continuous
 62
     3
100
AcDbLine
 10
219.748717409648
 20
-62.6601665744672
 30
0.0
 11
228.048717409647
 21
-62.6601665744672
 31
0.0
  0
LINE
  5
CD
330
1F
100
AcDbEntity
  8
0
  6
Continuous
 62
     3
100
AcDbLine
 10
230.048717409647
 20
-85.0656111407125
 30
0.0
 11
242.848717409456
 21
-85.0656111407112
 31
0.0
  0
LINE
  5
CE
330
1F
100
AcDbEntity
  8
0
  6
Continuous
 62
     3
100
AcDbLine
 10
219.748717409648
 20
-86.9710557069226
 30
0.0
 11
228.048717409647
 21
-86.9710557069226
 31
0.0
  0
LINE
  5
CF
330
1F
100
AcDbEntity
  8
0
  6
Continuous
 62
     3
100
AcDbLine
 10
228.048717409647
 20
-80.8156111406949
 30
0.0
 11
228.048717409647
 21
-86.9710557069226
 31
0.0
  0
LINE
  5
D0
330
1F
100
AcDbEntity
  8
0
  6
Continuous
 62
     3
100
AcDbLine
 10
219.748717409648
 20
-80.8156111406949
 30
0.0
 11
228.048717409647
 21
-80.8156111406949
 31
0.0
  0
LINE
  5
D1
330
1F
100
AcDbEntity
  8
0
  6
Continuous
 62
     3
100
AcDbLine
 10
219.748717409648
 20
-80.8156111406949
 30
0.0
 11
219.748717409648
 21
-86.9710557069226
 31
0.0
  0
LINE
  5
D2
330
1F
100
AcDbEntity
  8
0
  6
Continuous
 62
     3
100
AcDbLine
 10
242.848717409456
 20
-85.0656111407112
 30
0.0
 11
244.048717409458
 21
-83.8656111407087
 31
0.0
  0
LINE
  5
D3
330
1F
100
AcDbEntity
  8
0
  6
Continuous
 62
     3
100
AcDbLine
 10
219.748717409648
 20
-93.3156111406949
 30
0.0
 11
228.048717409647
 21
-93.3156111406949
 31
0.0
  0
LINE
  5
D4
330
1F
100
AcDbEntity
  8
0
  6
Continuous
 62
     3
100
AcDbLine
 10
219.748717409648
 20
-92.9710557069226
 30
0.0
 11
219.748717409648
 21
-93.3156111406949
 31
0.0
  0
LINE
  5
D5
330
1F
100
AcDbEntity
  8
0
  6
Continuous
 62
     3
100
AcDbLine
 10
228.048717409647
 20
-92.9710557069226
 30
0.0
 11
228.048717409647
 21
-93.3156111406949
 31
0.0
  0
LINE
  5
D6
330
1F
100
AcDbEntity
  8
0
  6
Continuous
 62
     3
100
AcDbLine
 10
219.748717409648
 20
-92.9710557069226
 30
0.0
 11
228.048717409647
 21
-92.9710557069226
 31
0.0
  0
LINE
  5
D7
330
1F
100
AcDbEntity
  8
0
  6
Continuous
 62
     3
100
AcDbLine
 10
230.048717409647
 20
-85.0656111407125
 30
0.0
 11
230.048717409647
 21
-91.3156111406949
 31
0.0
  0
LINE
  5
D8
330
1F
100
AcDbEntity
  8
0
  6
Continuous
 62
     3
100
AcDbLine
 10
230.048717409647
 20
-58.3156111406949
 30
0.0
 11
230.048717409647
 21
-64.5656111406773
 31
0.0
  0
LINE
  5
D9
330
1F
100
AcDbEntity
  8
0
  6
Continuous
 62
     3
100
AcDbLine
 10
230.048717409647
 20
-64.5656111406773
 30
0.0
 11
230.048717409647
 21
-85.0656111407125
 31
0.0
  0
LINE
  5
DA
330
1F
100
AcDbEntity
  8
0
  6
Continuous
 62
     3
100
AcDbLine
 10
216.748717409646
 20
-88.265611140903
 30
0.0
 11
216.54871740965
 21
-88.265611140903
 31
0.0
  0
LINE
  5
DB
330
1F
100
AcDbEntity
  8
0
  6
Continuous
 62
     3
100
AcDbLine
 10
216.748717409646
 20
-88.265611140903
 30
0.0
 11
216.748717409648
 21
-90.3156111406949
 31
0.0
  0
LINE
  5
DC
330
1F
100
AcDbEntity
  8
0
  6
Continuous
 62
     3
100
AcDbLine
 10
216.748717409648
 20
-59.3156111406949
 30
0.0
 11
216.748717409646
 21
-61.3656111404868
 31
0.0
  0
LINE
  5
DD
330
1F
100
AcDbEntity
  8
0
  6
Continuous
 62
     3
100
AcDbLine
 10
216.748717409646
 20
-61.3656111404868
 30
0.0
 11
216.748717409646
 21
-88.265611140903
 31
0.0
  0
LINE
  5
DE
330
1F
100
AcDbEntity
  8
0
  6
Continuous
 62
     3
100
AcDbLine
 10
187.548717409169
 20
-86.8156111406223
 30
0.0
 11
189.04871740965
 21
-86.8156111406223
 31
0.0
  0
LINE
  5
DF
330
1F
100
AcDbEntity
  8
0
  6
Continuous
 62
     3
100
AcDbLine
 10
230.048717409647
 20
-64.5656111406773
 30
0.0
 11
242.848717409456
 21
-64.5656111406787
 31
0.0
  0
LINE
  5
E0
330
1F
100
AcDbEntity
  8
0
  6
Continuous
 62
     3
100
AcDbLine
 10
219.748717409648
 20
-56.3156111406949
 30
0.0
 11
228.048717409647
 21
-56.3156111406949
 31
0.0
  0
LINE
  5
E1
330
1F
100
AcDbEntity
  8
0
  6
Continuous
 62
     3
100
AcDbLine
 10
219.748717409648
 20
-56.3156111406949
 30
0.0
 11
219.748717409648
 21
-56.6601665744672
 31
0.0
  0
LINE
  5
E2
330
1F
100
AcDbEntity
  8
0
  6
Continuous
 62
     3
100
AcDbLine
 10
228.048717409647
 20
-56.3156111406949
 30
0.0
 11
228.048717409647
 21
-56.6601665744672
 31
0.0
  0
LINE
  5
E3
330
1F
100
AcDbEntity
  8
0
  6
Continuous
 62
     3
100
AcDbLine
 10
219.748717409648
 20
-56.6601665744672
 30
0.0
 11
228.048717409647
 21
-56.6601665744672
 31
0.0
  0
LINE
  5
E4
330
1F
100
AcDbEntity
  8
0
  6
Continuous
 62
     3
100
AcDbLine
 10
228.048717409647
 20
-62.6601665744672
 30
0.0
 11
228.048717409647
 21
-68.8156111406949
 31
0.0
  0
LINE
  5
E5
330
1F
100
AcDbEntity
  8
0
  6
Continuous
 62
     3
100
AcDbLine
 10
219.748717409648
 20
-68.8156111406949
 30
0.0
 11
228.048717409647
 21
-68.8156111406949
 31
0.0
  0
LINE
  5
E6
330
1F
100
AcDbEntity
  8
0
  6
Continuous
 62
     3
100
AcDbLine
 10
216.748717409646
 20
-61.3656111404868
 30
0.0
 11
216.54871740965
 21
-61.3656111404868
 31
0.0
  0
LINE
  5
E7
330
1F
100
AcDbEntity
  8
0
  6
Continuous
 62
     3
100
AcDbLine
 10
219.748717409648
 20
-62.6601665744672
 30
0.0
 11
219.748717409648
 21
-68.8156111406949
 31
0.0
  0
LINE
  5
E8
330
1F
100
AcDbEntity
  8
0
  6
Continuous
 62
     3
100
AcDbLine
 10
187.548717409169
 20
-62.8156111407676
 30
0.0
 11
189.04871740965
 21
-62.8156111407676
 31
0.0
  0
LINE
  5
E9
330
1F
100
AcDbEntity
  8
0
  6
Continuous
 62
     3
100
AcDbLine
 10
242.848717409456
 20
-64.5656111406787
 30
0.0
 11
244.048717409458
 21
-65.7656111406812
 31
0.0
  0
LINE
  5
EA
330
1F
100
AcDbEntity
  8
0
  6
Continuous
 62
     3
100
AcDbLine
 10
196.548717409659
 20
-123.815611140722
 30
0.0
 11
197.548717409653
 21
-124.815611140712
 31
0.0
  0
LINE
  5
EB
330
1F
100
AcDbEntity
  8
0
  6
Continuous
 62
     3
100
AcDbLine
 10
214.548717409642
 20
-105.815611140732
 30
0.0
 11
194.548717409659
 21
-105.815611140733
 31
0.0
  0
LINE
  5
EC
330
1F
100
AcDbEntity
  8
0
  6
Continuous
 62
     3
100
AcDbLine
 10
214.548717409642
 20
-103.315611140705
 30
0.0
 11
194.548717409658
 21
-103.315611140706
 31
0.0
  0
LINE
  5
ED
330
1F
100
AcDbEntity
  8
0
  6
Continuous
 62
     3
100
AcDbLine
 10
214.548717409642
 20
-103.315611140705
 30
0.0
 11
214.31666660208
 21
-102.913687352071
 31
0.0
  0
LINE
  5
EE
330
1F
100
AcDbEntity
  8
0
  6
Continuous
 62
     3
100
AcDbLine
 10
214.548717409642
 20
-105.815611140732
 30
0.0
 11
214.548717409642
 21
-103.315611140705
 31
0.0
  0
LINE
  5
EF
330
1F
100
AcDbEntity
  8
0
  6
Continuous
 62
     3
100
AcDbLine
 10
210.548717409647
 20
-121.215611140653
 30
0.0
 11
198.548717409657
 21
-121.215611140699
 31
0.0
  0
LINE
  5
F0
330
1F
100
AcDbEntity
  8
0
  6
Continuous
 62
     3
100
AcDbLine
 10
198.548717409657
 20
-121.215611140699
 30
0.0
 11
198.548717409657
 21
-121.065611140677
 31
0.0
  0
LINE
  5
F1
330
1F
100
AcDbEntity
  8
0
  6
Continuous
 62
     3
100
AcDbLine
 10
210.548717409647
 20
-121.215611140653
 30
0.0
 11
210.548717409647
 21
-121.065611140676
 31
0.0
  0
LINE
  5
F2
330
1F
100
AcDbEntity
  8
0
  6
Continuous
 62
     3
100
AcDbLine
 10
211.548717409657
 20
-121.065611140676
 30
0.0
 11
197.548717409647
 21
-121.065611140677
 31
0.0
  0
LINE
  5
F3
330
1F
100
AcDbEntity
  8
0
  6
Continuous
 62
     3
100
AcDbLine
 10
212.548717409645
 20
-123.815611140722
 30
0.0
 11
196.548717409659
 21
-123.815611140722
 31
0.0
  0
LINE
  5
F4
330
1F
100
AcDbEntity
  8
0
  6
Continuous
 62
     3
100
AcDbLine
 10
198.548717409657
 20
-121.215611140699
 30
0.0
 11
196.548717409659
 21
-121.2156111407
 31
0.0
  0
LINE
  5
F5
330
1F
100
AcDbEntity
  8
0
  6
Continuous
 62
     3
100
AcDbLine
 10
194.548717409659
 20
-105.815611140733
 30
0.0
 11
194.548717409658
 21
-103.315611140706
 31
0.0
  0
LINE
  5
F6
330
1F
100
AcDbEntity
  8
0
  6
Continuous
 62
     3
100
AcDbLine
 10
196.148717409638
 20
-113.415611140597
 30
0.0
 11
197.548717409663
 21
-112.415611140716
 31
0.0
  0
LINE
  5
F7
330
1F
100
AcDbEntity
  8
0
  6
Continuous
 62
     3
100
AcDbLine
 10
212.548717409645
 20
-123.815611140722
 30
0.0
 11
212.548717409645
 21
-121.215611140702
 31
0.0
  0
LINE
  5
F8
330
1F
100
AcDbEntity
  8
0
  6
Continuous
 62
     3
100
AcDbLine
 10
212.548717409645
 20
-121.215611140702
 30
0.0
 11
210.548717409647
 21
-121.215611140653
 31
0.0
  0
LINE
  5
F9
330
1F
100
AcDbEntity
  8
0
  6
Continuous
 62
     3
100
AcDbLine
 10
212.948717409665
 20
-114.815611140619
 30
0.0
 11
212.948717409667
 21
-113.415611140598
 31
0.0
  0
LINE
  5
FA
330
1F
100
AcDbEntity
  8
0
  6
Continuous
 62
     3
100
AcDbLine
 10
212.948717409667
 20
-113.415611140598
 30
0.0
 11
211.548717409639
 21
-112.415611140716
 31
0.0
  0
LINE
  5
FB
330
1F
100
AcDbEntity
  8
0
  6
Continuous
 62
     3
100
AcDbLine
 10
196.148717409638
 20
-114.815611140618
 30
0.0
 11
196.548717409657
 21
-115.11561114061
 31
0.0
  0
LINE
  5
FC
330
1F
100
AcDbEntity
  8
0
  6
Continuous
 62
     3
100
AcDbLine
 10
212.948717409667
 20
-113.415611140598
 30
0.0
 11
196.148717409638
 21
-113.415611140597
 31
0.0
  0
LINE
  5
FD
330
1F
100
AcDbEntity
  8
0
  6
Continuous
 62
     3
100
AcDbLine
 10
198.548717409657
 20
-118.665611140677
 30
0.0
 11
198.548717409657
 21
-118.515611140655
 31
0.0
  0
LINE
  5
FE
330
1F
100
AcDbEntity
  8
0
  6
Continuous
 62
     3
100
AcDbLine
 10
210.548717409647
 20
-118.665611140676
 30
0.0
 11
210.548717409647
 21
-118.515611140638
 31
0.0
  0
LINE
  5
FF
330
1F
100
AcDbEntity
  8
0
  6
Continuous
 62
     3
100
AcDbLine
 10
212.548717409644
 20
-115.115611140611
 30
0.0
 11
196.548717409657
 21
-115.11561114061
 31
0.0
  0
LINE
  5
100
330
1F
100
AcDbEntity
  8
0
  6
Continuous
 62
     3
100
AcDbLine
 10
196.548717409657
 20
-118.515611140655
 30
0.0
 11
196.548717409657
 21
-115.11561114061
 31
0.0
  0
LINE
  5
101
330
1F
100
AcDbEntity
  8
0
  6
Continuous
 62
     3
100
AcDbLine
 10
198.548717409657
 20
-118.515611140655
 30
0.0
 11
196.548717409657
 21
-118.515611140655
 31
0.0
  0
LINE
  5
102
330
1F
100
AcDbEntity
  8
0
  6
Continuous
 62
     3
100
AcDbLine
 10
212.548717409646
 20
-118.515611140655
 30
0.0
 11
210.548717409647
 21
-118.515611140638
 31
0.0
  0
LINE
  5
103
330
1F
100
AcDbEntity
  8
0
  6
Continuous
 62
     3
100
AcDbLine
 10
210.548717409647
 20
-118.515611140638
 30
0.0
 11
198.548717409657
 21
-118.515611140655
 31
0.0
  0
LINE
  5
104
330
1F
100
AcDbEntity
  8
0
  6
Continuous
 62
     3
100
AcDbLine
 10
212.548717409646
 20
-118.515611140655
 30
0.0
 11
212.548717409644
 21
-115.115611140611
 31
0.0
  0
LINE
  5
105
330
1F
100
AcDbEntity
  8
0
  6
Continuous
 62
     3
100
AcDbLine
 10
197.548717409647
 20
-118.665611140677
 30
0.0
 11
211.548717409657
 21
-118.665611140676
 31
0.0
  0
LINE
  5
106
330
1F
100
AcDbEntity
  8
0
  6
Continuous
 62
     3
100
AcDbLine
 10
212.948717409665
 20
-114.815611140619
 30
0.0
 11
196.148717409638
 21
-114.815611140618
 31
0.0
  0
LINE
  5
107
330
1F
100
AcDbEntity
  8
0
  6
Continuous
 62
     3
100
AcDbLine
 10
212.948717409665
 20
-114.815611140619
 30
0.0
 11
212.548717409644
 21
-115.115611140611
 31
0.0
  0
LINE
  5
108
330
1F
100
AcDbEntity
  8
0
  6
Continuous
 62
     3
100
AcDbLine
 10
196.148717409638
 20
-114.815611140618
 30
0.0
 11
196.148717409638
 21
-113.415611140597
 31
0.0
  0
LINE
  5
109
330
1F
100
AcDbEntity
  8
0
  6
Continuous
 62
     3
100
AcDbLine
 10
196.548717409659
 20
-123.815611140722
 30
0.0
 11
196.548717409659
 21
-121.2156111407
 31
0.0
  0
LINE
  5
10A
330
1F
100
AcDbEntity
  8
0
  6
Continuous
 62
     3
100
AcDbLine
 10
194.548717409658
 20
-103.315611140706
 30
0.0
 11
194.78076821722
 21
-102.913687352072
 31
0.0
  0
LINE
  5
10B
330
1F
100
AcDbEntity
  8
0
  6
Continuous
 62
     3
100
AcDbLine
 10
197.548717409663
 20
-112.415611140716
 30
0.0
 11
197.548717409663
 21
-108.815611140733
 31
0.0
  0
LINE
  5
10C
330
1F
100
AcDbEntity
  8
0
  6
Continuous
 62
     3
100
AcDbLine
 10
211.548717409639
 20
-112.415611140716
 30
0.0
 11
211.548717409639
 21
-108.815611140733
 31
0.0
  0
LINE
  5
10D
330
1F
100
AcDbEntity
  8
0
  6
Continuous
 62
     3
100
AcDbLine
 10
211.548717409639
 20
-108.815611140733
 30
0.0
 11
197.548717409663
 21
-108.815611140733
 31
0.0
  0
LINE
  5
10E
330
1F
100
AcDbEntity
  8
0
  6
Continuous
 62
     3
100
AcDbLine
 10
211.548717409639
 20
-112.415611140716
 30
0.0
 11
197.548717409663
 21
-112.415611140716
 31
0.0
  0
LINE
  5
10F
330
1F
100
AcDbEntity
  8
0
  6
Continuous
 62
     3
100
AcDbLine
 10
214.048717423818
 20
-94.4573094162137
 30
0.0
 11
214.04871740965
 21
-101.913687352072
 31
0.0
  0
LINE
  5
110
330
1F
100
AcDbEntity
  8
0
  6
Continuous
 62
     3
100
AcDbLine
 10
195.04871740965
 20
-94.8156110938152
 30
0.0
 11
195.04871740965
 21
-101.913687352073
 31
0.0
  0
LINE
  5
111
330
1F
100
AcDbEntity
  8
0
  6
Continuous
 62
     3
100
AcDbLine
 10
189.337392544244
 20
-91.3156111406947
 30
0.0
 11
189.04871740965
 21
-90.8156111406949
 31
0.0
  0
LINE
  5
112
330
1F
100
AcDbEntity
  8
0
  6
Continuous
 62
     3
100
AcDbLine
 10
212.548717409645
 20
-123.815611140722
 30
0.0
 11
211.548717409642
 21
-124.815611140719
 31
0.0
  0
LINE
  5
113
330
1F
100
AcDbEntity
  8
0
  6
Continuous
 62
     3
100
AcDbLine
 10
211.548717409642
 20
-124.815611140719
 30
0.0
 11
197.548717409653
 21
-124.815611140712
 31
0.0
  0
LINE
  5
114
330
1F
100
AcDbEntity
  8
0
  6
Continuous
 62
     3
100
AcDbLine
 10
216.260042275054
 20
-91.3156111406958
 30
0.0
 11
216.54871740965
 21
-90.8156111406952
 31
0.0
  0
LINE
  5
115
330
1F
100
AcDbEntity
  8
0
  6
Continuous
 62
     3
100
AcDbLine
 10
216.260042275054
 20
-58.315611140694
 30
0.0
 11
216.54871740965
 21
-58.8156111406947
 31
0.0
  0
LINE
  5
116
330
1F
100
AcDbEntity
  8
0
  6
Continuous
 62
     3
100
AcDbLine
 10
216.54871740965
 20
-90.8156111406952
 30
0.0
 11
216.54871740965
 21
-58.8156111406947
 31
0.0
  0
LINE
  5
117
330
1F
100
AcDbEntity
  8
0
  6
Continuous
 62
     3
100
AcDbLine
 10
192.04871743887
 20
-91.8156111406954
 30
0.0
 11
190.203417948029
 21
-91.8156111406954
 31
0.0
  0
LINE
  5
118
330
1F
100
AcDbEntity
  8
0
  6
Continuous
 62
     3
100
AcDbLine
 10
189.04871740965
 20
-58.8156111406949
 30
0.0
 11
189.04871740965
 21
-90.8156111406949
 31
0.0
  0
LINE
  5
119
330
1F
100
AcDbEntity
  8
0
  6
Continuous
 62
     3
100
AcDbLine
 10
189.337392544243
 20
-58.3156111406954
 30
0.0
 11
189.04871740965
 21
-58.8156111406949
 31
0.0
  0
LINE
  5
11A
330
1F
100
AcDbEntity
  8
0
  6
Continuous
 62
     3
100
AcDbLine
 10
215.39401687127
 20
-57.8156111406944
 30
0.0
 11
190.203417948029
 21
-57.8156111406944
 31
0.0
  0
LINE
  5
11B
330
1F
100
AcDbEntity
  8
0
  6
Continuous
 62
     3
100
AcDbLine
 10
160.548717409166
 20
-111.5739620457
 30
0.0
 11
167.548717409166
 21
-111.5739620457
 31
0.0
  0
LINE
  5
11C
330
1F
100
AcDbEntity
  8
0
  6
Continuous
 62
     3
100
AcDbLine
 10
168.048717409166
 20
-111.0739620457
 30
0.0
 11
168.048717409166
 21
-91.7917676666502
 31
0.0
  0
LINE
  5
11D
330
1F
100
AcDbEntity
  8
0
  6
Continuous
 62
     3
100
AcDbLine
 10
160.048717409166
 20
-111.0739620457
 30
0.0
 11
160.048717409166
 21
-91.7917676547499
 31
0.0
  0
LINE
  5
11E
330
1F
100
AcDbEntity
  8
0
  6
Continuous
 62
     3
100
AcDbLine
 10
82.0980963743049
 20
-105.815611140741
 30
0.0
 11
76.098096374313
 21
-105.815611140733
 31
0.0
  0
LINE
  5
11F
330
1F
100
AcDbEntity
  8
0
  6
Continuous
 62
     3
100
AcDbLine
 10
96.0980963742969
 20
-103.315611140707
 30
0.0
 11
96.0980963742966
 21
-105.815611140733
 31
0.0
  0
LINE
  5
120
330
1F
100
AcDbEntity
  8
0
  6
Continuous
 62
     3
100
AcDbLine
 10
96.0980963742969
 20
-103.315611140707
 30
0.0
 11
90.0980963743049
 21
-103.315611140713
 31
0.0
  0
LINE
  5
121
330
1F
100
AcDbEntity
  8
0
  6
Continuous
 62
     3
100
AcDbLine
 10
79.0980963742999
 20
-118.665611140678
 30
0.0
 11
92.0980963742998
 21
-118.665611140685
 31
0.0
  0
LINE
  5
122
330
1F
100
AcDbEntity
  8
0
  6
Continuous
 62
     3
100
AcDbLine
 10
76.5980963743048
 20
-101.913687352074
 30
0.0
 11
76.598096354776
 21
-90.4281063262104
 31
0.0
  0
LINE
  5
123
330
1F
100
AcDbEntity
  8
0
  6
Continuous
 62
     3
100
AcDbLine
 10
80.0980963743098
 20
-118.51561114064
 30
0.0
 11
80.0980963743098
 21
-118.665611140685
 31
0.0
  0
LINE
  5
124
330
1F
100
AcDbEntity
  8
0
  6
Continuous
 62
     3
100
AcDbLine
 10
86.0980963743048
 20
-124.815611140713
 30
0.0
 11
79.0980963743143
 21
-124.815611140721
 31
0.0
  0
LINE
  5
125
330
1F
100
AcDbEntity
  8
0
  6
Continuous
 62
     3
100
AcDbLine
 10
78.0980963743121
 20
-121.215611140704
 30
0.0
 11
78.0980963743121
 21
-123.815611140724
 31
0.0
  0
LINE
  5
126
330
1F
100
AcDbEntity
  8
0
  6
Continuous
 62
     3
100
AcDbLine
 10
80.0980963743098
 20
-121.065611140685
 30
0.0
 11
79.0980963742997
 21
-121.065611140678
 31
0.0
  0
LINE
  5
127
330
1F
100
AcDbEntity
  8
0
  6
Continuous
 62
     3
100
AcDbLine
 10
80.0980963743098
 20
-121.065611140685
 30
0.0
 11
80.0980963743098
 21
-121.215611140655
 31
0.0
  0
LINE
  5
128
330
1F
100
AcDbEntity
  8
0
  6
Continuous
 62
     3
100
AcDbLine
 10
80.0980963743098
 20
-118.51561114064
 30
0.0
 11
78.0980963743103
 21
-118.515611140657
 31
0.0
  0
LINE
  5
129
330
1F
100
AcDbEntity
  8
0
  6
Continuous
 62
     3
100
AcDbLine
 10
86.0980963743048
 20
-112.415611140717
 30
0.0
 11
79.0980963743166
 21
-112.415611140718
 31
0.0
  0
LINE
  5
12A
330
1F
100
AcDbEntity
  8
0
  6
Continuous
 62
     3
100
AcDbLine
 10
79.0980963743166
 20
-112.415611140718
 30
0.0
 11
77.6980963742888
 21
-113.4156111406
 31
0.0
  0
LINE
  5
12B
330
1F
100
AcDbEntity
  8
0
  6
Continuous
 62
     3
100
AcDbLine
 10
86.0980963743048
 20
-113.415611140598
 30
0.0
 11
77.6980963742888
 21
-113.4156111406
 31
0.0
  0
LINE
  5
12C
330
1F
100
AcDbEntity
  8
0
  6
Continuous
 62
     3
100
AcDbLine
 10
77.6980963742888
 20
-113.4156111406
 30
0.0
 11
77.6980963742915
 21
-114.815611140621
 31
0.0
  0
LINE
  5
12D
330
1F
100
AcDbEntity
  8
0
  6
Continuous
 62
     3
100
AcDbLine
 10
86.0980963743048
 20
-114.815611140619
 30
0.0
 11
77.6980963742915
 21
-114.815611140621
 31
0.0
  0
LINE
  5
12E
330
1F
100
AcDbEntity
  8
0
  6
Continuous
 62
     3
100
AcDbLine
 10
78.0980963743126
 20
-115.115611140613
 30
0.0
 11
77.6980963742915
 21
-114.815611140621
 31
0.0
  0
LINE
  5
12F
330
1F
100
AcDbEntity
  8
0
  6
Continuous
 62
     3
100
AcDbLine
 10
86.0980963743048
 20
-115.115611140611
 30
0.0
 11
78.0980963743126
 21
-115.115611140613
 31
0.0
  0
LINE
  5
130
330
1F
100
AcDbEntity
  8
0
  6
Continuous
 62
     3
100
AcDbLine
 10
78.0980963743126
 20
-115.115611140613
 30
0.0
 11
78.0980963743103
 21
-118.515611140657
 31
0.0
  0
LINE
  5
131
330
1F
100
AcDbEntity
  8
0
  6
Continuous
 62
     3
100
AcDbLine
 10
86.0980963743048
 20
-118.515611140656
 30
0.0
 11
80.0980963743098
 21
-118.51561114064
 31
0.0
  0
LINE
  5
132
330
1F
100
AcDbEntity
  8
0
  6
Continuous
 62
     3
100
AcDbLine
 10
80.0980963743098
 20
-121.215611140655
 30
0.0
 11
78.0980963743121
 21
-121.215611140704
 31
0.0
  0
LINE
  5
133
330
1F
100
AcDbEntity
  8
0
  6
Continuous
 62
     3
100
AcDbLine
 10
86.0980963743048
 20
-121.215611140701
 30
0.0
 11
80.0980963743098
 21
-121.215611140655
 31
0.0
  0
LINE
  5
134
330
1F
100
AcDbEntity
  8
0
  6
Continuous
 62
     3
100
AcDbLine
 10
86.0980963743048
 20
-123.815611140723
 30
0.0
 11
78.0980963743121
 21
-123.815611140724
 31
0.0
  0
LINE
  5
135
330
1F
100
AcDbEntity
  8
0
  6
Continuous
 62
     3
100
AcDbLine
 10
79.0980963743143
 20
-124.815611140721
 30
0.0
 11
78.0980963743121
 21
-123.815611140724
 31
0.0
  0
LINE
  5
136
330
1F
100
AcDbEntity
  8
0
  6
Continuous
 62
     3
100
AcDbLine
 10
79.0980963743171
 20
-108.815611140734
 30
0.0
 11
79.0980963743166
 21
-112.415611140718
 31
0.0
  0
LINE
  5
137
330
1F
100
AcDbEntity
  8
0
  6
Continuous
 62
     3
100
AcDbLine
 10
82.0980963743049
 20
-103.315611140713
 30
0.0
 11
76.0980963743127
 21
-103.315611140707
 31
0.0
  0
LINE
  5
138
330
1F
100
AcDbEntity
  8
0
  6
Continuous
 62
     3
100
AcDbLine
 10
76.0980963743127
 20
-103.315611140707
 30
0.0
 11
76.098096374313
 21
-105.815611140733
 31
0.0
  0
LINE
  5
139
330
1F
100
AcDbEntity
  8
0
  6
Continuous
 62
     3
100
AcDbLine
 10
76.3301471818743
 20
-102.913687352073
 30
0.0
 11
76.0980963743127
 21
-103.315611140707
 31
0.0
  0
LINE
  5
13A
330
1F
100
AcDbEntity
  8
0
  6
Continuous
 62
     3
100
AcDbLine
 10
95.8660455667353
 20
-102.913687352073
 30
0.0
 11
96.0980963742969
 21
-103.315611140707
 31
0.0
  0
LINE
  5
13B
330
1F
100
AcDbEntity
  8
0
  6
Continuous
 62
     3
100
AcDbLine
 10
95.5980963743048
 20
-101.913687352074
 30
0.0
 11
95.5980963743048
 21
-90.4281061369084
 31
0.0
  0
LINE
  5
13C
330
1F
100
AcDbEntity
  8
0
  6
Continuous
 62
     3
100
AcDbLine
 10
96.0980963742966
 20
-105.815611140733
 30
0.0
 11
90.0980963743049
 21
-105.815611140741
 31
0.0
  0
LINE
  5
13D
330
1F
100
AcDbEntity
  8
0
  6
Continuous
 62
     3
100
AcDbLine
 10
93.0980963742925
 20
-108.815611140734
 30
0.0
 11
93.098096374293
 21
-112.415611140718
 31
0.0
  0
LINE
  5
13E
330
1F
100
AcDbEntity
  8
0
  6
Continuous
 62
     3
100
AcDbLine
 10
94.0980963742975
 20
-121.215611140704
 30
0.0
 11
94.0980963742975
 21
-123.815611140724
 31
0.0
  0
LINE
  5
13F
330
1F
100
AcDbEntity
  8
0
  6
Continuous
 62
     3
100
AcDbLine
 10
93.0980963742953
 20
-124.815611140721
 30
0.0
 11
94.0980963742975
 21
-123.815611140724
 31
0.0
  0
LINE
  5
140
330
1F
100
AcDbEntity
  8
0
  6
Continuous
 62
     3
100
AcDbLine
 10
93.0980963743099
 20
-121.065611140678
 30
0.0
 11
92.0980963742998
 21
-121.065611140685
 31
0.0
  0
LINE
  5
141
330
1F
100
AcDbEntity
  8
0
  6
Continuous
 62
     3
100
AcDbLine
 10
92.0980963742998
 20
-118.51561114064
 30
0.0
 11
92.0980963742998
 21
-118.665611140685
 31
0.0
  0
LINE
  5
142
330
1F
100
AcDbEntity
  8
0
  6
Continuous
 62
     3
100
AcDbLine
 10
92.0980963742998
 20
-118.665611140685
 30
0.0
 11
93.0980963743097
 21
-118.665611140678
 31
0.0
  0
LINE
  5
143
330
1F
100
AcDbEntity
  8
0
  6
Continuous
 62
     3
100
AcDbLine
 10
94.0980963742975
 20
-123.815611140724
 30
0.0
 11
86.0980963743048
 21
-123.815611140723
 31
0.0
  0
LINE
  5
144
330
1F
100
AcDbEntity
  8
0
  6
Continuous
 62
     3
100
AcDbLine
 10
93.0980963742953
 20
-124.815611140721
 30
0.0
 11
86.0980963743048
 21
-124.815611140713
 31
0.0
  0
LINE
  5
145
330
1F
100
AcDbEntity
  8
0
  6
Continuous
 62
     3
100
AcDbLine
 10
94.0980963742975
 20
-121.215611140704
 30
0.0
 11
92.0980963742998
 21
-121.215611140655
 31
0.0
  0
LINE
  5
146
330
1F
100
AcDbEntity
  8
0
  6
Continuous
 62
     3
100
AcDbLine
 10
92.0980963742998
 20
-121.065611140685
 30
0.0
 11
92.0980963742998
 21
-121.215611140655
 31
0.0
  0
LINE
  5
147
330
1F
100
AcDbEntity
  8
0
  6
Continuous
 62
     3
100
AcDbLine
 10
94.0980963742993
 20
-118.515611140657
 30
0.0
 11
92.0980963742998
 21
-118.51561114064
 31
0.0
  0
LINE
  5
148
330
1F
100
AcDbEntity
  8
0
  6
Continuous
 62
     3
100
AcDbLine
 10
94.098096374297
 20
-115.115611140613
 30
0.0
 11
94.0980963742993
 21
-118.515611140657
 31
0.0
  0
LINE
  5
149
330
1F
100
AcDbEntity
  8
0
  6
Continuous
 62
     3
100
AcDbLine
 10
94.098096374297
 20
-115.115611140613
 30
0.0
 11
86.0980963743048
 21
-115.115611140611
 31
0.0
  0
LINE
  5
14A
330
1F
100
AcDbEntity
  8
0
  6
Continuous
 62
     3
100
AcDbLine
 10
94.4980963743208
 20
-113.4156111406
 30
0.0
 11
94.4980963743181
 21
-114.815611140621
 31
0.0
  0
LINE
  5
14B
330
1F
100
AcDbEntity
  8
0
  6
Continuous
 62
     3
100
AcDbLine
 10
94.4980963743208
 20
-113.4156111406
 30
0.0
 11
86.0980963743048
 21
-113.415611140598
 31
0.0
  0
LINE
  5
14C
330
1F
100
AcDbEntity
  8
0
  6
Continuous
 62
     3
100
AcDbLine
 10
93.098096374293
 20
-112.415611140718
 30
0.0
 11
86.0980963743048
 21
-112.415611140717
 31
0.0
  0
LINE
  5
14D
330
1F
100
AcDbEntity
  8
0
  6
Continuous
 62
     3
100
AcDbLine
 10
93.098096374293
 20
-112.415611140718
 30
0.0
 11
94.4980963743208
 21
-113.4156111406
 31
0.0
  0
LINE
  5
14E
330
1F
100
AcDbEntity
  8
0
  6
Continuous
 62
     3
100
AcDbLine
 10
94.4980963743181
 20
-114.815611140621
 30
0.0
 11
86.0980963743048
 21
-114.815611140619
 31
0.0
  0
LINE
  5
14F
330
1F
100
AcDbEntity
  8
0
  6
Continuous
 62
     3
100
AcDbLine
 10
94.098096374297
 20
-115.115611140613
 30
0.0
 11
94.4980963743181
 21
-114.815611140621
 31
0.0
  0
LINE
  5
150
330
1F
100
AcDbEntity
  8
0
  6
Continuous
 62
     3
100
AcDbLine
 10
92.0980963742998
 20
-118.51561114064
 30
0.0
 11
86.0980963743048
 21
-118.515611140656
 31
0.0
  0
LINE
  5
151
330
1F
100
AcDbEntity
  8
0
  6
Continuous
 62
     3
100
AcDbLine
 10
92.0980963742998
 20
-121.215611140655
 30
0.0
 11
86.0980963743048
 21
-121.215611140701
 31
0.0
  0
LINE
  5
152
330
1F
100
AcDbEntity
  8
0
  6
Continuous
 62
     3
100
AcDbLine
 10
92.0980963742998
 20
-121.065611140685
 30
0.0
 11
80.0980963743098
 21
-121.065611140685
 31
0.0
  0
LINE
  5
153
330
1F
100
AcDbEntity
  8
0
  6
Continuous
 62
     3
100
AcDbLine
 10
72.1519439515982
 20
-62.6601665744685
 30
0.0
 11
82.5442487970114
 21
-56.6601665744685
 31
0.0
  0
LINE
  5
154
330
1F
100
AcDbEntity
  8
0
  6
Continuous
 62
     3
100
AcDbLine
 10
68.5980963743048
 20
-80.8156111406962
 30
0.0
 11
68.5980963743048
 21
-68.8156111406962
 31
0.0
  0
LINE
  5
155
330
1F
100
AcDbEntity
  8
0
  6
Continuous
 62
     3
100
AcDbLine
 10
103.598096374305
 20
-68.8156111406962
 30
0.0
 11
103.598096374305
 21
-80.8156111406962
 31
0.0
  0
LINE
  5
156
330
1F
100
AcDbEntity
  8
0
  6
Continuous
 62
     3
100
AcDbLine
 10
89.6519439515982
 20
-56.6601665744685
 30
0.0
 11
100.044248797011
 21
-62.6601665744685
 31
0.0
  0
LINE
  5
157
330
1F
100
AcDbEntity
  8
0
  6
Continuous
 62
     3
100
AcDbLine
 10
100.044248797011
 20
-86.9710557069239
 30
0.0
 11
95.7648827811979
 21
-89.4417488281147
 31
0.0
  0
LINE
  5
158
330
1F
100
AcDbEntity
  8
0
  6
Continuous
 62
     3
100
AcDbLine
 10
76.43131025741
 20
-89.4417489955454
 30
0.0
 11
72.1519439515982
 21
-86.9710557069239
 31
0.0
  0
LINE
  5
159
330
1F
100
AcDbEntity
  8
0
  6
Continuous
 62
     3
100
AcDbLine
 10
82.0980963743049
 20
-91.3383227825541
 30
0.0
 11
82.0980963743049
 21
-111.073962045701
 31
0.0
  0
LINE
  5
15A
330
1F
100
AcDbEntity
  8
0
  6
Continuous
 62
     3
100
AcDbLine
 10
82.5980963743049
 20
-111.573962045701
 30
0.0
 11
86.0980963743049
 21
-111.573962045701
 31
0.0
  0
LINE
  5
15B
330
1F
100
AcDbEntity
  8
0
  6
Continuous
 62
     3
100
AcDbLine
 10
90.0980963743049
 20
-91.3383227825541
 30
0.0
 11
90.0980963743049
 21
-111.073962045701
 31
0.0
  0
LINE
  5
15C
330
1F
100
AcDbEntity
  8
0
  6
Continuous
 62
     3
100
AcDbLine
 10
86.0980963743049
 20
-111.573962045701
 30
0.0
 11
89.5980963743049
 21
-111.573962045701
 31
0.0
  0
LINE
  5
15D
330
1F
100
AcDbEntity
  8
0
  6
Continuous
 62
     3
100
AcDbLine
 10
77.0480963742911
 20
58.2096326204652
 30
0.0
 11
75.8480963742886
 21
57.0096326204627
 31
0.0
  0
LINE
  5
15E
330
1F
100
AcDbEntity
  8
0
  6
Continuous
 62
     3
100
AcDbLine
 10
75.8480963742886
 20
57.0096326204627
 30
0.0
 11
75.8480963742872
 21
44.2096326206536
 31
0.0
  0
LINE
  5
15F
330
1F
100
AcDbEntity
  8
0
  6
Continuous
 62
     3
100
AcDbLine
 10
96.3480963743211
 20
57.0096326204627
 30
0.0
 11
96.3480963743225
 21
44.2096326206536
 31
0.0
  0
LINE
  5
160
330
1F
100
AcDbEntity
  8
0
  6
Continuous
 62
     3
100
AcDbLine
 10
69.5980963743048
 20
44.2096326206536
 30
0.0
 11
75.8480963742872
 21
44.2096326206536
 31
0.0
  0
LINE
  5
161
330
1F
100
AcDbEntity
  8
0
  6
Continuous
 62
     3
100
AcDbLine
 10
96.3480963743225
 20
44.2096326206536
 30
0.0
 11
102.598096374305
 21
44.2096326206536
 31
0.0
  0
LINE
  5
162
330
1F
100
AcDbEntity
  8
0
  6
Continuous
 62
     3
100
AcDbLine
 10
75.8480963742872
 20
44.2096326206536
 30
0.0
 11
96.3480963743225
 21
44.2096326206536
 31
0.0
  0
LINE
  5
163
330
1F
100
AcDbEntity
  8
0
  6
Continuous
 62
     3
100
AcDbLine
 10
75.8480963742886
 20
57.0096326204627
 30
0.0
 11
96.3480963743211
 21
57.0096326204627
 31
0.0
  0
LINE
  5
164
330
1F
100
AcDbEntity
  8
0
  6
Continuous
 62
     3
100
AcDbLine
 10
95.1480963743186
 20
58.2096326204652
 30
0.0
 11
96.3480963743211
 21
57.0096326204627
 31
0.0
  0
LINE
  5
165
330
1F
100
AcDbEntity
  8
0
  6
Continuous
 62
     3
100
AcDbLine
 10
77.0480963742911
 20
58.2096326204652
 30
0.0
 11
95.1480963743186
 21
58.2096326204652
 31
0.0
  0
LINE
  5
166
330
1F
100
AcDbEntity
  8
0
  6
Continuous
 62
     3
100
AcDbLine
 10
100.044248797012
 20
42.2096326206536
 30
0.0
 11
103.598096374305
 21
42.2096326206536
 31
0.0
  0
LINE
  5
167
330
1F
100
AcDbEntity
  8
0
  6
Continuous
 62
     3
100
AcDbLine
 10
100.044248797012
 20
33.9096326206548
 30
0.0
 11
103.598096374305
 21
33.9096326206548
 31
0.0
  0
LINE
  5
168
330
1F
100
AcDbEntity
  8
0
  6
Continuous
 62
     3
100
AcDbLine
 10
103.598096374305
 20
33.9096326206548
 30
0.0
 11
103.598096374305
 21
31.673564643155
 31
0.0
  0
LINE
  5
169
330
1F
100
AcDbEntity
  8
0
  6
Continuous
 62
     3
100
AcDbLine
 10
103.598096374305
 20
43.9416834282225
 30
0.0
 11
103.598096374305
 21
42.2096326206536
 31
0.0
  0
LINE
  5
16A
330
1F
100
AcDbEntity
  8
0
  6
Continuous
 62
     3
100
AcDbLine
 10
68.5980963743048
 20
31.673564643155
 30
0.0
 11
68.5980963743048
 21
33.9096326206548
 31
0.0
  0
LINE
  5
16B
330
1F
100
AcDbEntity
  8
0
  6
Continuous
 62
     3
100
AcDbLine
 10
68.5980963743048
 20
42.2096326206536
 30
0.0
 11
68.5980963743048
 21
43.9416834282225
 31
0.0
  0
LINE
  5
16C
330
1F
100
AcDbEntity
  8
0
  6
Continuous
 62
     3
100
AcDbLine
 10
68.5980963743048
 20
42.2096326206536
 30
0.0
 11
72.1519439515982
 21
42.2096326206536
 31
0.0
  0
LINE
  5
16D
330
1F
100
AcDbEntity
  8
0
  6
Continuous
 62
     3
100
AcDbLine
 10
68.5980963743048
 20
33.9096326206548
 30
0.0
 11
72.1519439515982
 21
33.9096326206548
 31
0.0
  0
LINE
  5
16E
330
1F
100
AcDbEntity
  8
0
  6
Continuous
 62
     3
100
AcDbLine
 10
99.548096374513
 20
30.9096326206533
 30
0.0
 11
101.598096374305
 21
30.9096326206548
 31
0.0
  0
LINE
  5
16F
330
1F
100
AcDbEntity
  8
0
  6
Continuous
 62
     3
100
AcDbLine
 10
70.5980963743048
 20
30.9096326206548
 30
0.0
 11
72.6480963740967
 21
30.9096326206533
 31
0.0
  0
LINE
  5
170
330
1F
100
AcDbEntity
  8
0
  6
Continuous
 62
     3
100
AcDbLine
 10
72.6480963740967
 20
30.7096326206565
 30
0.0
 11
72.6480963740967
 21
30.9096326206533
 31
0.0
  0
LINE
  5
171
330
1F
100
AcDbEntity
  8
0
  6
Continuous
 62
     3
100
AcDbLine
 10
99.548096374513
 20
30.7096326206565
 30
0.0
 11
99.548096374513
 21
30.9096326206533
 31
0.0
  0
LINE
  5
172
330
1F
100
AcDbEntity
  8
0
  6
Continuous
 62
     3
100
AcDbLine
 10
100.044248797012
 20
42.2096326206536
 30
0.0
 11
100.044248797012
 21
33.9096326206548
 31
0.0
  0
LINE
  5
173
330
1F
100
AcDbEntity
  8
0
  6
Continuous
 62
     3
100
AcDbLine
 10
82.5442487970115
 20
33.9096326206548
 30
0.0
 11
89.6519439515982
 21
33.9096326206548
 31
0.0
  0
LINE
  5
174
330
1F
100
AcDbEntity
  8
0
  6
Continuous
 62
     3
100
AcDbLine
 10
82.5442487970115
 20
42.2096326206536
 30
0.0
 11
89.6519439515982
 21
42.2096326206536
 31
0.0
  0
LINE
  5
175
330
1F
100
AcDbEntity
  8
0
  6
Continuous
 62
     3
100
AcDbLine
 10
89.6519439515982
 20
42.2096326206536
 30
0.0
 11
89.6519439515982
 21
33.9096326206548
 31
0.0
  0
LINE
  5
176
330
1F
100
AcDbEntity
  8
0
  6
Continuous
 62
     3
100
AcDbLine
 10
82.5442487970115
 20
42.2096326206536
 30
0.0
 11
82.5442487970115
 21
33.9096326206548
 31
0.0
  0
LINE
  5
177
330
1F
100
AcDbEntity
  8
0
  6
Continuous
 62
     3
100
AcDbLine
 10
72.1519439515982
 20
42.2096326206536
 30
0.0
 11
72.1519439515982
 21
33.9096326206548
 31
0.0
  0
LINE
  5
178
330
1F
100
AcDbEntity
  8
0
  6
Continuous
 62
     3
100
AcDbLine
 10
68.5980963743048
 20
42.2096326206536
 30
0.0
 11
68.5980963743048
 21
33.9096326206548
 31
0.0
  0
LINE
  5
179
330
1F
100
AcDbEntity
  8
0
  6
Continuous
 62
     3
100
AcDbLine
 10
103.598096374305
 20
42.2096326206536
 30
0.0
 11
103.598096374305
 21
33.9096326206548
 31
0.0
  0
LINE
  5
17A
330
1F
100
AcDbEntity
  8
0
  6
Continuous
 62
     3
100
AcDbLine
 10
72.6480963740967
 20
30.9096326206533
 30
0.0
 11
99.548096374513
 21
30.9096326206533
 31
0.0
  0
LINE
  5
17B
330
1F
100
AcDbEntity
  8
0
  6
Continuous
 62
     3
100
AcDbLine
 10
74.0980963743775
 20
3.20963262065648
 30
0.0
 11
74.0980963743775
 21
1.70963262017597
 31
0.0
  0
LINE
  5
17C
330
1F
100
AcDbEntity
  8
0
  6
Continuous
 62
     3
100
AcDbLine
 10
98.0980963742322
 20
3.20963262065648
 30
0.0
 11
98.0980963742322
 21
1.70963262017597
 31
0.0
  0
LINE
  5
17D
330
1F
100
AcDbEntity
  8
0
  6
Continuous
 62
     3
100
AcDbLine
 10
70.0980963743046
 20
30.7096326206565
 30
0.0
 11
69.5980963743039
 21
30.420957486061
 31
0.0
  0
LINE
  5
17E
330
1F
100
AcDbEntity
  8
0
  6
Continuous
 62
     3
100
AcDbLine
 10
102.098096374305
 20
30.7096326206565
 30
0.0
 11
70.0980963743046
 21
30.7096326206565
 31
0.0
  0
LINE
  5
17F
330
1F
100
AcDbEntity
  8
0
  6
Continuous
 62
     3
100
AcDbLine
 10
102.098096374305
 20
30.7096326206565
 30
0.0
 11
102.598096374306
 21
30.420957486061
 31
0.0
  0
LINE
  5
180
330
1F
100
AcDbEntity
  8
0
  6
Continuous
 62
     3
100
AcDbLine
 10
103.098096374305
 20
4.36433315903555
 30
0.0
 11
103.098096374305
 21
29.554932082277
 31
0.0
  0
LINE
  5
181
330
1F
100
AcDbEntity
  8
0
  6
Continuous
 62
     3
100
AcDbLine
 10
102.098096374305
 20
3.20963262065648
 30
0.0
 11
102.598096374305
 21
3.49830775525056
 31
0.0
  0
LINE
  5
182
330
1F
100
AcDbEntity
  8
0
  6
Continuous
 62
     3
100
AcDbLine
 10
86.0980963743048
 20
3.20963262065648
 30
0.0
 11
102.098096374305
 21
3.20963262065648
 31
0.0
  0
LINE
  5
183
330
1F
100
AcDbEntity
  8
0
  6
Continuous
 62
     3
100
AcDbLine
 10
70.0980963743047
 20
3.20963262065648
 30
0.0
 11
69.5980963743051
 21
3.49830775525056
 31
0.0
  0
LINE
  5
184
330
1F
100
AcDbEntity
  8
0
  6
Continuous
 62
     3
100
AcDbLine
 10
70.0980963743047
 20
3.20963262065648
 30
0.0
 11
86.0980963743048
 21
3.20963262065648
 31
0.0
  0
LINE
  5
185
330
1F
100
AcDbEntity
  8
0
  6
Continuous
 62
     3
100
AcDbLine
 10
69.0980963743043
 20
4.36433315903555
 30
0.0
 11
69.0980963743043
 21
29.554932082277
 31
0.0
  0
LINE
  5
186
330
1F
100
AcDbEntity
  8
0
  6
Continuous
 62
     3
100
AcDbLine
 10
102.098096374305
 20
1.70963262017598
 30
0.0
 11
70.0980963743049
 21
1.70963262017598
 31
0.0
  0
LINE
  5
187
330
1F
100
AcDbEntity
  8
0
  6
Continuous
 62
     3
100
AcDbLine
 10
102.098096374305
 20
-29.2903673798268
 30
0.0
 11
91.8608479590224
 21
-29.2903673798165
 31
0.0
  0
LINE
  5
188
330
1F
100
AcDbEntity
  8
0
  6
Continuous
 62
     3
100
AcDbLine
 10
83.8353447895874
 20
-29.2903673798165
 30
0.0
 11
80.3353447895874
 21
-29.2903673798165
 31
0.0
  0
LINE
  5
189
330
1F
100
AcDbEntity
  8
0
  6
Continuous
 62
     3
100
AcDbLine
 10
91.8608479590224
 20
-29.2903673798165
 30
0.0
 11
88.3608479590224
 21
-29.2903673798165
 31
0.0
  0
LINE
  5
18A
330
1F
100
AcDbEntity
  8
0
  6
Continuous
 62
     3
100
AcDbLine
 10
88.3608479590224
 20
-29.2903673798165
 30
0.0
 11
83.8353447895874
 21
-29.2903673798165
 31
0.0
  0
LINE
  5
18B
330
1F
100
AcDbEntity
  8
0
  6
Continuous
 62
     3
100
AcDbLine
 10
80.3353447895874
 20
-29.2903673798165
 30
0.0
 11
70.0980963743049
 21
-29.2903673798268
 31
0.0
  0
LINE
  5
18C
330
1F
100
AcDbEntity
  8
0
  6
Continuous
 62
     3
100
AcDbLine
 10
103.098096374305
 20
0.70963262017598
 30
0.0
 11
103.098096374305
 21
-28.2903673798268
 31
0.0
  0
LINE
  5
18D
330
1F
100
AcDbEntity
  8
0
  6
Continuous
 62
     3
100
AcDbLine
 10
69.0980963743049
 20
0.70963262017598
 30
0.0
 11
69.0980963743049
 21
-28.2903673798268
 31
0.0
  0
LINE
  5
18E
330
1F
100
AcDbEntity
  8
0
  6
Continuous
 62
     3
100
AcDbLine
 10
83.8353447895874
 20
-29.2903673798165
 30
0.0
 11
80.3353447895874
 21
-29.2903673798165
 31
0.0
  0
LINE
  5
18F
330
1F
100
AcDbEntity
  8
0
  6
Continuous
 62
     3
100
AcDbLine
 10
91.8608479590224
 20
-29.2903673798165
 30
0.0
 11
88.3608479590224
 21
-29.2903673798165
 31
0.0
  0
LINE
  5
190
330
1F
100
AcDbEntity
  8
0
  6
Continuous
 62
     3
100
AcDbLine
 10
88.3608479590224
 20
-29.2903673798165
 30
0.0
 11
83.8353447895874
 21
-29.2903673798165
 31
0.0
  0
LINE
  5
191
330
1F
100
AcDbEntity
  8
0
  6
Continuous
 62
     3
100
AcDbLine
 10
91.8608479590224
 20
-29.2903673798165
 30
0.0
 11
91.8608479590224
 21
-31.3820330589365
 31
0.0
  0
LINE
  5
192
330
1F
100
AcDbEntity
  8
0
  6
Continuous
 62
     3
100
AcDbLine
 10
80.3353447895874
 20
-29.2903673798165
 30
0.0
 11
80.3353447895874
 21
-31.3820330589365
 31
0.0
  0
LINE
  5
193
330
1F
100
AcDbEntity
  8
0
  6
PHANTOM
 62
     6
100
AcDbLine
 10
151.548717409673
 20
-80.578362725352
 30
0.0
 11
149.457051730553
 21
-80.578362725352
 31
0.0
  0
LINE
  5
194
330
1F
100
AcDbEntity
  8
0
  6
PHANTOM
 62
     6
100
AcDbLine
 10
151.548717409673
 20
-69.0528595559169
 30
0.0
 11
149.386430121237
 21
-69.0528595559169
 31
0.0
  0
LINE
  5
195
330
1F
100
AcDbEntity
  8
0
  6
PHANTOM
 62
     6
100
AcDbLine
 10
156.548717409165
 20
-91.8156111406328
 30
0.0
 11
152.548717409663
 21
-91.8156111406328
 31
0.0
  0
LINE
  5
196
330
1F
100
AcDbEntity
  8
0
  6
PHANTOM
 62
     6
100
AcDbLine
 10
151.548717409663
 20
-90.8156111406333
 30
0.0
 11
151.548717409695
 21
-58.8156111406323
 31
0.0
  0
LINE
  5
197
330
1F
100
AcDbEntity
  8
0
  6
PHANTOM
 62
     6
100
AcDbLine
 10
156.548717409165
 20
-57.8156111406333
 30
0.0
 11
152.548717409663
 21
-57.8156111406333
 31
0.0
  0
LINE
  5
198
330
1F
100
AcDbEntity
  8
0
  6
PHANTOM
 62
     6
100
AcDbLine
 10
198.548717410143
 20
-31.1156111406751
 30
0.0
 11
198.548717410136
 21
-28.4156111406302
 31
0.0
  0
LINE
  5
199
330
1F
100
AcDbEntity
  8
0
  6
PHANTOM
 62
     6
100
AcDbLine
 10
196.548717410136
 20
-31.1156111406751
 30
0.0
 11
198.548717410143
 21
-31.1156111406751
 31
0.0
  0
LINE
  5
19A
330
1F
100
AcDbEntity
  8
0
  6
PHANTOM
 62
     6
100
AcDbLine
 10
196.148717410117
 20
-36.2156111407332
 30
0.0
 11
196.148717410117
 21
-34.8156111407117
 31
0.0
  0
LINE
  5
19B
330
1F
100
AcDbEntity
  8
0
  6
PHANTOM
 62
     6
100
AcDbLine
 10
196.548717410138
 20
-28.4156111406302
 30
0.0
 11
198.548717410136
 21
-28.4156111406302
 31
0.0
  0
LINE
  5
19C
330
1F
100
AcDbEntity
  8
0
  6
PHANTOM
 62
     6
100
AcDbLine
 10
197.548717410142
 20
-40.8156111405971
 30
0.0
 11
197.548717410142
 21
-37.215611140614
 31
0.0
  0
LINE
  5
19D
330
1F
100
AcDbEntity
  8
0
  6
PHANTOM
 62
     6
100
AcDbLine
 10
196.548717410138
 20
-28.4156111406302
 30
0.0
 11
196.548717410138
 21
-25.815611140608
 31
0.0
  0
LINE
  5
19E
330
1F
100
AcDbEntity
  8
0
  6
PHANTOM
 62
     6
100
AcDbLine
 10
196.548717410136
 20
-34.5156111407197
 30
0.0
 11
196.548717410136
 21
-31.1156111406751
 31
0.0
  0
LINE
  5
19F
330
1F
100
AcDbEntity
  8
0
  6
PHANTOM
 62
     6
100
AcDbLine
 10
195.048717410129
 20
-47.7175349292572
 30
0.0
 11
195.048717443702
 21
-54.8156111875148
 31
0.0
  0
LINE
  5
1A0
330
1F
100
AcDbEntity
  8
0
  6
PHANTOM
 62
     6
100
AcDbLine
 10
196.548717410136
 20
-34.5156111407197
 30
0.0
 11
196.148717410117
 21
-34.8156111407117
 31
0.0
  0
LINE
  5
1A1
330
1F
100
AcDbEntity
  8
0
  6
PHANTOM
 62
     6
100
AcDbLine
 10
197.548717410132
 20
-24.815611140618
 30
0.0
 11
196.548717410138
 21
-25.815611140608
 31
0.0
  0
LINE
  5
1A2
330
1F
100
AcDbEntity
  8
0
  6
PHANTOM
 62
     6
100
AcDbLine
 10
197.548717410142
 20
-37.215611140614
 30
0.0
 11
196.148717410117
 21
-36.2156111407332
 31
0.0
  0
LINE
  5
1A3
330
1F
100
AcDbEntity
  8
0
  6
PHANTOM
 62
     6
100
AcDbLine
 10
194.780768217699
 20
-46.7175349292581
 30
0.0
 11
194.548717410137
 21
-46.3156111406238
 31
0.0
  0
LINE
  5
1A4
330
1F
100
AcDbEntity
  8
0
  6
PHANTOM
 62
     6
100
AcDbLine
 10
194.548717410137
 20
-46.3156111406238
 30
0.0
 11
194.548717410137
 21
-43.8156111405971
 31
0.0
  0
LINE
  5
1A5
330
1F
100
AcDbEntity
  8
0
  6
PHANTOM
 62
     6
100
AcDbLine
 10
197.548717410132
 20
-24.815611140618
 30
0.0
 11
211.548717410121
 21
-24.8156111406108
 31
0.0
  0
LINE
  5
1A6
330
1F
100
AcDbEntity
  8
0
  6
PHANTOM
 62
     6
100
AcDbLine
 10
211.548717410118
 20
-37.215611140614
 30
0.0
 11
212.948717410146
 21
-36.2156111407323
 31
0.0
  0
LINE
  5
1A7
330
1F
100
AcDbEntity
  8
0
  6
PHANTOM
 62
     6
100
AcDbLine
 10
214.548717410121
 20
-46.3156111406253
 30
0.0
 11
214.548717410121
 21
-43.8156111405984
 31
0.0
  0
LINE
  5
1A8
330
1F
100
AcDbEntity
  8
0
  6
PHANTOM
 62
     6
100
AcDbLine
 10
214.048717410129
 20
-47.7175349292581
 30
0.0
 11
214.048717424297
 21
-55.1739128651163
 31
0.0
  0
LINE
  5
1A9
330
1F
100
AcDbEntity
  8
0
  6
PHANTOM
 62
     6
100
AcDbLine
 10
214.316666602559
 20
-46.7175349292594
 30
0.0
 11
214.548717410121
 21
-46.3156111406253
 31
0.0
  0
LINE
  5
1AA
330
1F
100
AcDbEntity
  8
0
  6
PHANTOM
 62
     6
100
AcDbLine
 10
212.948717410146
 20
-36.2156111407323
 30
0.0
 11
212.948717410143
 21
-34.8156111407113
 31
0.0
  0
LINE
  5
1AB
330
1F
100
AcDbEntity
  8
0
  6
PHANTOM
 62
     6
100
AcDbLine
 10
212.548717410123
 20
-34.5156111407187
 30
0.0
 11
212.948717410143
 21
-34.8156111407113
 31
0.0
  0
LINE
  5
1AC
330
1F
100
AcDbEntity
  8
0
  6
PHANTOM
 62
     6
100
AcDbLine
 10
210.548717410133
 20
-31.1156111406918
 30
0.0
 11
212.548717410125
 21
-31.1156111406751
 31
0.0
  0
LINE
  5
1AD
330
1F
100
AcDbEntity
  8
0
  6
PHANTOM
 62
     6
100
AcDbLine
 10
212.548717410123
 20
-34.5156111407187
 30
0.0
 11
212.548717410125
 21
-31.1156111406751
 31
0.0
  0
LINE
  5
1AE
330
1F
100
AcDbEntity
  8
0
  6
PHANTOM
 62
     6
100
AcDbLine
 10
210.548717410126
 20
-28.4156111406765
 30
0.0
 11
212.548717410124
 21
-28.4156111406278
 31
0.0
  0
LINE
  5
1AF
330
1F
100
AcDbEntity
  8
0
  6
PHANTOM
 62
     6
100
AcDbLine
 10
212.548717410124
 20
-28.4156111406278
 30
0.0
 11
212.548717410124
 21
-25.815611140608
 31
0.0
  0
LINE
  5
1B0
330
1F
100
AcDbEntity
  8
0
  6
PHANTOM
 62
     6
100
AcDbLine
 10
211.548717410117
 20
-40.8156111405971
 30
0.0
 11
211.548717410118
 21
-37.215611140614
 31
0.0
  0
LINE
  5
1B1
330
1F
100
AcDbEntity
  8
0
  6
PHANTOM
 62
     6
100
AcDbLine
 10
210.548717410133
 20
-31.1156111406918
 30
0.0
 11
210.548717410126
 21
-28.4156111406765
 31
0.0
  0
LINE
  5
1B2
330
1F
100
AcDbEntity
  8
0
  6
PHANTOM
 62
     6
100
AcDbLine
 10
211.548717410121
 20
-24.8156111406108
 30
0.0
 11
212.548717410124
 21
-25.815611140608
 31
0.0
  0
ARC
  5
1B3
330
1F
100
AcDbEntity
  8
1
  6
PHANTOM
 62
     6
100
AcDbCircle
 10
149.386430121237
 20
-69.5528595559169
 30
0.0
 40
0.5
100
AcDbArc
 50
90.0
 51
171.9189655491493
  0
ARC
  5
1B4
330
1F
100
AcDbEntity
  8
1
  6
Continuous
 62
     3
100
AcDbCircle
 10
204.273392273577
 20
-106.778434052485
 30
0.0
 40
17.52342853695299
100
AcDbArc
 50
57.9355488350976
 51
122.4260478375402
  0
ARC
  5
1B5
330
1F
100
AcDbEntity
  8
0
  6
Continuous
 62
     3
100
AcDbCircle
 10
157.548717409166
 20
-90.8156111406946
 30
0.0
 40
1.0
100
AcDbArc
 50
180.0
 51
270.0
  0
ARC
  5
1B6
330
1F
100
AcDbEntity
  8
0
  6
Continuous
 62
     3
100
AcDbCircle
 10
157.548717409166
 20
-58.8156111406946
 30
0.0
 40
1.0
100
AcDbArc
 50
90.0
 51
180.0
  0
ARC
  5
1B7
330
1F
100
AcDbEntity
  8
0
  6
Continuous
 62
     3
100
AcDbCircle
 10
186.548717409169
 20
-90.8156111406946
 30
0.0
 40
1.0
100
AcDbArc
 50
270.0
 51
0.0
  0
ARC
  5
1B8
330
1F
100
AcDbEntity
  8
0
  6
Continuous
 62
     3
100
AcDbCircle
 10
186.548717409169
 20
-58.8156111406946
 30
0.0
 40
1.0
100
AcDbArc
 50
0.0
 51
90.0
  0
ARC
  5
1B9
330
1F
100
AcDbEntity
  8
0
  6
Continuous
 62
     3
100
AcDbCircle
 10
154.457051730058
 20
-80.0783627254125
 30
0.0
 40
0.4999999999982055
100
AcDbArc
 50
188.8498830983938
 51
269.999999999772
  0
ARC
  5
1BA
330
1F
100
AcDbEntity
  8
0
  6
Continuous
 62
     3
100
AcDbCircle
 10
189.781441321386
 20
-75.0528595559761
 30
0.0
 40
36.24999999999832
100
AcDbArc
 50
171.1501169015694
 51
179.6250088293251
  0
ARC
  5
1BB
330
1F
100
AcDbEntity
  8
0
  6
Continuous
 62
     3
100
AcDbCircle
 10
189.781441321386
 20
-74.5783627254112
 30
0.0
 40
36.24999999999772
100
AcDbArc
 50
180.3749911706751
 51
188.8498830984308
  0
ARC
  5
1BC
330
1F
100
AcDbEntity
  8
0
  6
Continuous
 62
     3
100
AcDbCircle
 10
154.457051730058
 20
-69.5528595559748
 30
0.0
 40
0.4999999999987068
100
AcDbArc
 50
90.00000000022797
 51
171.1501169016221
  0
ARC
  5
1BD
330
1F
100
AcDbEntity
  8
0
  6
Continuous
 62
     3
100
AcDbCircle
 10
228.048717409647
 20
-91.3156111406949
 30
0.0
 40
2.0
100
AcDbArc
 50
270.0
 51
0.0
  0
ARC
  5
1BE
330
1F
100
AcDbEntity
  8
0
  6
Continuous
 62
     3
100
AcDbCircle
 10
219.748717409648
 20
-90.3156111406949
 30
0.0
 40
3.0
100
AcDbArc
 50
180.0
 51
270.0
  0
ARC
  5
1BF
330
1F
100
AcDbEntity
  8
0
  6
Continuous
 62
     3
100
AcDbCircle
 10
228.048717409647
 20
-58.3156111406949
 30
0.0
 40
2.0
100
AcDbArc
 50
0.0
 51
90.0
  0
ARC
  5
1C0
330
1F
100
AcDbEntity
  8
0
  6
Continuous
 62
     3
100
AcDbCircle
 10
219.748717409648
 20
-59.3156111406949
 30
0.0
 40
3.0
100
AcDbArc
 50
90.0
 51
180.0
  0
ARC
  5
1C1
330
1F
100
AcDbEntity
  8
0
  6
Continuous
 62
     3
100
AcDbCircle
 10
216.04871740965
 20
-101.913687352072
 30
0.0
 40
2.0
100
AcDbArc
 50
180.0
 51
209.9999999999588
  0
ARC
  5
1C2
330
1F
100
AcDbEntity
  8
0
  6
Continuous
 62
     3
100
AcDbCircle
 10
214.548717409639
 20
-108.815611140732
 30
0.0
 40
3.0
100
AcDbArc
 50
89.999999999943
 51
180.000000000019
  0
ARC
  5
1C3
330
1F
100
AcDbEntity
  8
0
  6
Continuous
 62
     3
100
AcDbCircle
 10
211.548717409657
 20
-119.865611140676
 30
0.0
 40
1.200000000000003
100
AcDbArc
 50
270.0
 51
90.0
  0
ARC
  5
1C4
330
1F
100
AcDbEntity
  8
0
  6
Continuous
 62
     3
100
AcDbCircle
 10
197.548717409647
 20
-119.865611140677
 30
0.0
 40
1.200000000000003
100
AcDbArc
 50
90.0
 51
270.0
  0
ARC
  5
1C5
330
1F
100
AcDbEntity
  8
0
  6
Continuous
 62
     3
100
AcDbCircle
 10
193.04871740965
 20
-101.913687352074
 30
0.0
 40
1.99999999999995
100
AcDbArc
 50
330.0000000000655
 51
0.0000000000289
  0
ARC
  5
1C6
330
1F
100
AcDbEntity
  8
0
  6
Continuous
 62
     3
100
AcDbCircle
 10
192.048717230556
 20
-94.8156113197889
 30
0.0
 40
3.00000017909401
100
AcDbArc
 50
0.00000431577937
 51
89.99999602149606
  0
ARC
  5
1C7
330
1F
100
AcDbEntity
  8
0
  6
Continuous
 62
     3
100
AcDbCircle
 10
194.548717409663
 20
-108.815611140733
 30
0.0
 40
3.0
100
AcDbArc
 50
0.0
 51
90.00000000007654
  0
ARC
  5
1C8
330
1F
100
AcDbEntity
  8
0
  6
Continuous
 62
     3
100
AcDbCircle
 10
217.048717370373
 20
-94.4573093442342
 30
0.0
 40
2.999999946554203
100
AcDbArc
 50
114.4359107555991
 51
180.0000013747072
  0
ARC
  5
1C9
330
1F
100
AcDbEntity
  8
0
  6
Continuous
 62
     3
100
AcDbCircle
 10
215.39401687127
 20
-58.8156111406944
 30
0.0
 40
0.9999999999998134
100
AcDbArc
 50
30.0000000000325
 51
90.0
  0
ARC
  5
1CA
330
1F
100
AcDbEntity
  8
0
  6
Continuous
 62
     3
100
AcDbCircle
 10
215.394016875066
 20
-90.8156111372515
 30
0.0
 40
0.9999999984345852
100
AcDbArc
 50
294.4359107398775
 51
329.999999720335
  0
ARC
  5
1CB
330
1F
100
AcDbEntity
  8
0
  6
Continuous
 62
     3
100
AcDbCircle
 10
190.203417948029
 20
-90.8156111406954
 30
0.0
 40
1.000000000000128
100
AcDbArc
 50
209.9999999999497
 51
270.0
  0
ARC
  5
1CC
330
1F
100
AcDbEntity
  8
0
  6
Continuous
 62
     3
100
AcDbCircle
 10
190.203417948029
 20
-58.8156111406944
 30
0.0
 40
1.0
100
AcDbArc
 50
90.0
 51
150.0000000000948
  0
ARC
  5
1CD
330
1F
100
AcDbEntity
  8
0
  6
Continuous
 62
     3
100
AcDbCircle
 10
167.548717409166
 20
-111.0739620457
 30
0.0
 40
0.5
100
AcDbArc
 50
270.0
 51
0.0
  0
ARC
  5
1CE
330
1F
100
AcDbEntity
  8
0
  6
Continuous
 62
     3
100
AcDbCircle
 10
160.548717409166
 20
-111.0739620457
 30
0.0
 40
0.5
100
AcDbArc
 50
180.0
 51
270.0
  0
ARC
  5
1CF
330
1F
100
AcDbEntity
  8
0
  6
Continuous
 62
     3
100
AcDbCircle
 10
76.0980963743171
 20
-108.815611140733
 30
0.0
 40
3.0
100
AcDbArc
 50
359.9999999999807
 51
90.00000000007816
  0
ARC
  5
1D0
330
1F
100
AcDbEntity
  8
0
  6
Continuous
 62
     3
100
AcDbCircle
 10
79.0980963742998
 20
-119.865611140678
 30
0.0
 40
1.200000000000003
100
AcDbArc
 50
89.99999999999525
 51
269.9999999999952
  0
ARC
  5
1D1
330
1F
100
AcDbEntity
  8
0
  6
Continuous
 62
     3
100
AcDbCircle
 10
74.5980963743053
 20
-101.913687352073
 30
0.0
 40
2.000000000000103
100
AcDbArc
 50
330.0000000000017
 51
359.9999999999711
  0
ARC
  5
1D2
330
1F
100
AcDbEntity
  8
0
  6
Continuous
 62
     3
100
AcDbCircle
 10
96.0980963742925
 20
-108.815611140733
 30
0.0
 40
3.0
100
AcDbArc
 50
89.99999999992156
 51
180.0000000000193
  0
ARC
  5
1D3
330
1F
100
AcDbEntity
  8
0
  6
Continuous
 62
     3
100
AcDbCircle
 10
97.5980963743043
 20
-101.913687352073
 30
0.0
 40
1.999999999999503
100
AcDbArc
 50
180.0000000000289
 51
209.9999999999981
  0
ARC
  5
1D4
330
1F
100
AcDbEntity
  8
0
  6
Continuous
 62
     3
100
AcDbCircle
 10
86.0980962532497
 20
-74.8156111406958
 30
0.0
 40
17.00000007605698
100
AcDbArc
 50
308.6821877486948
 51
231.3178197427315
  0
ARC
  5
1D5
330
1F
100
AcDbEntity
  8
0
  6
Continuous
 62
     3
100
AcDbCircle
 10
86.0733899175643
 20
-74.8354185836305
 30
0.0
 40
17.00000884812466
100
AcDbArc
 50
308.756895379974
 51
308.7889130379587
  0
ARC
  5
1D6
330
1F
100
AcDbEntity
  8
0
  6
Continuous
 62
     3
100
AcDbCircle
 10
73.5980992423019
 20
-90.4281049245715
 30
0.0
 40
2.999997112474432
100
AcDbArc
 50
359.9999732306431
 51
51.13636814456839
  0
ARC
  5
1D7
330
1F
100
AcDbEntity
  8
0
  6
Continuous
 62
     3
100
AcDbCircle
 10
86.1228028680985
 20
-74.8354186085349
 30
0.0
 40
17.0000089994552
100
AcDbArc
 50
231.2110936674949
 51
231.2431113216949
  0
ARC
  5
1D8
330
1F
100
AcDbEntity
  8
0
  6
Continuous
 62
     3
100
AcDbCircle
 10
98.5980963633641
 20
-90.4281061319342
 30
0.0
 40
2.99999998905942
100
AcDbArc
 50
128.86362104291
 51
180.0000000950002
  0
ARC
  5
1D9
330
1F
100
AcDbEntity
  8
0
  6
Continuous
 62
     3
100
AcDbCircle
 10
86.0981216046055
 20
-74.8156022927885
 30
0.0
 40
17.00000884792623
100
AcDbArc
 50
269.9999149653537
 51
308.6500847931613
  0
ARC
  5
1DA
330
1F
100
AcDbEntity
  8
0
  6
Continuous
 62
     3
100
AcDbCircle
 10
86.0980709282201
 20
-74.8156022171179
 30
0.0
 40
17.00000892359719
100
AcDbArc
 50
231.3499227847595
 51
270.0000857619117
  0
ARC
  5
1DB
330
1F
100
AcDbEntity
  8
0
  6
Continuous
 62
     3
100
AcDbCircle
 10
93.0980963743098
 20
-119.865611140678
 30
0.0
 40
1.200000000000003
100
AcDbArc
 50
270.0000000000047
 51
90.00000000000476
  0
ARC
  5
1DC
330
1F
100
AcDbEntity
  8
0
  6
Continuous
 62
     3
100
AcDbCircle
 10
86.0980963743048
 20
-74.8156111406962
 30
0.0
 40
18.5
100
AcDbArc
 50
198.9246444160512
 51
221.0753555839489
  0
ARC
  5
1DD
330
1F
100
AcDbEntity
  8
0
  6
Continuous
 62
     3
100
AcDbCircle
 10
86.0980963743048
 20
-74.8156111406962
 30
0.0
 40
18.5
100
AcDbArc
 50
138.9246444160511
 51
161.0753555839488
  0
ARC
  5
1DE
330
1F
100
AcDbEntity
  8
0
  6
Continuous
 62
     3
100
AcDbCircle
 10
86.0980963743048
 20
-74.8156111406962
 30
0.0
 40
18.49999999999968
100
AcDbArc
 50
318.9246444160503
 51
341.075355583949
  0
ARC
  5
1DF
330
1F
100
AcDbEntity
  8
0
  6
Continuous
 62
     3
100
AcDbCircle
 10
86.0980963743048
 20
-74.8156111406962
 30
0.0
 40
18.50000000000019
100
AcDbArc
 50
18.92464441605104
 51
41.07535558394974
  0
ARC
  5
1E0
330
1F
100
AcDbEntity
  8
0
  6
Continuous
 62
     3
100
AcDbCircle
 10
86.0980963743048
 20
-74.8156111406962
 30
0.0
 40
18.50000000000004
100
AcDbArc
 50
78.92464441605117
 51
101.0753555839488
  0
ARC
  5
1E1
330
1F
100
AcDbEntity
  8
0
  6
Continuous
 62
     3
100
AcDbCircle
 10
82.5980963743049
 20
-111.073962045701
 30
0.0
 40
0.5
100
AcDbArc
 50
180.0
 51
270.0
  0
ARC
  5
1E2
330
1F
100
AcDbEntity
  8
0
  6
Continuous
 62
     3
100
AcDbCircle
 10
89.5980963743049
 20
-111.073962045701
 30
0.0
 40
0.5
100
AcDbArc
 50
270.0
 51
0.0
  0
ARC
  5
1E3
330
1F
100
AcDbEntity
  8
0
  6
Continuous
 62
     3
100
AcDbCircle
 10
86.0980962532497
 20
-74.8156111406958
 30
0.0
 40
17.00000007605698
100
AcDbArc
 50
308.6821877486948
 51
231.3178197427315
  0
ARC
  5
1E4
330
1F
100
AcDbEntity
  8
0
  6
Continuous
 62
     3
100
AcDbCircle
 10
86.0733899175643
 20
-74.8354185836305
 30
0.0
 40
17.00000884812466
100
AcDbArc
 50
308.756895379974
 51
308.7889130379587
  0
ARC
  5
1E5
330
1F
100
AcDbEntity
  8
0
  6
Continuous
 62
     3
100
AcDbCircle
 10
86.1228028680985
 20
-74.8354186085349
 30
0.0
 40
17.0000089994552
100
AcDbArc
 50
231.2110936674949
 51
231.2431113216949
  0
ARC
  5
1E6
330
1F
100
AcDbEntity
  8
0
  6
Continuous
 62
     3
100
AcDbCircle
 10
86.0981216046055
 20
-74.8156022927885
 30
0.0
 40
17.00000884792623
100
AcDbArc
 50
269.9999149653537
 51
308.6500847931613
  0
ARC
  5
1E7
330
1F
100
AcDbEntity
  8
0
  6
Continuous
 62
     3
100
AcDbCircle
 10
86.0980709282201
 20
-74.8156022171179
 30
0.0
 40
17.00000892359719
100
AcDbArc
 50
231.3499227847595
 51
270.0000857619117
  0
ARC
  5
1E8
330
1F
100
AcDbEntity
  8
0
  6
Continuous
 62
     3
100
AcDbCircle
 10
102.598096374305
 20
42.2096326206536
 30
0.0
 40
2.000000000000016
100
AcDbArc
 50
60.00000000000028
 51
90.0
  0
ARC
  5
1E9
330
1F
100
AcDbEntity
  8
0
  6
Continuous
 62
     3
100
AcDbCircle
 10
69.5980963743048
 20
42.2096326206536
 30
0.0
 40
2.0
100
AcDbArc
 50
90.0
 51
119.9999999999997
  0
ARC
  5
1EA
330
1F
100
AcDbEntity
  8
0
  6
Continuous
 62
     3
100
AcDbCircle
 10
70.5980963743048
 20
33.9096326206548
 30
0.0
 40
3.000000000000005
100
AcDbArc
 50
228.1896851042215
 51
270.0
  0
ARC
  5
1EB
330
1F
100
AcDbEntity
  8
0
  6
Continuous
 62
     3
100
AcDbCircle
 10
101.598096374305
 20
33.9096326206548
 30
0.0
 40
2.999999999999996
100
AcDbArc
 50
270.0
 51
311.8103148957785
  0
ARC
  5
1EC
330
1F
100
AcDbEntity
  8
0
  6
Continuous
 62
     3
100
AcDbCircle
 10
70.0980963743043
 20
29.554932082277
 30
0.0
 40
0.9999999999998195
100
AcDbArc
 50
120.0000000000323
 51
180.0
  0
ARC
  5
1ED
330
1F
100
AcDbEntity
  8
0
  6
Continuous
 62
     3
100
AcDbCircle
 10
102.098096374305
 20
29.554932082277
 30
0.0
 40
1.0
100
AcDbArc
 50
0.0
 51
59.99999999993808
  0
ARC
  5
1EE
330
1F
100
AcDbEntity
  8
0
  6
Continuous
 62
     3
100
AcDbCircle
 10
102.098096374305
 20
4.36433315903555
 30
0.0
 40
1.000000000000478
100
AcDbArc
 50
299.9999999999842
 51
0.0
  0
ARC
  5
1EF
330
1F
100
AcDbEntity
  8
0
  6
Continuous
 62
     3
100
AcDbCircle
 10
70.0980963743043
 20
4.36433315903555
 30
0.0
 40
1.0
100
AcDbArc
 50
180.0
 51
240.0000000000553
  0
ARC
  5
1F0
330
1F
100
AcDbEntity
  8
0
  6
Continuous
 62
     3
100
AcDbCircle
 10
70.0980963743049
 20
0.70963262017598
 30
0.0
 40
1.0
100
AcDbArc
 50
90.0
 51
180.0
  0
ARC
  5
1F1
330
1F
100
AcDbEntity
  8
0
  6
Continuous
 62
     3
100
AcDbCircle
 10
102.098096374305
 20
-28.2903673798268
 30
0.0
 40
1.0
100
AcDbArc
 50
270.0
 51
0.0
  0
ARC
  5
1F2
330
1F
100
AcDbEntity
  8
0
  6
Continuous
 62
     3
100
AcDbCircle
 10
70.0980963743049
 20
-28.2903673798268
 30
0.0
 40
1.0
100
AcDbArc
 50
180.0
 51
270.0
  0
ARC
  5
1F3
330
1F
100
AcDbEntity
  8
0
  6
Continuous
 62
     3
100
AcDbCircle
 10
102.098096374305
 20
0.70963262017598
 30
0.0
 40
1.0
100
AcDbArc
 50
0.0
 51
90.0
  0
ARC
  5
1F4
330
1F
100
AcDbEntity
  8
0
  6
Continuous
 62
     3
100
AcDbCircle
 10
85.8608479590224
 20
3.94235653239271
 30
0.0
 40
36.24999999999752
100
AcDbArc
 50
270.3749911706751
 51
278.8498830984308
  0
ARC
  5
1F5
330
1F
100
AcDbEntity
  8
0
  6
Continuous
 62
     3
100
AcDbCircle
 10
91.3608479590238
 20
-31.382033058935
 30
0.0
 40
0.4999999999986746
100
AcDbArc
 50
278.849883098374
 51
359.9999999998282
  0
ARC
  5
1F6
330
1F
100
AcDbEntity
  8
0
  6
Continuous
 62
     3
100
AcDbCircle
 10
80.8353447895861
 20
-31.382033058935
 30
0.0
 40
0.4999999999987068
100
AcDbArc
 50
180.0000000001718
 51
261.1501169016148
  0
ARC
  5
1F7
330
1F
100
AcDbEntity
  8
0
  6
Continuous
 62
     3
100
AcDbCircle
 10
86.3353447895874
 20
3.94235653239271
 30
0.0
 40
36.24999999999751
100
AcDbArc
 50
261.1501169015692
 51
269.6250088293249
  0
ARC
  5
1F8
330
1F
100
AcDbEntity
  8
0
  6
PHANTOM
 62
     6
100
AcDbCircle
 10
149.457051730555
 20
-80.0783627253533
 30
0.0
 40
0.4999999999991884
100
AcDbArc
 50
188.8498830983763
 51
269.9999999997688
  0
ARC
  5
1F9
330
1F
100
AcDbEntity
  8
0
  6
PHANTOM
 62
     6
100
AcDbCircle
 10
184.781441321883
 20
-74.578362725352
 30
0.0
 40
36.24999999999764
100
AcDbArc
 50
171.918965549157
 51
188.8498830984306
  0
ARC
  5
1FA
330
1F
100
AcDbEntity
  8
0
  6
PHANTOM
 62
     6
100
AcDbCircle
 10
152.548717409663
 20
-90.8156111406333
 30
0.0
 40
1.0
100
AcDbArc
 50
180.0
 51
270.0
  0
ARC
  5
1FB
330
1F
100
AcDbEntity
  8
0
  6
PHANTOM
 62
     6
100
AcDbCircle
 10
152.548717409663
 20
-58.8156111406333
 30
0.0
 40
1.0
100
AcDbArc
 50
90.0
 51
179.9999999999426
  0
ARC
  5
1FC
330
1F
100
AcDbEntity
  8
1
  6
PHANTOM
 62
     6
100
AcDbCircle
 10
197.548717410126
 20
-29.7656111406529
 30
0.0
 40
1.199999999999989
100
AcDbArc
 50
180.0
 51
326.4426902393938
  0
ARC
  5
1FD
330
1F
100
AcDbEntity
  8
1
  6
PHANTOM
 62
     6
100
AcDbCircle
 10
197.548717410126
 20
-29.7656111406529
 30
0.0
 40
1.199999999999339
100
AcDbArc
 50
33.55730976092305
 51
180.0
  0
ARC
  5
1FE
330
1F
100
AcDbEntity
  8
0
  6
PHANTOM
 62
     6
100
AcDbCircle
 10
193.048717410129
 20
-47.7175349292557
 30
0.0
 40
2.0
100
AcDbArc
 50
359.999999999957
 51
29.99999999992427
  0
ARC
  5
1FF
330
1F
100
AcDbEntity
  8
0
  6
PHANTOM
 62
     6
100
AcDbCircle
 10
194.548717410142
 20
-40.8156111405971
 30
0.0
 40
3.0
100
AcDbArc
 50
269.9999999999044
 51
0.0
  0
ARC
  5
200
330
1F
100
AcDbEntity
  8
1
  6
PHANTOM
 62
     6
100
AcDbCircle
 10
211.548717410133
 20
-29.7656111406529
 30
0.0
 40
1.199999999999989
100
AcDbArc
 50
0.0
 51
146.442690239104
  0
ARC
  5
201
330
1F
100
AcDbEntity
  8
1
  6
PHANTOM
 62
     6
100
AcDbCircle
 10
211.548717410133
 20
-29.7656111406529
 30
0.0
 40
1.20000000000052
100
AcDbArc
 50
213.557309760576
 51
0.0
  0
ARC
  5
202
330
1F
100
AcDbEntity
  8
0
  6
PHANTOM
 62
     6
100
AcDbCircle
 10
216.048717410128
 20
-47.7175349292585
 30
0.0
 40
1.999999999999664
100
AcDbArc
 50
150.0000000000243
 51
179.9999999999886
  0
ARC
  5
203
330
1F
100
AcDbEntity
  8
0
  6
PHANTOM
 62
     6
100
AcDbCircle
 10
214.548717410117
 20
-40.8156111405984
 30
0.0
 40
3.0
100
AcDbArc
 50
179.9999999999752
 51
270.000000000076
  0
CIRCLE
  5
204
330
1F
100
AcDbEntity
  8
0
  6
Continuous
 62
     3
100
AcDbCircle
 10
86.0980963743048
 20
-74.8156111406962
 30
0.0
 40
5.339674661641396
  0
CIRCLE
  5
205
330
1F
100
AcDbEntity
  8
0
  6
Continuous
 62
     3
100
AcDbCircle
 10
86.0980963743048
 20
-74.8156111406962
 30
0.0
 40
5.762751584717591
  0
SPLINE
  5
206
330
1F
100
AcDbEntity
  8
0
  6
Continuous
 62
     3
100
AcDbSpline
210
0.0
220
0.0
230
1.0
 70
     8
 71
     3
 72
    27
 73
    23
 74
    21
 42
0.0000000001
 43
0.0000000001
 44
0.00000001
 40
0.0
 40
0.0
 40
0.0
 40
0.0
 40
0.7884215235904497
 40
1.576843047290027
 40
1.743461960821568
 40
1.910078611170028
 40
2.076695387938948
 40
2.243312746879589
 40
2.411692045886454
 40
2.58007134037258
 40
2.748449150199243
 40
2.91682649220209
 40
3.02927686716246
 40
3.141727000438264
 40
3.254176451832576
 40
3.3666259632322
 40
3.480213531617598
 40
3.593801118720827
 40
3.707388001314451
 40
3.820974774077287
 40
3.980585974258283
 40
4.140197174439654
 40
4.140197174439654
 40
4.140197174439654
 40
4.140197174439654
 10
164.048717409166
 20
-91.3137928586901
 30
0.0
 10
164.3115468351641
 20
-91.31739907755232
 30
0.0
 10
164.8372056871969
 20
-91.3246115152773
 30
0.0
 10
165.4171203664524
 20
-91.36796138034126
 30
0.0
 10
165.7891534793189
 20
-91.40505749054354
 30
0.0
 10
165.9547777062876
 20
-91.42326325409117
 30
0.0
 10
166.1202163161605
 20
-91.4430614272191
 30
0.0
 10
166.2860391976984
 20
-91.46453270204861
 30
0.0
 10
166.4522296727201
 20
-91.48767862576112
 30
0.0
 10
166.6187710149452
 20
-91.51250340082167
 30
0.0
 10
166.7850682739566
 20
-91.53890896246833
 30
0.0
 10
166.9327254483716
 20
-91.56378219142668
 30
0.0
 10
167.0618241664232
 20
-91.58656366334651
 30
0.0
 10
167.172440826238
 20
-91.60679033720291
 30
0.0
 10
167.2829307924196
 20
-91.62769630098155
 30
0.0
 10
167.3936632151002
 20
-91.64934889520231
 30
0.0
 10
167.5046336846946
 20
-91.67175017876755
 30
0.0
 10
167.6158370935148
 20
-91.69490265364115
 30
0.0
 10
167.7268999214211
 20
-91.71871963571377
 30
0.0
 10
167.8527955203656
 20
-91.74652098495098
 30
0.0
 10
167.9934679468169
 20
-91.77854874474505
 30
0.0
 10
168.0969675883829
 20
-91.8032570087114
 30
0.0
 10
168.148717409166
 20
-91.8156111406946
 30
0.0
 11
164.048717409166
 21
-91.3137928586901
 31
0.0
 11
164.8369143439985
 21
-91.33261015874517
 31
0.0
 11
165.6233335555692
 21
-91.3887646127564
 31
0.0
 11
165.7891262895966
 21
-91.40533662802733
 31
0.0
 11
165.9547468141306
 21
-91.42352865997626
 31
0.0
 11
166.1201830530611
 21
-91.44332767887549
 31
0.0
 11
166.2854213323969
 21
-91.46472055952559
 31
0.0
 11
166.4521912826287
 21
-91.4879449439896
 31
0.0
 11
166.6187309309766
 21
-91.51276695719967
 31
0.0
 11
166.7850257887196
 21
-91.53916974361059
 31
0.0
 11
166.951064231373
 21
-91.56713695407554
 31
0.0
 11
167.0618037490675
 21
-91.58667783556791
 31
0.0
 11
167.1724199812687
 21
-91.60690360248425
 31
0.0
 11
167.2829091655168
 21
-91.62780860865698
 31
0.0
 11
167.3932687928285
 21
-91.64938742404681
 31
0.0
 11
167.5046105634551
 21
-91.67186287299565
 31
0.0
 11
167.6158139363671
 21
-91.69501346255434
 31
0.0
 11
167.7268753616931
 21
-91.71883235635543
 31
0.0
 11
167.8377926793138
 21
-91.7433130344202
 31
0.0
 11
167.9934042955829
 21
-91.77882021827547
 31
0.0
 11
168.148717409166
 21
-91.8156111406946
 31
0.0
  0
SPLINE
  5
207
330
1F
100
AcDbEntity
  8
0
  6
Continuous
 62
     3
100
AcDbSpline
210
0.0
220
0.0
230
1.0
 70
     8
 71
     3
 72
    27
 73
    23
 74
    21
 42
0.0000000001
 43
0.0000000001
 44
0.00000001
 40
0.0
 40
0.0
 40
0.0
 40
0.0
 40
0.1598116740496326
 40
0.3196233480996083
 40
0.4332745900708771
 40
0.5469259418773244
 40
0.6605779993468036
 40
0.7742300380935584
 40
0.8867428575179309
 40
0.9992556168886725
 40
1.111769058248191
 40
1.22428274145905
 40
1.392695077681745
 40
1.561107881785079
 40
1.729522172425865
 40
1.897936467384918
 40
2.064588855765838
 40
2.231240662629501
 40
2.397892337020488
 40
2.564546272184686
 40
3.352371883697406
 40
4.140197495101839
 40
4.140197495101839
 40
4.140197495101839
 40
4.140197495101839
 10
159.948717409166
 20
-91.8156111406946
 30
0.0
 10
160.0005322646228
 20
-91.80324164014804
 30
0.0
 10
160.1041619755364
 20
-91.77850263905493
 30
0.0
 10
160.2449862013382
 20
-91.7464427295318
 30
0.0
 10
160.3709896508021
 20
-91.71862055166615
 30
0.0
 10
160.4821161430889
 20
-91.694792973054
 30
0.0
 10
160.593383361941
 20
-91.67163068288296
 30
0.0
 10
160.7044174013911
 20
-91.64922044805762
 30
0.0
 10
160.8152131449987
 20
-91.6275597633928
 30
0.0
 10
160.9257661749486
 20
-91.60664656580141
 30
0.0
 10
161.0364460180805
 20
-91.58641346249311
 30
0.0
 10
161.1655988954937
 20
-91.56362890579123
 30
0.0
 10
161.313301173905
 20
-91.53875593870823
 30
0.0
 10
161.4796344279351
 20
-91.51235390458444
 30
0.0
 10
161.6462117920212
 20
-91.48753341065547
 30
0.0
 10
161.812438310846
 20
-91.46439249226553
 30
0.0
 10
161.978297246784
 20
-91.44292694825148
 30
0.0
 10
162.1437719084271
 20
-91.42313522825216
 30
0.0
 10
162.3094321648139
 20
-91.40493667362423
 30
0.0
 10
162.6812934306269
 20
-91.36788364403584
 30
0.0
 10
163.2608251927195
 20
-91.32459517626137
 30
0.0
 10
163.7860866703625
 20
-91.31739363121372
 30
0.0
 10
164.048717409166
 20
-91.3137928586901
 30
0.0
 11
159.948717409166
 21
-91.8156111406946
 31
0.0
 11
160.1042257861264
 21
-91.77877480187423
 31
0.0
 11
160.2600334087568
 21
-91.74322545739487
 31
0.0
 11
160.3710142366993
 21
-91.71873340499376
 31
0.0
 11
160.4821393240713
 21
-91.69490391225929
 31
0.0
 11
160.593406506809
 21
-91.671743510435
 31
0.0
 11
160.7048122285927
 21
-91.64925904768498
 31
0.0
 11
160.8152347928822
 21
-91.62767220376195
 31
0.0
 11
160.925787039793
 21
-91.60675996514004
 31
0.0
 11
161.0364664541999
 21
-91.58652777017468
 31
0.0
 11
161.1472692672087
 21
-91.56698127332717
 31
0.0
 11
161.3133436653112
 21
-91.53901684437037
 31
0.0
 11
161.4796745156585
 21
-91.51261758664074
 31
0.0
 11
161.6462501847004
 21
-91.48779985557431
 31
0.0
 11
161.8130561704943
 21
-91.46458051342448
 31
0.0
 11
161.9783305084588
 21
-91.44319332652455
 31
0.0
 11
162.1438027992938
 21
-91.4234007598208
 31
0.0
 11
162.3094593502961
 21
-91.40521593957595
 31
0.0
 11
162.4752880768574
 21
-91.38865189560204
 31
0.0
 11
163.2611158783695
 21
-91.33258175625787
 31
0.0
 11
164.048717409166
 21
-91.3137928586901
 31
0.0
  0
SPLINE
  5
208
330
1F
100
AcDbEntity
  8
0
  6
Continuous
 62
     3
100
AcDbSpline
210
0.0
220
0.0
230
1.0
 70
     8
 71
     3
 72
   199
 73
   195
 74
   193
 42
0.0000000001
 43
0.0000000001
 44
0.00000001
 40
0.0
 40
0.0
 40
0.0
 40
0.0
 40
0.0184267653719123
 40
0.0368535307437338
 40
0.0609793149233588
 40
0.0851071953139057
 40
0.1092462110950947
 40
0.1333850297500506
 40
0.1620209691031516
 40
0.1906580973803561
 40
0.2192961528556348
 40
0.2479343667302701
 40
0.2817169506973159
 40
0.3155009506851937
 40
0.3492909066625982
 40
0.3830809921084141
 40
0.4222087355597046
 40
0.4613379342009905
 40
0.5004693252895611
 40
0.539600283884447
 40
0.5771090341784012
 40
0.6146175485874731
 40
0.6521219646812648
 40
0.6896263872121519
 40
0.7242685488941973
 40
0.7589103146206072
 40
0.7935517379863105
 40
0.828193583141481
 40
0.8718169038433202
 40
0.91544077032377
 40
0.9590676668772369
 40
1.002694641496201
 40
1.051364876459971
 40
1.100035333160497
 40
1.148705701084928
 40
1.197376211873527
 40
1.251582376505076
 40
1.305788700135042
 40
1.359995454453603
 40
1.414202364835343
 40
1.47442721642074
 40
1.53465207745148
 40
1.594878350528393
 40
1.655105252166518
 40
1.757848967973064
 40
1.860595528537814
 40
1.963353840431393
 40
2.06611166977128
 40
2.17098289779606
 40
2.275854122485657
 40
2.380719727670961
 40
2.485585428962
 40
2.589940506768567
 40
2.694295456998981
 40
2.79865089739062
 40
2.903006371632191
 40
3.003963659130419
 40
3.1049209015383
 40
3.205876614442648
 40
3.306832132802288
 40
3.370404540983745
 40
3.43397679699045
 40
3.497548508584258
 40
3.561120280726254
 40
3.633708357240105
 40
3.706296444027121
 40
3.778884886844298
 40
3.851473348190027
 40
3.933543432672062
 40
4.015613541037275
 40
4.097683661388912
 40
4.179753797430083
 40
4.27178173943343
 40
4.363809707984054
 40
4.455837906997946
 40
4.547866112717218
 40
4.650337858833216
 40
4.752809666088365
 40
4.855281132642304
 40
4.957752480651453
 40
4.999816418722324
 40
5.041880331418086
 40
5.083944132579667
 40
5.126007943991798
 40
5.179660624602516
 40
5.233313308113271
 40
5.286966079395018
 40
5.34061885476742
 40
5.405165264606911
 40
5.469711680522773
 40
5.534258109916118
 40
5.598804543838149
 40
5.673553991912141
 40
5.748303446363678
 40
5.823052952134251
 40
5.897802463404389
 40
5.982069471870262
 40
6.066336486372327
 40
6.15060350416603
 40
6.234870530330092
 40
6.327975218712703
 40
6.421079904365084
 40
6.514184776152489
 40
6.607289690536973
 40
6.741181395967913
 40
6.875073174267349
 40
7.008965253950067
 40
7.142857334611345
 40
7.281215456576277
 40
7.419573580052701
 40
7.557931919732107
 40
7.696290268845109
 40
7.836424354283595
 40
7.97655847057186
 40
8.11669204902925
 40
8.256825474477692
 40
8.359297249440232
 40
8.461768960940677
 40
8.56424042177636
 40
8.66671187117359
 40
8.75874001199208
 40
8.850768133818146
 40
8.942796168588204
 40
9.034824179679193
 40
9.116894330494748
 40
9.198964465155207
 40
9.281034559656524
 40
9.363104630484191
 40
9.435693089575768
 40
9.508281530048313
 40
9.580869618956191
 40
9.653457697595561
 40
9.71702946817848
 40
9.780601178220785
 40
9.844173435821462
 40
9.907745845601973
 40
10.00870137922044
 40
10.10965710735438
 40
10.21061433447479
 40
10.31157160676381
 40
10.41592701730487
 40
10.52028239360559
 40
10.6246374067263
 40
10.72899254892989
 40
10.83385849321134
 40
10.93872433623491
 40
11.04359531278388
 40
11.14846631179319
 40
11.25122331597365
 40
11.35398072966384
 40
11.45672800319597
 40
11.55947270524191
 40
11.62379727667862
 40
11.68812122723903
 40
11.7524430874159
 40
11.81676477100954
 40
11.87208305487265
 40
11.92740114807364
 40
11.98271865742558
 40
12.03803585861659
 40
12.08523656020412
 40
12.13243708372828
 40
12.17963550982226
 40
12.22683363957249
 40
12.26672116182167
 40
12.30660839079096
 40
12.34649633091274
 40
12.38638443925991
 40
12.42680647029261
 40
12.46722851116358
 40
12.50765074344133
 40
12.54807268503794
 40
12.58500533535188
 40
12.62193780171011
 40
12.65886841544678
 40
12.69579873948783
 40
12.72972288992487
 40
12.76364677662831
 40
12.79757254697826
 40
12.83149824661497
 40
12.86528713938686
 40
12.89907644191021
 40
12.93286143465139
 40
12.96664487078755
 40
12.99528325932374
 40
13.02392151765945
 40
13.05255846327316
 40
13.08119421367397
 40
13.10533299931721
 40
13.12947198333714
 40
13.15359989545991
 40
13.17772571080312
 40
13.19615247617497
 40
13.21457924154682
 40
13.21457924154682
 40
13.21457924154682
 40
13.21457924154682
 10
228.048717409647
 20
-68.8156111406949
 30
0.0
 10
228.0548598773021
 20
-68.81566163821617
 30
0.0
 10
228.0671448126124
 20
-68.81576263325871
 30
0.0
 10
228.087455434912
 20
-68.81665909755455
 30
0.0
 10
228.1096243443405
 20
-68.81832355450943
 30
0.0
 10
228.1336088536225
 20
-68.82102819617756
 30
0.0
 10
228.1574838548835
 20
-68.82459810137455
 30
0.0
 10
228.1826922292024
 20
-68.82930089058198
 30
0.0
 10
228.2091630130345
 20
-68.83531511410683
 30
0.0
 10
228.2368116787995
 20
-68.84280343615453
 30
0.0
 10
228.2641397605199
 20
-68.8513899180819
 30
0.0
 10
228.292728440396
 20
-68.86160894002026
 30
0.0
 10
228.3224646912287
 20
-68.87364238090382
 30
0.0
 10
228.3532231400874
 20
-68.88764352372566
 30
0.0
 10
228.3833873667237
 20
-68.90288682752606
 30
0.0
 10
228.414492113444
 20
-68.92015710509438
 30
0.0
 10
228.4464019374403
 20
-68.93958774135275
 30
0.0
 10
228.4789763827503
 20
-68.96128585156337
 30
0.0
 10
228.5106947827024
 20
-68.98421724132945
 30
0.0
 10
228.5411378151207
 20
-69.00794586903726
 30
0.0
 10
228.5703600755623
 20
-69.03232402350773
 30
0.0
 10
228.5984113014497
 20
-69.05723073766175
 30
0.0
 10
228.6257223512348
 20
-69.082943889683
 30
0.0
 10
228.6516370661529
 20
-69.10872519304148
 30
0.0
 10
228.6762404432109
 20
-69.13445424341994
 30
0.0
 10
228.6996051997669
 20
-69.16003434331074
 30
0.0
 10
228.7224066098192
 20
-69.18611736242826
 30
0.0
 10
228.7465855981525
 20
-69.21496167071192
 30
0.0
 10
228.7719907502319
 20
-69.24667416842075
 30
0.0
 10
228.7984610647491
 20
-69.28135504184613
 30
0.0
 10
228.8241548862563
 20
-69.31661615260103
 30
0.0
 10
228.8500656166652
 20
-69.35378776417377
 30
0.0
 10
228.8761283097322
 20
-69.39289105626823
 30
0.0
 10
228.9022721475499
 20
-69.4339474361964
 30
0.0
 10
228.9275998324442
 20
-69.47551200514778
 30
0.0
 10
228.9530788387283
 20
-69.51913454955701
 30
0.0
 10
228.9786463768434
 20
-69.56483260864071
 30
0.0
 10
229.0042327738953
 20
-69.6126237050147
 30
0.0
 10
229.0289752233659
 20
-69.66085711024718
 30
0.0
 10
229.0537989382478
 20
-69.71129454099125
 30
0.0
 10
229.0786425656091
 20
-69.7639496658585
 30
0.0
 10
229.1034396611116
 20
-69.81883593693561
 30
0.0
 10
229.1273757161357
 20
-69.87410369168587
 30
0.0
 10
229.1559327975295
 20
-69.94280621625828
 30
0.0
 10
229.1883876661359
 20
-70.02522732824244
 30
0.0
 10
229.2239164461041
 20
-70.12164681625988
 30
0.0
 10
229.257466806055
 20
-70.21877651332358
 30
0.0
 10
229.2893989430229
 20
-70.31719381042213
 30
0.0
 10
229.3198176473406
 20
-70.416825469444
 30
0.0
 10
229.3487770603265
 20
-70.51762167789494
 30
0.0
 10
229.3761688644789
 20
-70.61885263914046
 30
0.0
 10
229.4020504046291
 20
-70.72030209988841
 30
0.0
 10
229.4265305005902
 20
-70.82192327759107
 30
0.0
 10
229.4496839078879
 20
-70.92368019236278
 30
0.0
 10
229.4716180943921
 20
-71.02570669232242
 30
0.0
 10
229.4921757281772
 20
-71.12686370144394
 30
0.0
 10
229.5114662624337
 20
-71.2271163122207
 30
0.0
 10
229.5295748722295
 20
-71.32643727046397
 30
0.0
 10
229.5467609499149
 20
-71.4259212293501
 30
0.0
 10
229.5610571106475
 20
-71.51325454129382
 30
0.0
 10
229.5728302148705
 20
-71.58837122463439
 30
0.0
 10
229.5823529872241
 20
-71.65122635367705
 30
0.0
 10
229.591563599071
 20
-71.71412774393472
 30
0.0
 10
229.6008918851428
 20
-71.78004843491942
 30
0.0
 10
229.610295886923
 20
-71.84899301413023
 30
0.0
 10
229.6197333763998
 20
-71.9209654126337
 30
0.0
 10
229.628809658284
 20
-71.99298436788709
 30
0.0
 10
229.637916189181
 20
-72.06818426194464
 30
0.0
 10
229.6470110208648
 20
-72.14656831117638
 30
0.0
 10
229.6560512333235
 20
-72.2281393444223
 30
0.0
 10
229.6646860123537
 20
-72.30975429038966
 30
0.0
 10
229.6732622105525
 20
-72.3947122284536
 30
0.0
 10
229.6817379049709
 20
-72.48301547256808
 30
0.0
 10
229.6900695846562
 20
-72.57466595720179
 30
0.0
 10
229.6979548314924
 20
-72.66635599869615
 30
0.0
 10
229.7056903346447
 20
-72.76155194466784
 30
0.0
 10
229.7132338652623
 20
-72.86025510371664
 30
0.0
 10
229.7205431926985
 20
-72.96246615139259
 30
0.0
 10
229.727370510012
 20
-73.06471035718319
 30
0.0
 10
229.7324830080223
 20
-73.14688736182161
 30
0.0
 10
229.7361538409824
 20
-73.20897870331346
 30
0.0
 10
229.7385614404602
 20
-73.25097365306976
 30
0.0
 10
229.7408946026998
 20
-73.29297275975368
 30
0.0
 10
229.7433612464652
 20
-73.33883325948042
 30
0.0
 10
229.7459363204264
 20
-73.38855639244426
 30
0.0
 10
229.7485934544467
 20
-73.44214330890034
 30
0.0
 10
229.7511347805347
 20
-73.49573587365178
 30
0.0
 10
229.7537265070144
 20
-73.55296124061037
 30
0.0
 10
229.7563424920975
 20
-73.61382030892591
 30
0.0
 10
229.7589549097363
 20
-73.67831390294602
 30
0.0
 10
229.7614103634721
 20
-73.74281367101958
 30
0.0
 10
229.7638326420308
 20
-73.8107179801184
 30
0.0
 10
229.7661950192139
 20
-73.88202739480833
 30
0.0
 10
229.7684687918307
 20
-73.95674236230427
 30
0.0
 10
229.770543818725
 20
-74.03146313392635
 30
0.0
 10
229.7725023050725
 20
-74.1093606126622
 30
0.0
 10
229.7743168826723
 20
-74.1904349369115
 30
0.0
 10
229.7759582579855
 20
-74.27468607957606
 30
0.0
 10
229.7773575579291
 20
-74.35894159591574
 30
0.0
 10
229.7785574263858
 20
-74.44614636690733
 30
0.0
 10
229.7795300048664
 20
-74.53630006914744
 30
0.0
 10
229.7802454775525
 20
-74.62940221574097
 30
0.0
 10
229.7806735309051
 20
-74.72250620626716
 30
0.0
 10
229.7808363815208
 20
-74.82920673202713
 30
0.0
 10
229.7805719027975
 20
-74.94950298502872
 30
0.0
 10
229.7796846483762
 20
-75.08339233411287
 30
0.0
 10
229.7781999514006
 20
-75.21727653233273
 30
0.0
 10
229.7760900522899
 20
-75.35264130553753
 30
0.0
 10
229.7733265680947
 20
-75.48948336001935
 30
0.0
 10
229.7698699072939
 20
-75.62779891062966
 30
0.0
 10
229.7657347073633
 20
-75.76609594097704
 30
0.0
 10
229.7608849081302
 20
-75.90496212962331
 30
0.0
 10
229.7552944592848
 20
-76.04439293552204
 30
0.0
 10
229.7489239470816
 20
-76.18438269685697
 30
0.0
 10
229.7417684126637
 20
-76.32433434691868
 30
0.0
 10
229.7345131170858
 20
-76.45170825785166
 30
0.0
 10
229.7273732545211
 20
-76.56651245065245
 30
0.0
 10
229.720545812493
 20
-76.66875677440362
 30
0.0
 10
229.7132351523578
 20
-76.77096759089503
 30
0.0
 10
229.7056902180764
 20
-76.86967040608017
 30
0.0
 10
229.6979542060757
 20
-76.96486616245883
 30
0.0
 10
229.6900689873436
 20
-77.05655618045226
 30
0.0
 10
229.681737612398
 20
-77.14820671193334
 30
0.0
 10
229.6732622370574
 20
-77.23651003715594
 30
0.0
 10
229.6646861534614
 20
-77.32146801996488
 30
0.0
 10
229.6560513678505
 20
-77.40308297047663
 30
0.0
 10
229.6470110866451
 20
-77.48465399174022
 30
0.0
 10
229.6379161833071
 20
-77.5630380226161
 30
0.0
 10
229.6288096267505
 20
-77.6382379073722
 30
0.0
 10
229.6197333462778
 20
-77.71025686193954
 30
0.0
 10
229.6102958721481
 20
-77.78222926307954
 30
0.0
 10
229.600891886462
 20
-77.85117384540109
 30
0.0
 10
229.5915636064018
 20
-77.91709453691918
 30
0.0
 10
229.5823529944614
 20
-77.97999592665923
 30
0.0
 10
229.5728302186225
 20
-78.04285105573088
 30
0.0
 10
229.5610571088026
 20
-78.11796774441731
 30
0.0
 10
229.5467609449905
 20
-78.20530106668176
 30
0.0
 10
229.5295748680304
 20
-78.30478503082992
 30
0.0
 10
229.5114662615111
 20
-78.40410598449918
 30
0.0
 10
229.4921757323929
 20
-78.50435856431142
 30
0.0
 10
229.4716181000835
 20
-78.60551552510874
 30
0.0
 10
229.4496839096525
 20
-78.70754200208356
 30
0.0
 10
229.426530494798
 20
-78.80929893670152
 30
0.0
 10
229.4020503855142
 20
-78.91092023801197
 30
0.0
 10
229.3761688470891
 20
-79.01236988668623
 30
0.0
 10
229.3487770673004
 20
-79.11360093494221
 30
0.0
 10
229.3198176900376
 20
-79.21439707105071
 30
0.0
 10
229.2893990285979
 20
-79.31402828983408
 30
0.0
 10
229.2574668522959
 20
-79.4124448920617
 30
0.0
 10
229.2239163902565
 20
-79.50957419097026
 30
0.0
 10
229.1883874600793
 20
-79.60599392809506
 30
0.0
 10
229.1554322672956
 20
-79.68968666742651
 30
0.0
 10
229.1257934516607
 20
-79.76089879090274
 30
0.0
 10
229.1001383417084
 20
-79.81988777099664
 30
0.0
 10
229.073493988432
 20
-79.87843579419811
 30
0.0
 10
229.0471013069948
 20
-79.93378989854264
 30
0.0
 10
229.0210818379661
 20
-79.9859860854825
 30
0.0
 10
228.9955510849435
 20
-80.03506339596522
 30
0.0
 10
228.969127154238
 20
-80.08366555631254
 30
0.0
 10
228.9431064965329
 20
-80.12939630679759
 30
0.0
 10
228.9176092682966
 20
-80.17230053853567
 30
0.0
 10
228.8927488997875
 20
-80.21242611848166
 30
0.0
 10
228.8671088493246
 20
-80.25205732632155
 30
0.0
 10
228.8420219015092
 20
-80.28913202885398
 30
0.0
 10
228.8176026911781
 20
-80.323704485404
 30
0.0
 10
228.7939602515927
 20
-80.35583337588353
 30
0.0
 10
228.7696639601773
 20
-80.38747129651249
 30
0.0
 10
228.7445793807855
 20
-80.4187172569461
 30
0.0
 10
228.7186744188795
 20
-80.44952016626993
 30
0.0
 10
228.6919071471864
 20
-80.47981545193078
 30
0.0
 10
228.6643642293299
 20
-80.50940794958927
 30
0.0
 10
228.6368364428276
 20
-80.53740613982976
 30
0.0
 10
228.6093836721943
 20
-80.56382542452174
 30
0.0
 10
228.5820616423784
 20
-80.58868207436623
 30
0.0
 10
228.5540142830693
 20
-80.6127169410617
 30
0.0
 10
228.5260085607476
 20
-80.63523314801046
 30
0.0
 10
228.4981045233392
 20
-80.65624714708362
 30
0.0
 10
228.4703598373245
 20
-80.6757798918321
 30
0.0
 10
228.4419702536597
 20
-80.69436497255928
 30
0.0
 10
228.4129762333627
 20
-80.71190685678
 30
0.0
 10
228.3833882295721
 20
-80.72833500429914
 30
0.0
 10
228.3532243091487
 20
-80.74357816811782
 30
0.0
 10
228.3224655114631
 20
-80.7575795368956
 30
0.0
 10
228.2927286519318
 20
-80.76961325983437
 30
0.0
 10
228.2641396010571
 20
-80.77983246361963
 30
0.0
 10
228.2368114639362
 20
-80.78841898794157
 30
0.0
 10
228.2091628407136
 20
-80.7959072544298
 30
0.0
 10
228.1826921773117
 20
-80.8019213977129
 30
0.0
 10
228.1574838827701
 20
-80.8066241516428
 30
0.0
 10
228.1336088927048
 20
-80.81019405573896
 30
0.0
 10
228.1096243749738
 20
-80.81289871417434
 30
0.0
 10
228.0874554454155
 20
-80.81456318538531
 30
0.0
 10
228.0671448125849
 20
-80.81545964768745
 30
0.0
 10
228.054859877293
 20
-80.81556064302576
 30
0.0
 10
228.048717409647
 20
-80.8156111406949
 30
0.0
 11
228.048717409647
 21
-68.8156111406949
 31
0.0
 11
228.0671423167015
 21
-68.81587283155307
 31
0.0
 11
228.0855523809321
 21
-68.81665718931006
 31
0.0
 11
228.1096097303919
 21
-68.8184730635498
 31
0.0
 11
228.1335862034197
 21
-68.8211718323962
 31
0.0
 11
228.1574598932717
 21
-68.82474100817414
 31
0.0
 11
228.1811895752442
 21
-68.8291664753291
 31
0.0
 11
228.2091151244675
 21
-68.83550530197255
 31
0.0
 11
228.2367578298469
 21
-68.84298634169112
 31
0.0
 11
228.2640805664023
 21
-68.85156575242428
 31
0.0
 11
228.2910494009846
 21
-68.86120054641282
 31
0.0
 11
228.3223692353546
 21
-68.87386273242178
 31
0.0
 11
228.3531219367612
 21
-68.88784951230066
 31
0.0
 11
228.383284463737
 21
-68.90308050344993
 31
0.0
 11
228.4128312246995
 21
-68.91947436788334
 31
0.0
 11
228.446258777413
 21
-68.93981101035878
 31
0.0
 11
228.4788329602482
 21
-68.96149088118248
 31
0.0
 11
228.5105533528886
 21
-68.98440555899518
 31
0.0
 11
228.5414254096449
 21
-69.00845026802213
 31
0.0
 11
228.5702343579155
 21
-69.03247006919031
 31
0.0
 11
228.5982891245791
 21
-69.0573662279428
 31
0.0
 11
228.6256025363276
 21
-69.08306756575216
 31
0.0
 11
228.6521976361098
 21
-69.10951151358428
 31
0.0
 11
228.6761440323059
 21
-69.13454448135133
 31
0.0
 11
228.6995113968123
 21
-69.16011826106154
 31
0.0
 11
228.7223155476539
 21
-69.18619504992056
 31
0.0
 11
228.7445744775066
 21
-69.21273930499704
 31
0.0
 11
228.7718560451176
 21
-69.24677913721963
 31
0.0
 11
228.7983309237929
 21
-69.28145077585745
 31
0.0
 11
228.8240306911692
 21
-69.31670454246034
 31
0.0
 11
228.8489858233896
 21
-69.35248937570387
 31
0.0
 11
228.875986386247
 21
-69.39298334286954
 31
0.0
 11
228.9021361295707
 21
-69.43403214650057
 31
0.0
 11
228.9274699121697
 21
-69.47558938622035
 31
0.0
 11
228.952024697336
 21
-69.51761177484664
 31
0.0
 11
228.9784993110142
 21
-69.56491297054667
 31
0.0
 11
229.0040920300839
 21
-69.61269725930458
 31
0.0
 11
229.0288410885252
 21
-69.66092439191706
 31
0.0
 11
229.0527857794241
 21
-69.70955607820173
 31
0.0
 11
229.0784921084386
 21
-69.76401906927899
 31
0.0
 11
229.1032959180996
 21
-69.81889898284007
 31
0.0
 11
229.1272391199721
 21
-69.87416133035471
 31
0.0
 11
229.1503637497333
 21
-69.92977186154563
 31
0.0
 11
229.1880338597863
 21
-70.02536074137132
 31
0.0
 11
229.2235851273666
 21
-70.12176075735327
 31
0.0
 11
229.2571607114994
 21
-70.21887898846029
 31
0.0
 11
229.2888998507269
 21
-70.31661229154446
 31
0.0
 11
229.31954023241
 21
-70.41690756300697
 31
0.0
 11
229.3485163779979
 21
-70.51769623674944
 31
0.0
 11
229.3759242386428
 21
-70.61891680939034
 31
0.0
 11
229.4018646278313
 21
-70.7205234603341
 31
0.0
 11
229.4263160349407
 21
-70.82197350200184
 31
0.0
 11
229.4494806644204
 21
-70.92372494218162
 31
0.0
 11
229.4714262591928
 21
-71.02574674774014
 31
0.0
 11
229.4922209469489
 21
-71.12800938004202
 31
0.0
 11
229.511304966178
 21
-71.22714652801926
 31
0.0
 11
229.5294212231401
 21
-71.32646503600387
 31
0.0
 11
229.5466148343919
 21
-71.42594586682141
 31
0.0
 11
229.5629316739826
 21
-71.52557406279541
 31
0.0
 11
229.5727767534777
 21
-71.58837952029494
 31
0.0
 11
229.5823009924462
 21
-71.65123427831573
 31
0.0
 11
229.5915130293801
 21
-71.71413500081154
 31
0.0
 11
229.600421677478
 21
-71.77707947000735
 31
0.0
 11
229.6102337683533
 21
-71.84900131456543
 31
0.0
 11
229.6196731572747
 21
-71.92097303317898
 31
0.0
 11
229.6287513698153
 21
-71.9929915591823
 31
0.0
 11
229.6374798630951
 21
-72.06505332522786
 31
0.0
 11
229.6469412044376
 21
-72.14657621641119
 31
0.0
 11
229.6559836603456
 21
-72.22814665638934
 31
0.0
 11
229.6646206856555
 21
-72.30976103287001
 31
0.0
 11
229.6728657601339
 21
-72.39141595297077
 31
0.0
 11
229.6816610436627
 21
-72.4830226399375
 31
0.0
 11
229.6899951711193
 21
-72.57467245889582
 31
0.0
 11
229.6978828815637
 21
-72.6663620081241
 31
0.0
 11
229.7053388978979
 21
-72.75808767775007
 31
0.0
 11
229.7131506173818
 21
-72.8602612349494
 31
0.0
 11
229.7204628670139
 21
-72.96247181310771
 31
0.0
 11
229.7272930945049
 21
-73.06471539212437
 31
0.0
 11
229.7336588056883
 21
-73.1669888240798
 31
0.0
 11
229.736141361646
 21
-73.20897943972123
 31
0.0
 11
229.7385490367471
 21
-73.25097439003534
 31
0.0
 11
229.7408822710089
 21
-73.29297343033438
 31
0.0
 11
229.7431415168466
 21
-73.33497652591983
 31
0.0
 11
229.7459166987748
 21
-73.38855738539391
 31
0.0
 11
229.7485741514523
 21
-73.44214421580187
 31
0.0
 11
229.7511157988586
 21
-73.49573675161307
 31
0.0
 11
229.7535435569779
 21
-73.54933457149107
 31
0.0
 11
229.7563159071791
 21
-73.61382141586672
 31
0.0
 11
229.7589287488568
 21
-73.678314926129
 31
0.0
 11
229.7613846269431
 21
-73.74281461768064
 31
0.0
 11
229.7636860865817
 21
-73.80732000827385
 31
0.0
 11
229.7661614835034
 21
-73.8820284575781
 31
0.0
 11
229.7684356669437
 21
-73.9567433090501
 31
0.0
 11
229.7705111056029
 21
-74.03146399672973
 31
0.0
 11
229.7723902661555
 21
-74.1061898837485
 31
0.0
 11
229.7742761842209
 21
-74.19043578589714
 31
0.0
 11
229.7759179120532
 21
-74.27468680644179
 31
0.0
 11
229.7773175644138
 21
-74.35894219951021
 31
0.0
 11
229.7784772562005
 21
-74.44320124539547
 31
0.0
 11
229.7794818574231
 21
-74.53630051378791
 31
0.0
 11
229.7801975738761
 21
-74.62940244846376
 31
0.0
 11
229.7806258719923
 21
-74.72250633512417
 31
0.0
 11
229.7807682172149
 21
-74.81561114069498
 31
0.0
 11
229.7804730888818
 21
-74.94950252085992
 31
0.0
 11
229.7795850756828
 21
-75.08339135433286
 31
0.0
 11
229.7780996180645
 21
-75.21727519360194
 31
0.0
 11
229.7760121607338
 21
-75.35115100092237
 31
0.0
 11
229.7732160485469
 21
-75.48948086635389
 31
0.0
 11
229.7697568197634
 21
-75.627795739264
 31
0.0
 11
229.7656190512218
 21
-75.76609219269046
 31
0.0
 11
229.7607873461341
 21
-75.90436615045266
 31
0.0
 11
229.7551684001546
 21
-76.0443875393465
 31
0.0
 11
229.7487930995956
 21
-76.18437656066844
 31
0.0
 11
229.7416327937308
 21
-76.32432708703828
 31
0.0
 11
229.7336588056887
 21
-76.46423345731004
 31
0.0
 11
229.7272954481451
 21
-76.56650746351272
 31
0.0
 11
229.7204652691368
 21
-76.66875129126063
 31
0.0
 11
229.713151884381
 21
-76.77096144089957
 31
0.0
 11
229.7053388978985
 21
-76.87313460363711
 31
0.0
 11
229.6978823438036
 21
-76.96486016443419
 31
0.0
 11
229.6899946247823
 21
-77.05654963545172
 31
0.0
 11
229.6816607560359
 21
-77.14819954442798
 31
0.0
 11
229.6728657601345
 21
-77.23980632841507
 31
0.0
 11
229.6646208068434
 21
-77.32146127560209
 31
0.0
 11
229.6559837833304
 21
-77.40307566666165
 31
0.0
 11
229.6469412691571
 21
-77.48464608623198
 31
0.0
 11
229.6374798630948
 21
-77.56616895615805
 31
0.0
 11
229.628751342713
 21
-77.63823071665024
 31
0.0
 11
229.6196731296962
 21
-77.71024924023034
 31
0.0
 11
229.6102337538244
 21
-77.78222096269444
 31
0.0
 11
229.6004216774779
 21
-77.85414281137984
 31
0.0
 11
229.5915130357353
 21
-77.91708727990051
 31
0.0
 11
229.5823009992986
 21
-77.97998800090107
 31
0.0
 11
229.5727767571487
 21
-78.04284276005197
 31
0.0
 11
229.5629316739818
 21
-78.10564821859451
 31
0.0
 11
229.5466148299654
 21
-78.2052764293058
 31
0.0
 11
229.5294212172922
 21
-78.30475727533306
 31
0.0
 11
229.5113049647597
 21
-78.40407576858593
 31
0.0
 11
229.4922209469487
 21
-78.50321290134772
 31
0.0
 11
229.4714262649136
 21
-78.60547546980877
 31
0.0
 11
229.449480676262
 21
-78.70749721112698
 31
0.0
 11
229.4263160322059
 21
-78.80924871248779
 31
0.0
 11
229.401864627831
 21
-78.91069882105563
 31
0.0
 11
229.3759242199046
 21
-79.01230571799994
 31
0.0
 11
229.3485163363056
 21
-79.11352653082848
 31
0.0
 11
229.3195402611906
 21
-79.21431496663966
 31
0.0
 11
229.2888998507269
 21
-79.31460998984532
 31
0.0
 11
229.2571607569909
 21
-79.41234244012138
 31
0.0
 11
229.2235852780361
 21
-79.50945975722419
 31
0.0
 11
229.1880337643719
 21
-79.60586044235905
 31
0.0
 11
229.150363749733
 21
-79.70145041984424
 31
0.0
 11
229.1256370654683
 21
-79.76083258531327
 31
0.0
 11
229.0999731195141
 21
-79.8198150614715
 31
0.0
 11
229.0733205729649
 21
-79.87835516276161
 31
0.0
 11
229.0456280518735
 21
-79.93641033700061
 31
0.0
 11
229.0209400802644
 21
-79.98591403976503
 31
0.0
 11
228.9954021023055
 21
-80.03498442917827
 31
0.0
 11
228.9689712790561
 21
-80.08357906286612
 31
0.0
 11
228.9416059871556
 21
-80.13165331321713
 31
0.0
 11
228.9174849393431
 21
-80.17222524049177
 31
0.0
 11
228.8926185022851
 21
-80.21234443451402
 31
0.0
 11
228.8669732782865
 21
-80.25196783557718
 31
0.0
 11
228.8405154856713
 21
-80.2910529818843
 31
0.0
 11
228.8174977823995
 21
-80.32362904314519
 31
0.0
 11
228.7938514385134
 21
-80.3557513322241
 31
0.0
 11
228.7695512143653
 21
-80.38738275447335
 31
0.0
 11
228.7445744775073
 21
-80.4184829763928
 31
0.0
 11
228.718549803687
 21
-80.44941284780144
 31
0.0
 11
228.6917779121894
 21
-80.47969827686916
 31
0.0
 11
228.6642307559226
 21
-80.50928055271012
 31
0.0
 11
228.6358840103665
 21
-80.5380971343745
 31
0.0
 11
228.6092656408029
 21
-80.56369953779655
 31
0.0
 11
228.5819401942702
 21
-80.5885456047507
 31
0.0
 11
228.5538908757247
 21
-80.61256863453676
 31
0.0
 11
228.5251026300954
 21
-80.63570055506581
 31
0.0
 11
228.4979976531139
 21
-80.65610075618511
 31
0.0
 11
228.4702529451575
 21
-80.67562154688328
 31
0.0
 11
228.4418630742451
 21
-80.69419499899688
 31
0.0
 11
228.4128312246992
 21
-80.71174791350651
 31
0.0
 11
228.3832855240687
 21
-80.72814123071214
 31
0.0
 11
228.3531235934663
 21
-80.74337195319494
 31
0.0
 11
228.3223700105411
 21
-80.75735919280054
 31
0.0
 11
228.2910494009872
 21
-80.77002173497581
 31
0.0
 11
228.264080414188
 21
-80.77965662205209
 31
0.0
 11
228.2367574885546
 21
-80.78823610777896
 31
0.0
 11
228.2091149504236
 21
-80.79571706625737
 31
0.0
 11
228.1811895752474
 21
-80.8020558060601
 31
0.0
 11
228.1574599221823
 21
-80.80648124815532
 31
0.0
 11
228.1335862637493
 21
-80.81005041928331
 31
0.0
 11
228.1096097606486
 21
-80.81274920465202
 31
0.0
 11
228.0855523809321
 21
-80.81456509207982
 31
0.0
 11
228.0671423167014
 21
-80.81534944983748
 31
0.0
 11
228.048717409647
 21
-80.8156111406949
 31
0.0
  0
SPLINE
  5
209
330
1F
100
AcDbEntity
  8
0
  6
Continuous
 62
     3
100
AcDbSpline
210
0.0
220
0.0
230
1.0
 70
     8
 71
     3
 72
    83
 73
    79
 74
    77
 42
0.0000000001
 43
0.0000000001
 44
0.00000001
 40
0.0
 40
0.0
 40
0.0
 40
0.0
 40
0.1444300494852409
 40
0.2888601783833852
 40
0.365096634510213
 40
0.4413386233355031
 40
0.5176629245926279
 40
0.5939830039543228
 40
0.6603618609446946
 40
0.7267367997860441
 40
0.7930785894413601
 40
0.8594258841258184
 40
0.9723808573843911
 40
1.085359212045871
 40
1.198448936893666
 40
1.311532997902505
 40
1.412673629141276
 40
1.513809767014159
 40
1.614887363877171
 40
1.71597176610934
 40
1.941407692025795
 40
2.166897216501225
 40
2.39266086330289
 40
2.618413910416327
 40
2.823004292937764
 40
3.027587347116766
 40
3.232031027077773
 40
3.436483786042855
 40
3.867392747140203
 40
4.298352919627781
 40
4.729669365080145
 40
5.160979084614603
 40
5.585149831716664
 40
6.009316889380975
 40
6.433286966417341
 40
6.85724681146726
 40
7.003146749812314
 40
7.149044484179821
 40
7.29494323409232
 40
7.440843031577418
 40
7.646557008990117
 40
7.852271134992078
 40
8.05799071559
 40
8.26371126335582
 40
8.507153831199805
 40
8.750596267492107
 40
8.994051391057932
 40
9.237508200752597
 40
9.49764741310544
 40
9.757786040550286
 40
10.01791951316849
 40
10.27805332521536
 40
10.51551420954993
 40
10.75297336195252
 40
10.99049290329397
 40
11.22800675091289
 40
11.42074075634366
 40
11.61347613452936
 40
11.8060359295151
 40
11.99856803437867
 40
12.09965172589018
 40
12.2007295458101
 40
12.30186664397488
 40
12.40300805788292
 40
12.5160929214376
 40
12.62918344480695
 40
12.74216066128018
 40
12.85511447047126
 40
12.92146063146338
 40
12.98780130199196
 40
13.05417749394507
 40
13.1205575653678
 40
13.19688253634483
 40
13.27321182937394
 40
13.34944859040943
 40
13.42567973571205
 40
13.57011013756752
 40
13.71454060644508
 40
13.71454060644508
 40
13.71454060644508
 40
13.71454060644508
 10
219.748717409648
 20
-80.8156111406949
 30
0.0
 10
219.7005337739587
 20
-80.8135360787683
 30
0.0
 10
219.6041664760872
 20
-80.80938595377421
 30
0.0
 10
219.4849754026667
 20
-80.78162453500723
 30
0.0
 10
219.3910975448391
 20
-80.75023965742322
 30
0.0
 10
219.3205558290643
 20
-80.72106303615163
 30
0.0
 10
219.2519849884732
 20
-80.68751278025209
 30
0.0
 10
219.1884046299797
 20
-80.65154120448526
 30
0.0
 10
219.1296126108898
 20
-80.6140731472445
 30
0.0
 10
219.0753258522836
 20
-80.57586034854832
 30
0.0
 10
219.0227445489635
 20
-80.53535438813284
 30
0.0
 10
218.9599200909971
 20
-80.48281248488671
 30
0.0
 10
218.8883735829797
 20
-80.41658795467971
 30
0.0
 10
218.8099568719477
 20
-80.33513898586442
 30
0.0
 10
218.7358650253384
 20
-80.24969094788949
 30
0.0
 10
218.6683100840356
 20
-80.16397051132257
 30
0.0
 10
218.6065446710348
 20
-80.07888291950879
 30
0.0
 10
218.5500032397994
 20
-79.99502745406278
 30
0.0
 10
218.4961847117497
 20
-79.90942401447187
 30
0.0
 10
218.4238781755103
 20
-79.78657562206585
 30
0.0
 10
218.3373817875182
 20
-79.62404831946822
 30
0.0
 10
218.2419823112016
 20
-79.41955635112653
 30
0.0
 10
218.1560829982434
 20
-79.21079921192096
 30
0.0
 10
218.080990201493
 20
-79.00534083675568
 30
0.0
 10
218.0147593197235
 20
-78.80429820667858
 30
0.0
 10
217.956254914957
 20
-78.60827855516004
 30
0.0
 10
217.902841632929
 20
-78.410862453591
 30
0.0
 10
217.836051146664
 20
-78.13899204128757
 30
0.0
 10
217.7624690518111
 20
-77.79113444557572
 30
0.0
 10
217.6898439583403
 20
-77.36613992109395
 30
0.0
 10
217.6319132653066
 20
-76.9387772441531
 30
0.0
 10
217.5870345489022
 20
-76.51214608085962
 30
0.0
 10
217.5530727984822
 20
-76.08691004661088
 30
0.0
 10
217.5294556507112
 20
-75.66342565028178
 30
0.0
 10
217.5156163716701
 20
-75.23958422460994
 30
0.0
 10
217.5121287753779
 20
-74.90829724249436
 30
0.0
 10
217.5130128131475
 20
-74.66971173069487
 30
0.0
 10
217.5146306358017
 20
-74.52382042216595
 30
0.0
 10
217.5173394573224
 20
-74.37794543836131
 30
0.0
 10
217.5216742341484
 20
-74.2121631064645
 30
0.0
 10
217.5282464658966
 20
-74.02649953810294
 30
0.0
 10
217.5377983900122
 20
-73.82100129547987
 30
0.0
 10
217.5496752541261
 20
-73.61562177382388
 30
0.0
 10
217.5647985698945
 20
-73.39784729313425
 30
0.0
 10
217.5837644780566
 20
-73.16775091757546
 30
0.0
 10
217.607376456894
 20
-72.92544243966924
 30
0.0
 10
217.6348173846993
 20
-72.68353154533867
 30
0.0
 10
217.6670191965468
 20
-72.43659337319055
 30
0.0
 10
217.7045392403345
 20
-72.18477835825419
 30
0.0
 10
217.7482302963069
 20
-71.92831560659354
 30
0.0
 10
217.7977637186593
 20
-71.67291478472353
 30
0.0
 10
217.8519982091493
 20
-71.42620131950707
 30
0.0
 10
217.9107329730512
 20
-71.18829934993212
 30
0.0
 10
217.9740762223125
 20
-70.95938683927437
 30
0.0
 10
218.0445713278033
 20
-70.73254817579509
 30
0.0
 10
218.1179869193471
 20
-70.52236101946396
 30
0.0
 10
218.193208413103
 20
-70.32876339790596
 30
0.0
 10
218.2694015914695
 20
-70.15174000454383
 30
0.0
 10
218.3527167294623
 20
-69.97801883177385
 30
0.0
 10
218.4294425208172
 20
-69.83519472656123
 30
0.0
 10
218.4961695608123
 20
-69.72178968085247
 30
0.0
 10
218.5499882069876
 20
-69.63618614345913
 30
0.0
 10
218.6065369467902
 20
-69.55233470291566
 30
0.0
 10
218.6683111322533
 20
-69.46725248349348
 30
0.0
 10
218.7358701146572
 20
-69.38153433650263
 30
0.0
 10
218.8099621254183
 20
-69.29608631225206
 30
0.0
 10
218.8883765972893
 20
-69.21463593314088
 30
0.0
 10
218.959920273579
 20
-69.14841002150611
 30
0.0
 10
219.022742696843
 20
-69.09586744662948
 30
0.0
 10
219.0753232869516
 20
-69.05536108562436
 30
0.0
 10
219.1296106405201
 20
-69.01714832087015
 30
0.0
 10
219.1884056151343
 20
-68.97968029435566
 30
0.0
 10
219.2519907815555
 20
-68.94370966193448
 30
0.0
 10
219.3205640911632
 20
-68.9101610483618
 30
0.0
 10
219.3911036036219
 20
-68.88098410379847
 30
0.0
 10
219.4849768233969
 20
-68.84959648062836
 30
0.0
 10
219.6041654605684
 20
-68.82182913041234
 30
0.0
 10
219.7005334191683
 20
-68.81768380425466
 30
0.0
 10
219.748717409648
 20
-68.8156111406949
 30
0.0
 11
219.748717409648
 21
-80.8156111406949
 31
0.0
 11
219.6046826816642
 21
-80.80493236131953
 31
0.0
 11
219.4636843874408
 21
-80.77363470710047
 31
0.0
 11
219.3913995177405
 21
-80.74940879421388
 31
0.0
 11
219.3209135701724
 21
-80.7203472723084
 31
0.0
 11
219.252338419
 21
-80.68683835403172
 31
0.0
 11
219.1858897601184
 21
-80.64929730654222
 31
0.0
 11
219.1298947997899
 21
-80.61365018782057
 31
0.0
 11
219.0755997788444
 21
-80.57547057013358
 31
0.0
 11
219.0230242503108
 21
-80.53501013447
 31
0.0
 11
218.972109438025
 21
-80.49247020732098
 31
0.0
 11
218.8891408285621
 21
-80.41582142502376
 31
0.0
 11
218.81070759734
 21
-80.33450514828857
 31
0.0
 11
218.7365463236722
 21
-80.24912721581116
 31
0.0
 11
218.6664739562262
 21
-80.16036986020183
 31
0.0
 11
218.6070226481587
 21
-80.07854706841105
 31
0.0
 11
218.550444694252
 21
-79.99471716017075
 31
0.0
 11
218.496607648682
 21
-79.90917037114924
 31
0.0
 11
218.4452941633364
 21
-79.82207856558566
 31
0.0
 11
218.3391612012289
 21
-79.62318876934637
 31
0.0
 11
218.2436095397984
 21
-79.41894527337644
 31
0.0
 11
218.1574847038636
 21
-79.21025474447683
 31
0.0
 11
218.0797688697998
 21
-78.99830029791636
 31
0.0
 11
218.0156760752808
 21
-78.80400840845358
 31
0.0
 11
217.9570886206062
 21
-78.607993775806
 31
0.0
 11
217.9036126699811
 21
-78.41066779935906
 31
0.0
 11
217.8547538875238
 21
-78.21213883415443
 31
0.0
 11
217.7652400804596
 21
-77.79062986497479
 31
0.0
 11
217.6923144331731
 21
-77.36588462340244
 31
0.0
 11
217.634049444543
 21
-76.93852170126529
 31
0.0
 11
217.5885983502056
 21
-76.50961346843637
 31
0.0
 11
217.554764614482
 21
-76.08679423871271
 31
0.0
 11
217.5310818826282
 21
-75.66328884202981
 31
0.0
 11
217.5171785788525
 21
-75.23954679270459
 31
0.0
 11
217.512649432148
 21
-74.8156111406949
 31
0.0
 11
217.5131923553409
 21
-74.66971221251687
 31
0.0
 11
217.5148124633674
 21
-74.52382347359726
 31
0.0
 11
217.5175235805592
 21
-74.37794991509675
 31
0.0
 11
217.521339512392
 21
-74.23210002798524
 31
0.0
 11
217.5286255060997
 21
-74.0265151190093
 31
0.0
 11
217.5381857660462
 21
-73.82102326256116
 31
0.0
 11
217.5500711011994
 21
-73.61564730328237
 31
0.0
 11
217.5643316840802
 21
-73.41042162372699
 31
0.0
 11
217.5843665997399
 21
-73.1678048765866
 31
0.0
 11
217.6080140878663
 21
-72.92551369619977
 31
0.0
 11
217.6354908567709
 21
-72.68361407991026
 31
0.0
 11
217.6670088436459
 21
-72.44220605458787
 31
0.0
 11
217.7054312334069
 21
-72.18491996913316
 31
0.0
 11
217.7492043851061
 21
-71.92849060911522
 31
0.0
 11
217.7988177274232
 21
-71.67313215548478
 31
0.0
 11
217.8547538875246
 21
-71.41908344723545
 31
0.0
 11
217.9118022778167
 21
-71.18857715067496
 31
0.0
 11
217.9752617004896
 21
-70.95975461958639
 31
0.0
 11
218.0458783033033
 21
-70.73297537025765
 31
0.0
 11
218.1243264442675
 21
-70.50879081015147
 31
0.0
 11
218.1942751653468
 21
-70.32919801166346
 31
0.0
 11
218.2706174893939
 21
-70.15222689660943
 31
0.0
 11
218.354032924195
 21
-69.978672467447
 31
0.0
 11
218.4452941633365
 21
-69.80914371580421
 31
0.0
 11
218.4965943123147
 21
-69.7220448788177
 31
0.0
 11
218.5504306804717
 21
-69.63649739993355
 31
0.0
 11
218.6070151313767
 21
-69.55267071837586
 31
0.0
 11
218.6664739562265
 21
-69.47085242118757
 31
0.0
 11
218.7365508160458
 21
-69.38209758986531
 31
0.0
 11
218.8107129591501
 21
-69.296719354898
 31
0.0
 11
218.8891437715386
 21
-69.2154023264838
 31
0.0
 11
218.9721094380249
 21
-69.13875207406889
 31
0.0
 11
219.0230224715739
 21
-69.09621178618522
 31
0.0
 11
219.0755966898407
 21
-69.05575148292613
 31
0.0
 11
219.1298929481568
 21
-69.01757144637467
 31
0.0
 11
219.1858897601176
 21
-68.98192497484783
 31
0.0
 11
219.2523441082007
 21
-68.9443840529692
 31
0.0
 11
219.3209246768699
 21
-68.91087485161596
 31
0.0
 11
219.3914054851045
 21
-68.88181457970082
 31
0.0
 11
219.4636843874408
 21
-68.85758757428933
 31
0.0
 11
219.6046819101451
 21
-68.82628518506147
 31
0.0
 11
219.748717409648
 21
-68.8156111406949
 31
0.0
  0
SPLINE
  5
20A
330
1F
100
AcDbEntity
  8
0
  6
Continuous
 62
     3
100
AcDbSpline
210
0.0
220
0.0
230
1.0
 70
     8
 71
     3
 72
   159
 73
   155
 74
   153
 42
0.0000000001
 43
0.0000000001
 44
0.00000001
 40
0.0
 40
0.0
 40
0.0
 40
0.0
 40
0.0184198062933011
 40
0.0368396125866677
 40
0.0742389008992583
 40
0.1116404753514166
 40
0.1490541035240668
 40
0.186467715110496
 40
0.2321009020747861
 40
0.2777354046798106
 40
0.3233722827198183
 40
0.3690090782064641
 40
0.4187757666604148
 40
0.4685436869808811
 40
0.5183099855166166
 40
0.5680747730376092
 40
0.6092483194453796
 40
0.6504211932659465
 40
0.6915893562111156
 40
0.7327575340358764
 40
0.7719044692099714
 40
0.8110511249510108
 40
0.8501989658395789
 40
0.8893472322916687
 40
0.9345705313954067
 40
0.9797943644797258
 40
1.02502113058872
 40
1.070248152296753
 40
1.121896164617636
 40
1.173544908362834
 40
1.225197012920917
 40
1.276849392538461
 40
1.336448513649519
 40
1.396048828563307
 40
1.455651357294459
 40
1.515253430111508
 40
1.573170115491371
 40
1.631086762212999
 40
1.689000876904184
 40
1.746914915667651
 40
1.802628248582262
 40
1.858341441395345
 40
1.91405384802982
 40
1.969766195954402
 40
2.022415945858776
 40
2.075065602094202
 40
2.127713696252674
 40
2.180361606971245
 40
2.222069589561417
 40
2.263777320530135
 40
2.305484269666449
 40
2.347191365643643
 40
2.395782000669124
 40
2.444372720834908
 40
2.492964471010315
 40
2.541556289523189
 40
2.597455421050594
 40
2.653354662885119
 40
2.709254002158469
 40
2.765153424455536
 40
2.82883285854617
 40
2.892512325196745
 40
2.956193173074114
 40
3.019874419914878
 40
3.125027851446977
 40
3.230182784268735
 40
3.33534445777778
 40
3.440505777652571
 40
3.541883920350603
 40
3.643262104292053
 40
3.744634399722258
 40
3.846005936769532
 40
3.901349265391996
 40
3.956692312585315
 40
4.012034475666075
 40
4.067376676579836
 40
4.116289940414004
 40
4.165203165796397
 40
4.214116385385239
 40
4.263029581458956
 40
4.304936062391492
 40
4.346842522400209
 40
4.388748881842973
 40
4.430655215680507
 40
4.464954861288022
 40
4.499254489272143
 40
4.53355375012175
 40
4.567852996681424
 40
4.593925433859306
 40
4.619997831012476
 40
4.646070667559997
 40
4.67214360007884
 40
4.735823002460751
 40
4.799502851325513
 40
4.86318383046891
 40
4.926864551822164
 40
4.98276425368008
 40
5.038663923827578
 40
5.094562872155897
 40
5.150461697368526
 40
5.199053447180795
 40
5.247645131210683
 40
5.296235918031599
 40
5.344826618871155
 40
5.386533738817895
 40
5.428240712169849
 40
5.469948419129111
 40
5.511656377713377
 40
5.564304230003982
 40
5.616952265771094
 40
5.669601981921475
 40
5.72225179095305
 40
5.777964369786172
 40
5.833677009237273
 40
5.889389966928926
 40
5.945103060084572
 40
6.003016135641277
 40
6.060929310139977
 40
6.118846979142584
 40
6.176764588464664
 40
6.236370319296246
 40
6.295976879406592
 40
6.355573962405798
 40
6.415168491435966
 40
6.454456114645608
 40
6.493742805255224
 40
6.533028354203368
 40
6.572314539000597
 40
6.618000406570019
 40
6.663686570921066
 40
6.70937738208373
 40
6.75506852405136
 40
6.806114677628177
 40
6.857161629798623
 40
6.908210933101764
 40
6.959259634133367
 40
7.00913499350269
 40
7.059010780079234
 40
7.108880742775122
 40
7.158749312796353
 40
7.199814788197316
 40
7.240879458923513
 40
7.281943669478106
 40
7.32300839441634
 40
7.368642007498308
 40
7.414276572895922
 40
7.459913864496542
 40
7.50554960109881
 40
7.542963616654037
 40
7.580377698944036
 40
7.617778862726243
 40
7.655177732345146
 40
7.673597538638307
 40
7.69201734493181
 40
7.69201734493181
 40
7.69201734493181
 40
7.69201734493181
 10
228.048717409647
 20
-86.9710557069226
 30
0.0
 10
228.0548574040146
 20
-86.97108097092755
 30
0.0
 10
228.0671373927498
 20
-86.97113149893742
 30
0.0
 10
228.0918787637457
 20
-86.97167645895094
 30
0.0
 10
228.1229285088022
 20
-86.97299865464751
 30
0.0
 10
228.160242415734
 20
-86.97567892407702
 30
0.0
 10
228.1974689843622
 20
-86.9794268381159
 30
0.0
 10
228.2372936355856
 20
-86.98459663237183
 30
0.0
 10
228.2796417754584
 20
-86.99147296582548
 30
0.0
 10
228.3244135463919
 20
-87.00035318214651
 30
0.0
 10
228.3688518597639
 20
-87.01078018841261
 30
0.0
 10
228.4142329401822
 20
-87.02309627027734
 30
0.0
 10
228.4604585578033
 20
-87.03744676933174
 30
0.0
 10
228.5074178114214
 20
-87.05396052971146
 30
0.0
 10
228.5537372808695
 20
-87.07218946637413
 30
0.0
 10
228.5967350142951
 20
-87.0909497858775
 30
0.0
 10
228.636498163873
 20
-87.10988936737422
 30
0.0
 10
228.6731333619084
 20
-87.1286896919277
 30
0.0
 10
228.7092007953783
 20
-87.14855332187615
 30
0.0
 10
228.744096161095
 20
-87.16910982931209
 30
0.0
 10
228.7778318755685
 20
-87.19027500148414
 30
0.0
 10
228.810426115393
 20
-87.21196551247385
 30
0.0
 10
228.8424344772723
 20
-87.23451223174473
 30
0.0
 10
228.8754671258652
 20
-87.25909765717162
 30
0.0
 10
228.9093948312149
 20
-87.28584790237372
 30
0.0
 10
228.9440796977874
 20
-87.31487880870205
 30
0.0
 10
228.9779190223865
 20
-87.34489270323162
 30
0.0
 10
229.0124621764603
 20
-87.37731176576774
 30
0.0
 10
229.0475503172556
 20
-87.41224982336651
 30
0.0
 10
229.0830206653586
 20
-87.44980438206821
 30
0.0
 10
229.1173547242113
 20
-87.48840210779423
 30
0.0
 10
229.152255131871
 20
-87.53001185213616
 30
0.0
 10
229.1875127494609
 20
-87.57474903600414
 30
0.0
 10
229.2229167574625
 20
-87.62270651721695
 30
0.0
 10
229.2568466709923
 20
-87.67171848910067
 30
0.0
 10
229.289018621598
 20
-87.72123318826243
 30
0.0
 10
229.3195045505182
 20
-87.77114474313208
 30
0.0
 10
229.3483788494996
 20
-87.82135700122933
 30
0.0
 10
229.3759653078888
 20
-87.87228657570955
 30
0.0
 10
229.4019638760576
 20
-87.92322097462599
 30
0.0
 10
229.426463627938
 20
-87.97407888316101
 30
0.0
 10
229.449546935985
 20
-88.02478952857041
 30
0.0
 10
229.4715632840256
 20
-88.07597169720886
 30
0.0
 10
229.4921606637141
 20
-88.12664021980201
 30
0.0
 10
229.5114357284027
 20
-88.17673321200363
 30
0.0
 10
229.5294763388961
 20
-88.22619782784523
 30
0.0
 10
229.5466760502322
 20
-88.27596019164554
 30
0.0
 10
229.5619275203625
 20
-88.3225298579332
 30
0.0
 10
229.5754378748339
 20
-88.36582652708805
 30
0.0
 10
229.5873811827328
 20
-88.40578851413309
 30
0.0
 10
229.598855829706
 20
-88.44588720744858
 30
0.0
 10
229.6104803192069
 20
-88.48832642467121
 30
0.0
 10
229.6221777114408
 20
-88.53312175469996
 30
0.0
 10
229.6338704152993
 20
-88.5802862052047
 30
0.0
 10
229.6449967989787
 20
-88.6275877993924
 30
0.0
 10
229.6561053329719
 20
-88.67739263972717
 30
0.0
 10
229.6671174622342
 20
-88.729711118777
 30
0.0
 10
229.6779528046715
 20
-88.78455154963916
 30
0.0
 10
229.6881324289608
 20
-88.83951749447705
 30
0.0
 10
229.6981221391307
 20
-88.89715209187841
 30
0.0
 10
229.7078421057722
 20
-88.9574615418959
 30
0.0
 10
229.7172113648157
 20
-89.02044993328637
 30
0.0
 10
229.7258452807135
 20
-89.08354387789579
 30
0.0
 10
229.7354927001498
 20
-89.16044767853528
 30
0.0
 10
229.7455702243152
 20
-89.25122482419597
 30
0.0
 10
229.7554001699758
 20
-89.35592576305166
 30
0.0
 10
229.7635355262202
 20
-89.46077432710926
 30
0.0
 10
229.7699765759444
 20
-89.56447876824521
 30
0.0
 10
229.7748660117534
 20
-89.66700476243581
 30
0.0
 10
229.7782876077678
 20
-89.76832645631737
 30
0.0
 10
229.7803225683388
 20
-89.86968308169857
 30
0.0
 10
229.7808908767561
 20
-89.9557130216849
 30
0.0
 10
229.7806333805842
 20
-90.02639904506937
 30
0.0
 10
229.7800281978457
 20
-90.08173909836313
 30
0.0
 10
229.7790164937397
 20
-90.13707281363038
 30
0.0
 10
229.7776503701949
 20
-90.1902549804883
 30
0.0
 10
229.7759809192489
 20
-90.24128427318885
 30
0.0
 10
229.7740559037864
 20
-90.29015998376812
 30
0.0
 10
229.7718017696425
 20
-90.33902160055912
 30
0.0
 10
229.7693385422115
 20
-90.38553442792963
 30
0.0
 10
229.7667166077574
 20
-90.42969896569308
 30
0.0
 10
229.7639823091544
 20
-90.47151635920636
 30
0.0
 10
229.7609931635804
 20
-90.51331626254776
 30
0.0
 10
229.7579416324991
 20
-90.55256887126923
 30
0.0
 10
229.7548764601436
 20
-90.58927648103281
 30
0.0
 10
229.7518425228829
 20
-90.62344171103481
 30
0.0
 10
229.7486252397358
 20
-90.6575900316527
 30
0.0
 10
229.7454931888399
 20
-90.68899136868562
 30
0.0
 10
229.7424924395162
 20
-90.71764947156564
 30
0.0
 10
229.7396663038537
 20
-90.74356848649862
 30
0.0
 10
229.7367283450313
 20
-90.7694752387706
 30
0.0
 10
229.7322110248491
 20
-90.8078185343144
 30
0.0
 10
229.7258437891754
 20
-90.8585658290292
 30
0.0
 10
229.717210018645
 20
-90.92165927066418
 30
0.0
 10
229.7078415145241
 20
-90.98464839842626
 30
0.0
 10
229.6981222575241
 20
-91.04495899900974
 30
0.0
 10
229.6881327659905
 20
-91.10259427930373
 30
0.0
 10
229.6779531157858
 20
-91.15756032747049
 30
0.0
 10
229.667117592656
 20
-91.2124006318361
 30
0.0
 10
229.6561053008381
 20
-91.26471884854412
 30
0.0
 10
229.6449967250414
 20
-91.31452352843604
 30
0.0
 10
229.6338703517831
 20
-91.36182510149533
 30
0.0
 10
229.6221776884789
 20
-91.40898958472945
 30
0.0
 10
229.6104803271201
 20
-91.4537849768266
 30
0.0
 10
229.5988558370948
 20
-91.49622423341658
 30
0.0
 10
229.5873811810814
 20
-91.53632293256327
 30
0.0
 10
229.5754378651857
 20
-91.57628490893057
 30
0.0
 10
229.5619275200792
 20
-91.61958154374861
 30
0.0
 10
229.5466760918156
 20
-91.66615117421254
 30
0.0
 10
229.5294764194053
 20
-91.7159135314862
 30
0.0
 10
229.5114358068876
 20
-91.76537816835034
 30
0.0
 10
229.4921606542561
 20
-91.81547125220797
 30
0.0
 10
229.4715630847479
 20
-91.86613988616092
 30
0.0
 10
229.4495465942729
 20
-91.91732207592733
 30
0.0
 10
229.4264633198623
 20
-91.96803264681056
 30
0.0
 10
229.4019639462473
 20
-92.01889020336091
 30
0.0
 10
229.375966108042
 20
-92.0698241712527
 30
0.0
 10
229.348380132502
 20
-92.12075367605397
 30
0.0
 10
229.3195056255919
 20
-92.1709662057919
 30
0.0
 10
229.289018228421
 20
-92.2208790623184
 30
0.0
 10
229.2568436663368
 20
-92.27039548463598
 30
0.0
 10
229.2229119795059
 20
-92.31940806334023
 30
0.0
 10
229.1875089122119
 20
-92.36736451087874
 30
0.0
 10
229.1548053655287
 20
-92.4088630574067
 30
0.0
 10
229.1253270298693
 20
-92.44425394858004
 30
0.0
 10
229.0995239361822
 20
-92.47388328570995
 30
0.0
 10
229.073062660801
 20
-92.50292579315294
 30
0.0
 10
229.0444703711572
 20
-92.53289792359215
 30
0.0
 10
229.0136161870224
 20
-92.56364446761917
 30
0.0
 10
228.980366495971
 20
-92.59498708261523
 30
0.0
 10
228.9462400537121
 20
-92.62537590239444
 30
0.0
 10
228.9098795500393
 20
-92.65591305259501
 30
0.0
 10
228.871176002571
 20
-92.68640303348596
 30
0.0
 10
228.8300294017775
 20
-92.71663211115714
 30
0.0
 10
228.7878708326127
 20
-92.74543529620574
 30
0.0
 10
228.7450624776944
 20
-92.77254111790887
 30
0.0
 10
228.7016649160128
 20
-92.79792637352577
 30
0.0
 10
228.6577476596792
 20
-92.82158436687729
 30
0.0
 10
228.6130188020651
 20
-92.84366471714719
 30
0.0
 10
228.5702017470193
 20
-92.86291476570258
 30
0.0
 10
228.5294862572013
 20
-92.87961143928378
 30
0.0
 10
228.4910316106545
 20
-92.89403642666076
 30
0.0
 10
228.4521551965223
 20
-92.90728211840127
 30
0.0
 10
228.4114341363455
 20
-92.91977436279099
 30
0.0
 10
228.368854103781
 20
-92.93132869167414
 30
0.0
 10
228.324416754578
 20
-92.94175542980227
 30
0.0
 10
228.2796442050248
 20
-92.95063697629439
 30
0.0
 10
228.2372943590193
 20
-92.95751475202685
 30
0.0
 10
228.197468626527
 20
-92.9626850942415
 30
0.0
 10
228.1602419038118
 20
-92.96643299613237
 30
0.0
 10
228.1229280987493
 20
-92.96911295900738
 30
0.0
 10
228.0918786235313
 20
-92.97043493613867
 30
0.0
 10
228.0671373928685
 20
-92.97097991872539
 30
0.0
 10
228.0548574040542
 20
-92.97103044419018
 30
0.0
 10
228.048717409647
 20
-92.9710557069226
 30
0.0
 11
228.048717409647
 21
-86.9710557069226
 31
0.0
 11
228.0671367517637
 21
-86.97118647339036
 31
0.0
 11
228.0855523809323
 21
-86.97157873123014
 31
0.0
 11
228.1229173724434
 21
-86.97318003559243
 31
0.0
 11
228.1602230631744
 21
-86.97585645308267
 31
0.0
 11
228.1974484346207
 21
-86.97960495861494
 31
0.0
 11
228.2345507558637
 21
-86.98442119057796
 31
0.0
 11
228.2795942465701
 21
-86.99173362502228
 31
0.0
 11
228.3243569999667
 21
-87.00061077188175
 31
0.0
 11
228.3687874181562
 21
-87.01103490622215
 31
0.0
 11
228.4128312246995
 21
-87.0229873205166
 31
0.0
 11
228.4603612865765
 21
-87.03773915083143
 31
0.0
 11
228.5073117853433
 21
-87.05424662061245
 31
0.0
 11
228.5536218491124
 21
-87.07246920175916
 31
0.0
 11
228.5992349584788
 21
-87.09236840603832
 31
0.0
 11
228.6364082746958
 21
-87.11007166803218
 31
0.0
 11
228.6730403845625
 21
-87.12886778639093
 31
0.0
 11
228.709102440041
 21
-87.14872592817073
 31
0.0
 11
228.7445744775068
 21
-87.16961978907372
 31
0.0
 11
228.7777367985832
 21
-87.19042226475219
 31
0.0
 11
228.810328082373
 21
-87.21210794843157
 31
0.0
 11
228.8423342307132
 21
-87.23465035102441
 31
0.0
 11
228.8737401892912
 21
-87.2580223969768
 31
0.0
 11
228.9092556675689
 21
-87.28601878218156
 31
0.0
 11
228.9439378766279
 21
-87.31504186702148
 31
0.0
 11
228.9777759883179
 21
-87.3450492422805
 31
0.0
 11
229.0107568602164
 21
-87.37599670714258
 31
0.0
 11
229.0473608696112
 21
-87.41243382658038
 31
0.0
 11
229.0828303625723
 21
-87.44997723877931
 31
0.0
 11
229.1171651704829
 21
-87.48856559027332
 31
0.0
 11
229.1503637497332
 21
-87.52813606734794
 31
0.0
 11
229.1872634733403
 21
-87.57493847791551
 31
0.0
 11
229.2226705493139
 21
-87.6228815327704
 31
0.0
 11
229.2566047276541
 21
-87.67188084880159
 31
0.0
 11
229.2890870050244
 21
-87.72185392896408
 31
0.0
 11
229.3192848357853
 21
-87.77127491097302
 31
0.0
 11
229.3481646924542
 21
-87.82147741933923
 31
0.0
 11
229.3757563295428
 21
-87.87239643585795
 31
0.0
 11
229.4020942966733
 21
-87.92397499122094
 31
0.0
 11
229.4262806605715
 21
-87.97416458442346
 31
0.0
 11
229.4493692375781
 21
-88.02486840543568
 31
0.0
 11
229.47139089347
 21
-88.07604377963837
 31
0.0
 11
229.4923782959142
 21
-88.12765186669759
 31
0.0
 11
229.5112911335922
 21
-88.1767874010486
 31
0.0
 11
229.5293363974543
 21
-88.22624803947812
 31
0.0
 11
229.5465405616594
 21
-88.27600583838968
 31
0.0
 11
229.5629316739818
 21
-88.32603716797291
 31
0.0
 11
229.5753577870083
 21
-88.36585107919493
 31
0.0
 11
229.5873031596952
 21
-88.4058115958824
 31
0.0
 11
229.5987797712364
 21
-88.44590844106743
 31
0.0
 11
229.6098001791007
 21
-88.48613321534096
 31
0.0
 11
229.6220802844566
 21
-88.5331464988322
 31
0.0
 11
229.6337759325413
 21
-88.58030866483534
 31
0.0
 11
229.6449054284325
 21
-88.62760869132917
 31
0.0
 11
229.6554867831828
 21
-88.67503442019057
 31
0.0
 11
229.6670043701043
 21
-88.7297341285721
 31
0.0
 11
229.6778435091628
 21
-88.78457242086995
 31
0.0
 11
229.6880269525268
 21
-88.8395363509737
 31
0.0
 11
229.6975776155905
 21
-88.89461384409194
 31
0.0
 11
229.7077148663605
 21
-88.95748121617738
 31
0.0
 11
229.7170887284249
 21
-89.02046696998647
 31
0.0
 11
229.7257273768227
 21
-89.08355915761885
 31
0.0
 11
229.7336588056887
 21
-89.14674454861502
 31
0.0
 11
229.7452746375347
 21
-89.25125443625012
 31
0.0
 11
229.7551175082097
 21
-89.35594769197189
 31
0.0
 11
229.7632661517901
 21
-89.46079318392563
 31
0.0
 11
229.7697985373669
 21
-89.56575141912651
 31
0.0
 11
229.7746313943783
 21
-89.6670143013194
 31
0.0
 11
229.7780565642581
 21
-89.76833460723367
 31
0.0
 11
229.7800950291814
 21
-89.86968640515332
 31
0.0
 11
229.7807682172156
 21
-89.97105570692263
 31
0.0
 11
229.780566116354
 21
-90.02639866653138
 31
0.0
 11
229.7799604391294
 21
-90.08173839934372
 31
0.0
 11
229.7789482515243
 21
-90.13707130538262
 31
0.0
 11
229.7775266074844
 21
-90.19239524351254
 31
0.0
 11
229.7759266459897
 21
-90.24128233283197
 31
0.0
 11
229.7740010504323
 21
-90.290157640494
 31
0.0
 11
229.7717463344318
 21
-90.33901886547152
 31
0.0
 11
229.76915901156
 21
-90.3878635838196
 31
0.0
 11
229.7666748105378
 21
-90.42969636868303
 31
0.0
 11
229.7639398318112
 21
-90.47151348577432
 31
0.0
 11
229.760950010664
 21
-90.51331305432777
 31
0.0
 11
229.7577012793485
 21
-90.55509327166256
 31
0.0
 11
229.7548464982499
 21
-90.58927390819379
 31
0.0
 11
229.7518119520635
 21
-90.62343903675043
 31
0.0
 11
229.748594080652
 21
-90.65758701763376
 31
0.0
 11
229.7451892607565
 21
-90.69171685085985
 31
0.0
 11
229.7424739463264
 21
-90.71764750931544
 31
0.0
 11
229.7396476859086
 21
-90.74356626980592
 31
0.0
 11
229.7367095747235
 21
-90.7694730316317
 31
0.0
 11
229.7336588056887
 21
-90.79536686523024
 31
0.0
 11
229.7257261677068
 21
-90.85855024550041
 31
0.0
 11
229.7170876264329
 21
-90.92164143946675
 31
0.0
 11
229.7077142719523
 21
-90.98462879796385
 31
0.0
 11
229.697577615586
 21
-91.04749756978089
 31
0.0
 11
229.688027238855
 21
-91.10257539628212
 31
0.0
 11
229.6778437492194
 21
-91.15753965431806
 31
0.0
 11
229.6670044969653
 21
-91.21237762505717
 31
0.0
 11
229.6554867831734
 21
-91.26707699369301
 31
0.0
 11
229.6449053673971
 21
-91.3145026385488
 31
0.0
 11
229.6337758861953
 21
-91.36180260054708
 31
0.0
 11
229.6220802613527
 21
-91.4089648409881
 31
0.0
 11
229.6098001790923
 21
-91.45597819853421
 31
0.0
 11
229.5987797759631
 21
-91.49620299895784
 31
0.0
 11
229.5873031529565
 21
-91.53629986604925
 31
0.0
 11
229.5753577789334
 21
-91.57626035727806
 31
0.0
 11
229.5629316739816
 21
-91.6160742458723
 31
0.0
 11
229.546540603971
 21
-91.66610552783388
 31
0.0
 11
229.5293364865216
 21
-91.71586328112843
 31
0.0
 11
229.5112912034753
 21
-91.7653239763368
 31
0.0
 11
229.4923782959156
 21
-91.81445954714553
 31
0.0
 11
229.4713906960835
 21
-91.86606780320525
 31
0.0
 11
229.4493688514915
 21
-91.9172433496642
 31
0.0
 11
229.426280380585
 21
-91.96794696063967
 31
0.0
 11
229.4020942966749
 21
-92.0181364226219
 31
0.0
 11
229.3757571254669
 21
-92.06971430289238
 31
0.0
 11
229.3481662302153
 21
-92.12063265203817
 31
0.0
 11
229.3192858156372
 21
-92.1708360188226
 31
0.0
 11
229.2890870050255
 21
-92.22025748487962
 31
0.0
 11
229.2566017982994
 21
-92.27023302381548
 31
0.0
 11
229.2226645476552
 21
-92.31923511588202
 31
0.0
 11
229.1872594998264
 21
-92.36717565082121
 31
0.0
 11
229.1503637497329
 21
-92.41397534649725
 31
0.0
 11
229.1252172133274
 21
-92.44416092325618
 31
0.0
 11
229.0994139336748
 21
-92.47378582525131
 31
0.0
 11
229.0729530507801
 21
-92.50282331881722
 31
0.0
 11
229.0458332744312
 21
-92.5312472883977
 31
0.0
 11
229.0134690813198
 21
-92.56349255936591
 31
0.0
 11
228.980221728942
 21
-92.59482687239459
 31
0.0
 11
228.9460958472951
 21
-92.62520901232126
 31
0.0
 11
228.9111041546379
 21
-92.65459033120402
 31
0.0
 11
228.871002918797
 21
-92.68617514842722
 31
0.0
 11
228.8298614945587
 21
-92.71639392632328
 31
0.0
 11
228.7877073620617
 21
-92.7451873367007
 31
0.0
 11
228.7445744775076
 21
-92.77249162477156
 31
0.0
 11
228.7015218823217
 21
-92.79767148815452
 31
0.0
 11
228.6576103314802
 21
-92.82132248790751
 31
0.0
 11
228.612890500592
 21
-92.84339396055027
 31
0.0
 11
228.567405470849
 21
-92.86383867490977
 31
0.0
 11
228.5294101913449
 21
-92.87941853387291
 31
0.0
 11
228.4909611327479
 21
-92.89383994416671
 31
0.0
 11
228.4520906244364
 21
-92.90708203509189
 31
0.0
 11
228.4128312246996
 21
-92.91912409332814
 31
0.0
 11
228.3687900752264
 21
-92.93107414755349
 31
0.0
 11
228.3243618908645
 21
-92.94149767830523
 31
0.0
 11
228.2795965922744
 21
-92.95037632835921
 31
0.0
 11
228.2345507556619
 21
-92.95769022329378
 31
0.0
 11
228.1974480851698
 21
-92.9625069028887
 31
0.0
 11
228.1602222611625
 21
-92.96625544668397
 31
0.0
 11
228.1229169623679
 21
-92.96893158832881
 31
0.0
 11
228.0855523809323
 21
-92.97053268261502
 31
0.0
 11
228.0671367517639
 21
-92.9709249404545
 31
0.0
 11
228.048717409647
 21
-92.9710557069226
 31
0.0
  0
SPLINE
  5
20B
330
1F
100
AcDbEntity
  8
0
  6
Continuous
 62
     3
100
AcDbSpline
210
0.0
220
0.0
230
1.0
 70
     8
 71
     3
 72
    75
 73
    71
 74
    69
 42
0.0000000001
 43
0.0000000001
 44
0.00000001
 40
0.0
 40
0.0
 40
0.0
 40
0.0
 40
0.1429989019440059
 40
0.2859977988211782
 40
0.3572821175534535
 40
0.428567181109324
 40
0.499861398782444
 40
0.5711536243980587
 40
0.6280471331057548
 40
0.6849387707863018
 40
0.7418329462902513
 40
0.7987298091617859
 40
0.8859080166610092
 40
0.9730937291065744
 40
1.060289549000804
 40
1.14748028969089
 40
1.217016141054561
 40
1.286549025667957
 40
1.3560808605868
 40
1.425617737056725
 40
1.544418114052141
 40
1.663236924746867
 40
1.78212709964516
 40
1.901013808728394
 40
2.033503113563483
 40
2.165998152508124
 40
2.298508979755647
 40
2.431029606286029
 40
2.654464128622403
 40
2.877967409002193
 40
3.101758635038519
 40
3.325537463455428
 40
3.538413297234134
 40
3.75127842881485
 40
3.963986534462473
 40
4.176705825925642
 40
4.389428750872954
 40
4.602140411350287
 40
4.815001074569645
 40
5.027872919391855
 40
5.251630562702198
 40
5.475398960061396
 40
5.698923684018092
 40
5.92238469404484
 40
6.06411942969543
 40
6.205846700816815
 40
6.347516179192314
 40
6.489170741054283
 40
6.598859010051799
 40
6.708546245777595
 40
6.818176158556753
 40
6.927794268293046
 40
6.99732995912266
 40
7.066861269127154
 40
7.136394901874247
 40
7.205931378765166
 40
7.293118112275006
 40
7.380309623912764
 40
7.467498999899906
 40
7.554682252738536
 40
7.619295067946863
 40
7.683905786589311
 40
7.748507928458523
 40
7.813110495240039
 40
7.876691037384335
 40
7.940271219314038
 40
8.00384296800023
 40
8.067415467937126
 40
8.210414380248638
 40
8.353413288391112
 40
8.353413288391112
 40
8.353413288391112
 40
8.353413288391112
 10
219.748717409648
 20
-92.9710557069226
 30
0.0
 10
219.7010412075701
 20
-92.97004675386752
 30
0.0
 10
219.6056888051036
 20
-92.9680288477931
 30
0.0
 10
219.4872010127234
 20
-92.95437678220785
 30
0.0
 10
219.3932937853751
 20
-92.93876970474163
 30
0.0
 10
219.3234392006134
 20
-92.92444918198743
 30
0.0
 10
219.2541516171027
 20
-92.90760750408901
 30
0.0
 10
219.1901421532205
 20
-92.88954552115653
 30
0.0
 10
219.1313432401573
 20
-92.87084602287038
 30
0.0
 10
219.0776440384742
 20
-92.85202726843832
 30
0.0
 10
219.0245147407954
 20
-92.83165167836887
 30
0.0
 10
218.9626835526069
 20
-92.80585088569283
 30
0.0
 10
218.8926584742018
 20
-92.77355499613422
 30
0.0
 10
218.8151469782485
 20
-92.73357674302729
 30
0.0
 10
218.7394503818849
 20
-92.69025203685185
 30
0.0
 10
218.6706815419736
 20
-92.64682341065503
 30
0.0
 10
218.6085162600631
 20
-92.60409440734259
 30
0.0
 10
218.5525807036332
 20
-92.56276654346573
 30
0.0
 10
218.4980733662299
 20
-92.51957187300172
 30
0.0
 10
218.432517973761
 20
-92.46395347445848
 30
0.0
 10
218.3574529651716
 20
-92.39424192485319
 30
0.0
 10
218.2748775459336
 20
-92.30870475503033
 30
0.0
 10
218.1969133884551
 20
-92.21890818176907
 30
0.0
 10
218.1208544771746
 20
-92.12164117286297
 30
0.0
 10
218.0474294309209
 20
-92.01676865456943
 30
0.0
 10
217.9772386006331
 20
-91.9043216738658
 30
0.0
 10
217.9127609002156
 20
-91.7884964290294
 30
0.0
 10
217.8403843740246
 20
-91.64258653685197
 30
0.0
 10
217.7650806220487
 20
-91.46451740517385
 30
0.0
 10
217.6924122566591
 20
-91.25291289053403
 30
0.0
 10
217.6332485372126
 20
-91.03704493653694
 30
0.0
 10
217.5873766434696
 20
-90.82161629432521
 30
0.0
 10
217.5531044911035
 20
-90.60775506694746
 30
0.0
 10
217.5294937408046
 20
-90.39617350916798
 30
0.0
 10
217.5156390088007
 20
-90.18378872430101
 30
0.0
 10
217.5111526216045
 20
-89.97105446470673
 30
0.0
 10
217.5156469398558
 20
-89.75831920580171
 30
0.0
 10
217.5295064725426
 20
-89.5459339035151
 30
0.0
 10
217.5531151916687
 20
-89.33435387087741
 30
0.0
 10
217.5873768373292
 20
-89.1205011161531
 30
0.0
 10
217.6332281205672
 20
-88.90508451567652
 30
0.0
 10
217.6923757093106
 20
-88.68921982952739
 30
0.0
 10
217.7650502140802
 20
-88.47760763840714
 30
0.0
 10
217.8415735757576
 20
-88.2967002276324
 30
0.0
 10
217.9169456150663
 20
-88.14539650094264
 30
0.0
 10
217.9865408648631
 20
-88.0218766677522
 30
0.0
 10
218.0626672814817
 20
-87.9022977379905
 30
0.0
 10
218.1392383987973
 20
-87.79590417153736
 30
0.0
 10
218.2146830447992
 20
-87.70209081018965
 30
0.0
 10
218.287446831522
 20
-87.61998016770062
 30
0.0
 10
218.3641323537879
 20
-87.54155152629757
 30
0.0
 10
218.4348517960785
 20
-87.47617783059651
 30
0.0
 10
218.4980752348372
 20
-87.42254314787385
 30
0.0
 10
218.5525824935987
 20
-87.37934905731217
 30
0.0
 10
218.6085171824777
 20
-87.33801954140989
 30
0.0
 10
218.670680082136
 20
-87.29528863696939
 30
0.0
 10
218.7394453513835
 20
-87.25185911728533
 30
0.0
 10
218.8151398252192
 20
-87.20853383557254
 30
0.0
 10
218.8926532089128
 20
-87.16855569402055
 30
0.0
 10
218.9650179742827
 20
-87.13518348674026
 30
0.0
 10
219.0316572243756
 20
-87.10753328374494
 30
0.0
 10
219.0921290819774
 20
-87.08475251322605
 30
0.0
 10
219.1533173797657
 20
-87.06398394595641
 30
0.0
 10
219.2148307841395
 20
-87.04535113085173
 30
0.0
 10
219.2765944582083
 20
-87.02883945608116
 30
0.0
 10
219.3385285103836
 20
-87.01443151786333
 30
0.0
 10
219.4008973933666
 20
-87.00203446812486
 30
0.0
 10
219.4897580252304
 20
-86.98744634989643
 30
0.0
 10
219.6056889385583
 20
-86.97408001914415
 30
0.0
 10
219.7010412530815
 20
-86.97206381098665
 30
0.0
 10
219.748717409648
 20
-86.9710557069226
 30
0.0
 11
219.748717409648
 21
-92.9710557069226
 31
0.0
 11
219.6058150765026
 21
-92.96580126701103
 31
0.0
 11
219.4636843874414
 21
-92.95006749012512
 31
0.0
 11
219.3933728653407
 21
-92.93833105297409
 31
0.0
 11
219.3235371079476
 21
-92.92402974969427
 31
0.0
 11
219.2542610012111
 21
-92.90718675384893
 31
0.0
 11
219.1856480590039
 21
-92.88782582425065
 31
0.0
 11
219.1314302251135
 21
-92.8705834978037
 31
0.0
 11
219.077739990357
 21
-92.85176815486861
 31
0.0
 11
219.0246182789171
 21
-92.83139584572187
 31
0.0
 11
218.9721094380249
 21
-92.80948524023546
 31
0.0
 11
218.8929420436658
 21
-92.77298094551323
 31
0.0
 11
218.8154530407041
 21
-92.73302092956419
 31
0.0
 11
218.7397742313715
 21
-92.68971008998547
 31
0.0
 11
218.6660522429632
 21
-92.64315588837903
 31
0.0
 11
218.6087451079996
 21
-92.60377153987439
 31
0.0
 11
218.5528185029177
 21
-92.562455236958
 31
0.0
 11
218.4983207858373
 21
-92.51927335533841
 31
0.0
 11
218.4452941633369
 21
-92.47428941936799
 31
0.0
 11
218.3582156649531
 21
-92.39347565387298
 31
0.0
 11
218.2756654187334
 21
-92.30801591701422
 31
0.0
 11
218.1976983729975
 21
-92.21826061930669
 31
0.0
 11
218.1244438126866
 21
-92.12462398656982
 31
0.0
 11
218.0484038020909
 21
-92.0161282139135
 31
0.0
 11
217.9781943427201
 21
-91.90376466484267
 31
0.0
 11
217.9136917650655
 21
-91.78801261598939
 31
0.0
 11
217.8547538875242
 21
-91.66931955365237
 31
0.0
 11
217.7675037357897
 21
-91.46362464172212
 31
0.0
 11
217.6946970979593
 21
-91.25231229038326
 31
0.0
 11
217.6353407196577
 21
-91.03653617213624
 31
0.0
 11
217.5885334946595
 21
-90.81770736293686
 31
0.0
 11
217.5547839798996
 21
-90.60752389341452
 31
0.0
 11
217.5311143429073
 21
-90.39597883313769
 31
0.0
 11
217.5172000233005
 21
-90.18372631862236
 31
0.0
 11
217.5126494321482
 21
-89.97105570692258
 31
0.0
 11
217.5172074543939
 21
-89.75838162003998
 31
0.0
 11
217.5311262076039
 21
-89.54612583375348
 31
0.0
 11
217.5547934686176
 21
-89.33458500388299
 31
0.0
 11
217.588533494645
 21
-89.12440405098363
 31
0.0
 11
217.6353207962009
 21
-88.90559264508138
 31
0.0
 11
217.6946591180755
 21
-88.68983523683359
 31
0.0
 11
217.767475446045
 21
-88.47850354351489
 31
0.0
 11
217.854753887524
 21
-88.27279186019288
 31
0.0
 11
217.918011004161
 21
-88.14595624814042
 31
0.0
 11
217.9876415983275
 21
-88.02251314490846
 31
0.0
 11
218.0637843830371
 21
-87.90304550309759
 31
0.0
 11
218.1465952401416
 21
-87.7881178004236
 31
0.0
 11
218.2153519426814
 21
-87.70265416949485
 31
0.0
 11
218.2881161417631
 21
-87.62057700450256
 31
0.0
 11
218.3647794710449
 21
-87.54220958959436
 31
0.0
 11
218.4452941633367
 21
-87.46782199447725
 31
0.0
 11
218.4983221193307
 21
-87.42284146333036
 31
0.0
 11
218.5528197449403
 21
-87.3796603114947
 31
0.0
 11
218.608745993628
 21
-87.33834226712273
 31
0.0
 11
218.6660522428867
 21
-87.29895552551721
 31
0.0
 11
218.7397693926939
 21
-87.2524011667049
 31
0.0
 11
218.8154437785394
 21
-87.20909127143156
 31
0.0
 11
218.8929364057169
 21
-87.16913029023543
 31
0.0
 11
218.9721094380251
 21
-87.13262617360944
 31
0.0
 11
219.0317889015153
 21
-87.10786375194547
 31
0.0
 11
219.0922517157677
 21
-87.08508672281147
 31
0.0
 11
219.1534262089596
 21
-87.06432333877115
 31
0.0
 11
219.2152547461851
 21
-87.0455957222834
 31
0.0
 11
219.2766783096451
 21
-87.0291752718864
 31
0.0
 11
219.3386041668376
 21
-87.01476597817756
 31
0.0
 11
219.4009584490515
 21
-87.002384107535
 31
0.0
 11
219.4636843874414
 21
-86.9920439237195
 31
0.0
 11
219.6058150594924
 21
-86.97630985289801
 31
0.0
 11
219.748717409648
 21
-86.9710557069226
 31
0.0
  0
SPLINE
  5
20C
330
1F
100
AcDbEntity
  8
0
  6
Continuous
 62
     3
100
AcDbSpline
210
0.0
220
0.0
230
1.0
 70
     8
 71
     3
 72
    79
 73
    75
 74
    73
 42
0.0000000001
 43
0.0000000001
 44
0.00000001
 40
0.0
 40
0.0
 40
0.0
 40
0.0
 40
0.1429989089109622
 40
0.2859978178971444
 40
0.3495685093593671
 40
0.4131384719069503
 40
0.4767205728060527
 40
0.5403029080228496
 40
0.604910763750191
 40
0.6695186342121258
 40
0.7341244127714072
 40
0.7987307452105891
 40
0.8687530847143029
 40
0.9387758235452184
 40
1.00880656739621
 40
1.078838978137568
 40
1.165522171653475
 40
1.252208508294403
 40
1.338913276606792
 40
1.425620028864299
 40
1.535255015102442
 40
1.644897576286554
 40
1.754570152215687
 40
1.864244829664984
 40
2.005898238087179
 40
2.147567506728813
 40
2.289298779915956
 40
2.431031299143271
 40
2.610451127197484
 40
2.789892087868559
 40
2.969382286396411
 40
3.148865014583445
 40
3.301441864389342
 40
3.454012884549241
 40
3.606505306604332
 40
3.758996086981314
 40
3.863444609213362
 40
3.967887719712849
 40
4.072339504060667
 40
4.176798993783763
 40
4.389470082883983
 40
4.602156081258469
 40
4.81506180513688
 40
5.027971421811651
 40
5.251759657476136
 40
5.475561913354217
 40
5.699054745394601
 40
5.922478434434682
 40
6.054997689939328
 40
6.187507212627779
 40
6.320003602391894
 40
6.452494236512546
 40
6.571381220991517
 40
6.690271673496039
 40
6.809090215351934
 40
6.927890325098613
 40
6.997427190157633
 40
7.066959013395595
 40
7.13649190710113
 40
7.206027767806934
 40
7.293218398293717
 40
7.38041410723929
 40
7.467599936324131
 40
7.554778260344759
 40
7.611675402958845
 40
7.668569858196011
 40
7.725461210172356
 40
7.782354435261434
 40
7.853645264824586
 40
7.924938076745987
 40
7.996224544769635
 40
8.06751028449014
 40
8.210509202431615
 40
8.353508115747518
 40
8.353508115747518
 40
8.353508115747518
 40
8.353508115747518
 10
219.748717409648
 20
-62.6601665744672
 30
0.0
 10
219.7010412453523
 20
-62.65915850610146
 30
0.0
 10
219.6056889167359
 20
-62.65714236936947
 30
0.0
 10
219.4897587016063
 20
-62.64377550135715
 30
0.0
 10
219.4008990496983
 20
-62.6291888841087
 30
0.0
 10
219.3385305321716
 20
-62.61679283137529
 30
0.0
 10
219.2765958243441
 20
-62.60238483084446
 30
0.0
 10
219.2148295572028
 20
-62.58587114653143
 30
0.0
 10
219.1533129995211
 20
-62.56723399843116
 30
0.0
 10
219.0921237079838
 20
-62.54646199499744
 30
0.0
 10
219.0316537790435
 20
-62.52368202052156
 30
0.0
 10
218.9703003535874
 20
-62.49822976708603
 30
0.0
 10
218.9082111557034
 20
-62.46993654044893
 30
0.0
 10
218.8455469462263
 20
-62.43865128767006
 30
0.0
 10
218.7840225187489
 20
-62.40517285596132
 30
0.0
 10
218.718930786446
 20
-62.36672841396305
 30
0.0
 10
218.6507210343807
 20
-62.32274685446164
 30
0.0
 10
218.5799145018515
 20
-62.27268400439048
 30
0.0
 10
218.5112748698066
 20
-62.21967615657483
 30
0.0
 10
218.439050594119
 20
-62.1589286938664
 30
0.0
 10
218.3641140647602
 20
-62.08966819386009
 30
0.0
 10
218.2874244582015
 20
-62.01123587203367
 30
0.0
 10
218.2146697289497
 20
-61.92912420010664
 30
0.0
 10
218.1392373469088
 20
-61.83531362604563
 30
0.0
 10
218.0626686015822
 20
-61.72892476497444
 30
0.0
 10
217.986537696704
 20
-61.60934744370647
 30
0.0
 10
217.9169401281015
 20
-61.4858289663851
 30
0.0
 10
217.848119036255
 20
-61.34766529459026
 30
0.0
 10
217.7819467881498
 20
-61.19437270500906
 30
0.0
 10
217.7202528133919
 20
-61.0257669678405
 30
0.0
 10
217.6675166583792
 20
-60.85413823241338
 30
0.0
 10
217.625412656154
 20
-60.68883656292628
 30
0.0
 10
217.5920557589736
 20
-60.53073790998561
 30
0.0
 10
217.5660457723422
 20
-60.38039108227478
 30
0.0
 10
217.5453442348153
 20
-60.22925454736156
 30
0.0
 10
217.5313865168661
 20
-60.09346681605518
 30
0.0
 10
217.5223298584439
 20
-59.97333817517566
 30
0.0
 10
217.5167487397123
 20
-59.86903131805138
 30
0.0
 10
217.5134107154407
 20
-59.7646248909081
 30
0.0
 10
217.5118972882659
 20
-59.62409741274738
 30
0.0
 10
217.5155952732004
 20
-59.44747064611249
 30
0.0
 10
217.5294519689377
 20
-59.23509738809685
 30
0.0
 10
217.5530813216467
 20
-59.02349973355917
 30
0.0
 10
217.5873775909299
 20
-58.80961432169355
 30
0.0
 10
217.6332587549785
 20
-58.59416940725404
 30
0.0
 10
217.6924211693582
 20
-58.37829769878567
 30
0.0
 10
217.7650862370738
 20
-58.16669565741131
 30
0.0
 10
217.8403856783335
 20
-57.98863288013705
 30
0.0
 10
217.912760095349
 20
-57.84272695524929
 30
0.0
 10
217.9772377176826
 20
-57.72690217480724
 30
0.0
 10
218.0474287404714
 20
-57.61445477649107
 30
0.0
 10
218.1208542641307
 20
-57.50958138906478
 30
0.0
 10
218.1969134829153
 20
-57.4123138237105
 30
0.0
 10
218.2748776735851
 20
-57.32251715104388
 30
0.0
 10
218.3574530945721
 20
-57.23698010058997
 30
0.0
 10
218.4325180342768
 20
-57.16726874580516
 30
0.0
 10
218.4980733861723
 20
-57.11165044949347
 30
0.0
 10
218.5525807304271
 20
-57.06845579575947
 30
0.0
 10
218.6085162780902
 20
-57.02712791682582
 30
0.0
 10
218.670681508299
 20
-56.98439889280631
 30
0.0
 10
218.7394502485652
 20
-56.94097024142636
 30
0.0
 10
218.8151467852919
 20
-56.89764549968474
 30
0.0
 10
218.8926583253478
 20
-56.85766724059805
 30
0.0
 10
218.9626835934222
 20
-56.82537135136444
 30
0.0
 10
219.0245150351793
 20
-56.79957058076914
 30
0.0
 10
219.0776444447504
 20
-56.77919502926659
 30
0.0
 10
219.1313435488559
 20
-56.76037629128356
 30
0.0
 10
219.1901418006347
 20
-56.74167687908896
 30
0.0
 10
219.2541502034575
 20
-56.72361492758347
 30
0.0
 10
219.3234372879704
 20
-56.70677315802531
 30
0.0
 10
219.3932923713647
 20
-56.69245268500581
 30
0.0
 10
219.4872005671496
 20
-56.67684570783811
 30
0.0
 10
219.6056887487679
 20
-56.66319268930934
 30
0.0
 10
219.7010411898686
 20
-56.66117527940371
 30
0.0
 10
219.748717409648
 20
-56.6601665744672
 30
0.0
 11
219.748717409648
 21
-62.6601665744672
 31
0.0
 11
219.6058150600048
 21
-62.65491239363817
 31
0.0
 11
219.4636843874412
 21
-62.6391783576703
 31
0.0
 11
219.4009601045107
 21
-62.62883925017307
 31
0.0
 11
219.3386074214396
 21
-62.61645849687847
 31
0.0
 11
219.2766796932827
 21
-62.60204877654577
 31
0.0
 11
219.2152547461847
 21
-62.58562655910622
 31
0.0
 11
219.1534219751631
 21
-62.56689467587262
 31
0.0
 11
219.0922428653716
 21
-62.54612707007085
 31
0.0
 11
219.0317845939792
 21
-62.52335199502166
 31
0.0
 11
218.9721094380251
 21
-62.49859610778037
 31
0.0
 11
218.9083897189938
 21
-62.46956292958469
 31
0.0
 11
218.8457397715225
 21
-62.4382872515709
 31
0.0
 11
218.7842255750681
 21
-62.40481623845656
 31
0.0
 11
218.723924559915
 21
-62.36920267185971
 31
0.0
 11
218.6510677757637
 21
-62.32223603432574
 31
0.0
 11
218.5802816464466
 21
-62.27219760053207
 31
0.0
 11
218.5116539307075
 21
-62.21920747427694
 31
0.0
 11
218.4452941633365
 21
-62.16340028691261
 31
0.0
 11
218.3647610300389
 21
-62.08900778293069
 31
0.0
 11
218.288088596698
 21
-62.01063157998232
 31
0.0
 11
218.2153387654178
 21
-61.9285612689092
 31
0.0
 11
218.1465952401399
 21
-61.84310448096366
 31
0.0
 11
218.0637853027646
 21
-61.72817753725799
 31
0.0
 11
217.9876394930244
 21
-61.60871207222117
 31
0.0
 11
217.9180053452015
 21
-61.48526637867042
 31
0.0
 11
217.8547538875241
 21
-61.35843042119699
 31
0.0
 11
217.7835274490932
 21
-61.19375416556962
 31
0.0
 11
217.7217521697974
 21
-61.02528199209731
 31
0.0
 11
217.6689196128796
 21
-60.85374350575357
 31
0.0
 11
217.6245055846072
 21
-60.67984283350047
 31
0.0
 11
217.592970419038
 21
-60.53056045534012
 31
0.0
 11
217.5669257661129
 21
-60.38022884773
 31
0.0
 11
217.5461945722686
 21
-60.22915219041319
 31
0.0
 11
217.5305659022249
 21
-60.07746440984849
 31
0.0
 11
217.5227083397695
 21
-59.97331186543061
 31
0.0
 11
217.5171227304256
 21
-59.86901822085403
 31
0.0
 11
217.5137796386918
 21
-59.76461994983816
 31
0.0
 11
217.5126494321479
 21
-59.66016657446725
 31
0.0
 11
217.5171614655389
 21
-59.44754335444236
 31
0.0
 11
217.5310731415609
 21
-59.23531282135437
 31
0.0
 11
217.5547618578681
 21
-59.0237290507577
 31
0.0
 11
217.5885334946591
 21
-58.81351491845196
 31
0.0
 11
217.6353496081228
 21
-58.59467839055504
 31
0.0
 11
217.6947081226061
 21
-58.37889142038665
 31
0.0
 11
217.7675093822389
 21
-58.16758826714631
 31
0.0
 11
217.8547538875237
 21
-57.9619027277375
 31
0.0
 11
217.913690977891
 21
-57.84321080527207
 31
0.0
 11
217.9781929789446
 21
-57.72745992854452
 31
0.0
 11
218.0484031186738
 21
-57.61509521175259
 31
0.0
 11
218.1244438126865
 21
-57.50659829482051
 31
0.0
 11
218.1976984767002
 21
-57.4129613935543
 31
0.0
 11
218.2756656845318
 21
-57.32320586893501
 31
0.0
 11
218.3582157945556
 21
-57.23774637429681
 31
0.0
 11
218.4452941633369
 21
-57.15693286202185
 31
0.0
 11
218.4983208030793
 21
-57.11194896401538
 31
0.0
 11
218.5528185206937
 21
-57.06876710187833
 31
0.0
 11
218.6087451236824
 21
-57.02745078082705
 31
0.0
 11
218.6660522429642
 21
-56.98806639301007
 31
0.0
 11
218.7397741000908
 21
-56.9415121899078
 31
0.0
 11
218.815452787317
 21
-56.89820136033556
 31
0.0
 11
218.892941900387
 21
-56.85824130341826
 31
0.0
 11
218.9721094380247
 21
-56.82173704115431
 31
0.0
 11
219.024618571802
 21
-56.79982641114051
 31
0.0
 11
219.0777405680575
 21
-56.77945406344652
 31
0.0
 11
219.131430528123
 21
-56.76063880055018
 31
0.0
 11
219.1856480590032
 21
-56.74339645713937
 31
0.0
 11
219.2542595935022
 21
-56.72403567943037
 31
0.0
 11
219.3235342946757
 21
-56.70719285279768
 31
0.0
 11
219.3933714457009
 21
-56.69289135427591
 31
0.0
 11
219.4636843874413
 21
-56.68115479126482
 31
0.0
 11
219.6058150489243
 21
-56.66542057381282
 31
0.0
 11
219.748717409648
 21
-56.6601665744672
 31
0.0
  0
SPLINE
  5
20D
330
1F
100
AcDbEntity
  8
0
  6
Continuous
 62
     3
100
AcDbSpline
210
0.0
220
0.0
230
1.0
 70
     8
 71
     3
 72
   159
 73
   155
 74
   153
 42
0.0000000001
 43
0.0000000001
 44
0.00000001
 40
0.0
 40
0.0
 40
0.0
 40
0.0
 40
0.0184170730967363
 40
0.0368341461931134
 40
0.0742333110059023
 40
0.1116347667393047
 40
0.1490487671825954
 40
0.1864627222486848
 40
0.232097571092204
 40
0.2777338730093541
 40
0.3233696597662344
 40
0.3690048643388044
 40
0.4136996135505741
 40
0.4583944163735754
 40
0.5030885141088572
 40
0.5477826878431005
 40
0.5940247477981588
 40
0.6402670155117708
 40
0.6865117397953825
 40
0.7327567191357984
 40
0.7838034387986952
 40
0.8348511783550073
 40
0.8858997526916211
 40
0.9369474110297208
 40
0.9826388321913971
 40
1.028329951159679
 40
1.074015693572409
 40
1.119701133399094
 40
1.158987181556664
 40
1.198272594590137
 40
1.23755930462829
 40
1.276846946807549
 40
1.33644173962207
 40
1.396039087071497
 40
1.455645844448771
 40
1.515251772593161
 40
1.573169592843605
 40
1.631087472644042
 40
1.689000874175675
 40
1.746914176741977
 40
1.802627477397136
 40
1.858340642622292
 40
1.914053483395708
 40
1.969766263568668
 40
2.022416247610939
 40
2.075066138750155
 40
2.127714359951177
 40
2.180362397651363
 40
2.222070341889858
 40
2.263778034465736
 40
2.305484965753376
 40
2.347192043874462
 40
2.395782651797327
 40
2.444373344879944
 40
2.492965061292412
 40
2.541556846043418
 40
2.597455942361083
 40
2.653355148978991
 40
2.709254455164316
 40
2.765153844372665
 40
2.828833239679222
 40
2.892512667547817
 40
2.956193475947138
 40
3.01987468330905
 40
3.125028048935145
 40
3.230182915845448
 40
3.335344523765281
 40
3.440505778051458
 40
3.541883862995615
 40
3.643261989183975
 40
3.744634226798117
 40
3.846005706030276
 40
3.901348992714333
 40
3.956691997969803
 40
4.012034119122836
 40
4.067376278108783
 40
4.116289507852016
 40
4.16520269914357
 40
4.214115884638215
 40
4.26302904661785
 40
4.304935502039259
 40
4.346841936536888
 40
4.388748270474908
 40
4.430654578807721
 40
4.464954208302442
 40
4.499253820173839
 40
4.533553064895131
 40
4.567852295326557
 40
4.593924726603734
 40
4.619997117856219
 40
4.646069948544506
 40
4.672142875203845
 40
4.735822238729465
 40
4.799502048737079
 40
4.863182988433707
 40
4.926863670343354
 40
4.982763337010422
 40
5.038662971966493
 40
5.094561887226601
 40
5.150460679364705
 40
5.199052402040173
 40
5.247644058934502
 40
5.296234811891739
 40
5.344825478888742
 40
5.386532560583009
 40
5.428239495673497
 40
5.469947185093369
 40
5.511655126103044
 40
5.56430321204619
 40
5.616951481415982
 40
5.66960132254543
 40
5.722251257331205
 40
5.777963810895791
 40
5.833676423187315
 40
5.889389819231919
 40
5.945103355380303
 40
6.003017613398629
 40
6.060931947341635
 40
6.118848813068385
 40
6.17676571746451
 40
6.236368018033795
 40
6.2959707745288
 40
6.355571321424347
 40
6.415170674409036
 40
6.466822987235906
 40
6.51847502500693
 40
6.570123685976749
 40
6.621771615657496
 40
6.666998542476913
 40
6.712225213663237
 40
6.757449005809294
 40
6.802672263509093
 40
6.841820548303021
 40
6.880968408148012
 40
6.920114908535995
 40
6.959261687495732
 40
7.000429783714663
 40
7.041597871134645
 40
7.082771406076792
 40
7.123945584406504
 40
7.173712524256493
 40
7.223481111275347
 40
7.273247785594788
 40
7.323012738092582
 40
7.364764648594072
 40
7.406516006386823
 40
7.44826804350297
 40
7.490019894916448
 40
7.531317806604703
 40
7.572616608528819
 40
7.613901967778982
 40
7.655183936425706
 40
7.673601009522051
 40
7.692018082618835
 40
7.692018082618835
 40
7.692018082618835
 40
7.692018082618835
 10
228.048717409647
 20
-56.6601665744672
 30
0.0
 10
228.0548564929474
 20
-56.66019183027447
 30
0.0
 10
228.0671346595481
 20
-56.660242341889
 30
0.0
 10
228.091874168585
 20
-56.66078719413849
 30
0.0
 10
228.1229229318471
 20
-56.66210910236711
 30
0.0
 10
228.1602369058816
 20
-56.66478905457051
 30
0.0
 10
228.197463690704
 20
-56.66853682518935
 30
0.0
 10
228.2372891225493
 20
-56.67370679328624
 30
0.0
 10
228.2796384367106
 20
-56.68058381146901
 30
0.0
 10
228.3244108959294
 20
-56.68946466086483
 30
0.0
 10
228.3688489088542
 20
-56.69989141188116
 30
0.0
 10
228.4125976066925
 20
-56.71176341943972
 30
0.0
 10
228.4556162132449
 20
-56.72502618718195
 30
0.0
 10
228.4978712377671
 20
-56.73961564732888
 30
0.0
 10
228.5396196626468
 20
-56.755596273731
 30
0.0
 10
228.5812954791799
 20
-56.77314075626152
 30
0.0
 10
228.622834502838
 20
-56.79227669232657
 30
0.0
 10
228.6641740028616
 20
-56.81301899313664
 30
0.0
 10
228.7048085043262
 20
-56.83511226442806
 30
0.0
 10
228.7460831000285
 20
-56.85932766004469
 30
0.0
 10
228.7878674909971
 20
-56.88578612225602
 30
0.0
 10
228.8300254872382
 20
-56.91458892490698
 30
0.0
 10
228.8711729437804
 20
-56.94481772650461
 30
0.0
 10
228.9098778697922
 20
-56.97530779325032
 30
0.0
 10
228.9462391420573
 20
-57.00584511920406
 30
0.0
 10
228.9803656721814
 20
-57.03623392636284
 30
0.0
 10
229.0136151350117
 20
-57.06757652199632
 30
0.0
 10
229.0444689710041
 20
-57.0983229484567
 30
0.0
 10
229.073061074307
 20
-57.12829493283184
 30
0.0
 10
229.0995223268548
 20
-57.15733734626841
 30
0.0
 10
229.1253254739573
 20
-57.18696659343087
 30
0.0
 10
229.1548039747168
 20
-57.22235747831262
 30
0.0
 10
229.1875077146188
 20
-57.26385610571694
 30
0.0
 10
229.2229109749564
 20
-57.31181271194883
 30
0.0
 10
229.2568428060806
 20
-57.3608254583084
 30
0.0
 10
229.2890174871294
 20
-57.41034204402032
 30
0.0
 10
229.3195050107076
 20
-57.4602550650381
 30
0.0
 10
229.3483796497697
 20
-57.51046776823811
 30
0.0
 10
229.3759657566636
 20
-57.56139745396796
 30
0.0
 10
229.4019637159828
 20
-57.61233160773359
 30
0.0
 10
229.426463192756
 20
-57.66318935224936
 30
0.0
 10
229.4495465550267
 20
-57.71390010894223
 30
0.0
 10
229.4715631238528
 20
-57.76508248646768
 30
0.0
 10
229.4921607619899
 20
-57.8157513003943
 30
0.0
 10
229.5114359778078
 20
-57.86584455686392
 30
0.0
 10
229.5294766463421
 20
-57.91530936331441
 30
0.0
 10
229.5466763670466
 20
-57.96507189645413
 30
0.0
 10
229.5619278134646
 20
-58.01164164608866
 30
0.0
 10
229.575438148344
 20
-58.05493833882132
 30
0.0
 10
229.5873814361154
 20
-58.09490029893374
 30
0.0
 10
229.5988560724116
 20
-58.13499896959308
 30
0.0
 10
229.6104805541668
 20
-58.17743816723694
 30
0.0
 10
229.6221779337157
 20
-58.22223347577916
 30
0.0
 10
229.6338706202769
 20
-58.26939790037753
 30
0.0
 10
229.6449969847641
 20
-58.31669946668575
 30
0.0
 10
229.6561054989496
 20
-58.36650427634537
 30
0.0
 10
229.6671176106081
 20
-58.41882272359722
 30
0.0
 10
229.6779529375979
 20
-58.47366312233125
 30
0.0
 10
229.6881325485209
 20
-58.52862903526619
 30
0.0
 10
229.6981222460161
 20
-58.58626359935376
 30
0.0
 10
229.7078421998868
 20
-58.64657301406716
 30
0.0
 10
229.7172114462452
 20
-58.70956136789822
 30
0.0
 10
229.7258453502689
 20
-58.77265527451765
 30
0.0
 10
229.7354927564122
 20
-58.84955902815491
 30
0.0
 10
229.7455702671146
 20
-58.94033611784673
 30
0.0
 10
229.7554002001551
 20
-59.04503699178386
 30
0.0
 10
229.763535546358
 20
-59.14988549071653
 30
0.0
 10
229.7699765884804
 20
-59.25358986921855
 30
0.0
 10
229.7748660186062
 20
-59.35611580324089
 30
0.0
 10
229.778287610679
 20
-59.4574374394428
 30
0.0
 10
229.7803225688813
 20
-59.55879400705992
 30
0.0
 10
229.7808908765955
 20
-59.64482389452171
 30
0.0
 10
229.7806333807784
 20
-59.71550987067543
 30
0.0
 10
229.780028198956
 20
-59.77084988204092
 30
0.0
 10
229.7790164963902
 20
-59.82618355539699
 30
0.0
 10
229.777650374905
 20
-59.87936568297825
 30
0.0
 10
229.7759809264349
 20
-59.93039493903616
 30
0.0
 10
229.7740559137764
 20
-59.97927061560664
 30
0.0
 10
229.7718017829145
 20
-60.02813219841893
 30
0.0
 10
229.76933855901
 20
-60.07464499469843
 30
0.0
 10
229.7667166282299
 20
-60.11880950425745
 30
0.0
 10
229.7639823333586
 20
-60.16062687245072
 30
0.0
 10
229.7609931918558
 20
-60.20242675051075
 30
0.0
 10
229.7579416648028
 20
-60.24167933710321
 30
0.0
 10
229.7548764963383
 20
-60.27838692788105
 30
0.0
 10
229.7518425627554
 20
-60.31255214202798
 30
0.0
 10
229.7486252835069
 20
-60.34670044681834
 30
0.0
 10
229.7454932362041
 20
-60.37810177142708
 30
0.0
 10
229.7424924900824
 20
-60.40675986528146
 30
0.0
 10
229.7396663571277
 20
-60.43267887458789
 30
0.0
 10
229.7367284010708
 20
-60.45858562126261
 30
0.0
 10
229.7322110860042
 20
-60.49692890043416
 30
0.0
 10
229.7258438580793
 20
-60.54767616804311
 30
0.0
 10
229.7172100987911
 20
-60.61076957179522
 30
0.0
 10
229.7078416073463
 20
-60.67375866175637
 30
0.0
 10
229.6981223642163
 20
-60.73406922605006
 30
0.0
 10
229.6881328877539
 20
-60.79170447179717
 30
0.0
 10
229.6779532527807
 20
-60.84667048771341
 30
0.0
 10
229.6671177449967
 20
-60.90151076068064
 30
0.0
 10
229.6561054673209
 20
-60.95382894859528
 30
0.0
 10
229.6449969041757
 20
-61.00363360147828
 30
0.0
 10
229.633870544718
 20
-61.05093514759327
 30
0.0
 10
229.6221778991937
 20
-61.09809960264744
 30
0.0
 10
229.6104805609912
 20
-61.1428949642584
 30
0.0
 10
229.59885609962
 20
-61.18533419054368
 30
0.0
 10
229.5873814695414
 20
-61.22543286451685
 30
0.0
 10
229.5754381718363
 20
-61.26539482082637
 30
0.0
 10
229.5619278078167
 20
-61.30869151914163
 30
0.0
 10
229.5466763125856
 20
-61.355261285507
 30
0.0
 10
229.5294765548342
 20
-61.40502382205703
 30
0.0
 10
229.5114358954542
 20
-61.45448861344582
 30
0.0
 10
229.4921607733989
 20
-61.50458178912733
 30
0.0
 10
229.4715633246853
 20
-61.55525049824217
 30
0.0
 10
229.4495468957746
 20
-61.60643285514485
 30
0.0
 10
229.4264634978697
 20
-61.65714368389817
 30
0.0
 10
229.4019636453127
 20
-61.70800177550624
 30
0.0
 10
229.375964965294
 20
-61.75893635756911
 30
0.0
 10
229.3483783832909
 20
-61.80986611442545
 30
0.0
 10
229.3195039515226
 20
-61.86007854897998
 30
0.0
 10
229.289017878683
 20
-61.90999027608031
 30
0.0
 10
229.2568457724389
 20
-61.95950514237483
 30
0.0
 10
229.2229156881441
 20
-62.00851727493581
 30
0.0
 10
229.1875114940441
 20
-62.05647490552735
 30
0.0
 10
229.1522537378794
 20
-62.10121214896081
 30
0.0
 10
229.11735324882
 20
-62.14282186782134
 30
0.0
 10
229.0830191833516
 20
-62.18141949105367
 30
0.0
 10
229.0475488417416
 20
-62.21897394925585
 30
0.0
 10
229.0124607281998
 20
-62.2539119109733
 30
0.0
 10
228.9779176193459
 20
-62.28633088885094
 30
0.0
 10
228.9440783305726
 20
-62.31634470803581
 30
0.0
 10
228.9093934743724
 20
-62.34537553507727
 30
0.0
 10
228.8754657341543
 20
-62.37212570227059
 30
0.0
 10
228.8424330170817
 20
-62.3967110336613
 30
0.0
 10
228.8104246306127
 20
-62.41925764909492
 30
0.0
 10
228.777830450408
 20
-62.44094807245327
 30
0.0
 10
228.7440948730797
 20
-62.46211321458723
 30
0.0
 10
228.7091996820257
 20
-62.48266981148048
 30
0.0
 10
228.6731321619902
 20
-62.50253363543412
 30
0.0
 10
228.6364965633143
 20
-62.52133407314108
 30
0.0
 10
228.5967322155848
 20
-62.54027381967258
 30
0.0
 10
228.5537326109144
 20
-62.55903408118678
 30
0.0
 10
228.507411853021
 20
-62.57726267057529
 30
0.0
 10
228.4604528477842
 20
-62.59377627539436
 30
0.0
 10
228.4154652800182
 20
-62.6077431730953
 30
0.0
 10
228.3726038820386
 20
-62.61944419727504
 30
0.0
 10
228.3319919152308
 20
-62.62916355287575
 30
0.0
 10
228.2910921473144
 20
-62.63758988343808
 30
0.0
 10
228.2500936001306
 20
-62.64468347600186
 30
0.0
 10
228.2090397683628
 20
-62.65044726417161
 30
0.0
 10
228.1679785838532
 20
-62.65489048366715
 30
0.0
 10
228.1268027643555
 20
-62.65803464804666
 30
0.0
 10
228.0931681537643
 20
-62.65951774959503
 30
0.0
 10
228.0671346636683
 20
-62.6600907586848
 30
0.0
 10
228.0548564943208
 20
-62.66014130253973
 30
0.0
 10
228.048717409647
 20
-62.6601665744672
 30
0.0
 11
228.048717409647
 21
-56.6601665744672
 31
0.0
 11
228.0671340187738
 21
-56.66029730213125
 31
0.0
 11
228.0855469166043
 21
-56.6606894435837
 31
0.0
 11
228.1229117960504
 21
-56.66229047845982
 31
0.0
 11
228.1602173892533
 21
-56.66496659631231
 31
0.0
 11
228.1974431464302
 21
-56.66871498687014
 31
0.0
 11
228.234545798047
 21
-56.67353134199483
 31
0.0
 11
228.279590860289
 21
-56.68084446694851
 31
0.0
 11
228.324355302992
 21
-56.68972234519514
 31
0.0
 11
228.3687847042822
 21
-56.70014603618789
 31
0.0
 11
228.4128272465851
 21
-56.71209703463482
 31
0.0
 11
228.4555389046412
 21
-56.72526270488746
 31
0.0
 11
228.4977870554145
 21
-56.73984759966341
 31
0.0
 11
228.5395282992841
 21
-56.75582354822957
 31
0.0
 11
228.5807217702627
 21
-56.77316330354859
 31
0.0
 11
228.6227229348415
 21
-56.79250833606113
 31
0.0
 11
228.6640556335924
 21
-56.81324370047233
 31
0.0
 11
228.704684853124
 21
-56.83533082442095
 31
0.0
 11
228.7445732197081
 21
-56.85872989118531
 31
0.0
 11
228.7877039624356
 21
-56.8860338582986
 31
0.0
 11
228.8298567932916
 21
-56.91482640185814
 31
0.0
 11
228.8709998972456
 21
-56.94504563313279
 31
0.0
 11
228.9111027614758
 21
-56.97663081482197
 31
0.0
 11
228.9460948976676
 21
-57.006012039652
 31
0.0
 11
228.9802210607673
 21
-57.03639432634442
 31
0.0
 11
229.0134680280489
 21
-57.06772843278428
 31
0.0
 11
229.0458318183658
 21
-57.09997350199616
 31
0.0
 11
229.0729514741518
 21
-57.12839739775109
 31
0.0
 11
229.0994122968605
 21
-57.15743476228007
 31
0.0
 11
229.125215659306
 21
-57.18705961792746
 31
0.0
 11
229.1503622886472
 21
-57.21724514195441
 31
0.0
 11
229.1872582941278
 21
-57.2640449721911
 31
0.0
 11
229.2226635501518
 21
-57.3119856821241
 31
0.0
 11
229.2566009355386
 21
-57.36098792082951
 31
0.0
 11
229.2890862623108
 21
-57.41096361706738
 31
0.0
 11
229.3192852009225
 21
-57.46038525209992
 31
0.0
 11
229.3481657442774
 21
-57.51058878799233
 31
0.0
 11
229.375756772494
 21
-57.56150732331022
 31
0.0
 11
229.4020940670211
 21
-57.61308539550301
 31
0.0
 11
229.426280251559
 21
-57.66327503932912
 31
0.0
 11
229.4493688116369
 21
-57.71397883773648
 31
0.0
 11
229.4713907342405
 21
-57.76515456979655
 31
0.0
 11
229.4923784064338
 21
-57.81676301378111
 31
0.0
 11
229.5112913735211
 21
-57.86589874920462
 31
0.0
 11
229.5293367108127
 21
-57.91535961089346
 31
0.0
 11
229.5465408772127
 21
-57.9651175434682
 31
0.0
 11
229.5629319842018
 21
-58.01514900842128
 31
0.0
 11
229.5753580625137
 21
-58.0549628903017
 31
0.0
 11
229.5873034124107
 21
-58.09492337373024
 31
0.0
 11
229.5987800142723
 21
-58.1350202031204
 31
0.0
 11
229.6098004144221
 21
-58.17524496099332
 31
0.0
 11
229.6220805062346
 21
-58.22225822001023
 31
0.0
 11
229.6337761378128
 21
-58.26942036220326
 31
0.0
 11
229.6449056143159
 21
-58.31672035857404
 31
0.0
 11
229.6554869502707
 21
-58.364146057037
 31
0.0
 11
229.6670045189111
 21
-58.41884573328601
 31
0.0
 11
229.6778436422806
 21
-58.47368399278695
 31
0.0
 11
229.6880270722842
 21
-58.5286478917149
 31
0.0
 11
229.6975777231699
 21
-58.58372535336235
 31
0.0
 11
229.7077149605941
 21
-58.64659268831472
 31
0.0
 11
229.7170888100279
 21
-58.70957840479445
 31
0.0
 11
229.7257274465462
 21
-58.772670554207
 31
0.0
 11
229.7336588645406
 21
-58.83585590677917
 31
0.0
 11
229.7452746808159
 21
-58.94036572983305
 31
0.0
 11
229.7551175388082
 21
-59.04505892054509
 31
0.0
 11
229.7632661722987
 21
-59.14990434749601
 31
0.0
 11
229.7697985500097
 21
-59.25486251747093
 31
0.0
 11
229.774631401495
 21
-59.35612534210794
 31
0.0
 11
229.778056567432
 21
-59.45744559036941
 31
0.0
 11
229.7800950299852
 21
-59.55879733050897
 31
0.0
 11
229.7807682172164
 21
-59.66016657446723
 31
0.0
 11
229.7805661166517
 21
-59.71550949213837
 31
0.0
 11
229.7799604403437
 21
-59.77084918302039
 31
0.0
 11
229.7789482542796
 21
-59.82618204715273
 31
0.0
 11
229.7775266124092
 21
-59.88150594339675
 31
0.0
 11
229.7759266532536
 21
-59.93039299868354
 31
0.0
 11
229.7740010605019
 21
-59.97926827233883
 31
0.0
 11
229.7717463477854
 21
-60.02812946333741
 31
0.0
 11
229.7691590286872
 21
-60.07697414774349
 31
0.0
 11
229.7666748310657
 21
-60.1188069072528
 31
0.0
 11
229.7639398560721
 21
-60.16062399902266
 31
0.0
 11
229.7609500389974
 21
-60.20242354229749
 31
0.0
 11
229.7577013121019
 21
-60.24420373439426
 31
0.0
 11
229.7548465344787
 21
-60.27838435504687
 31
0.0
 11
229.7518119919723
 21
-60.31254946775421
 31
0.0
 11
229.7485941244622
 21
-60.34669743280542
 31
0.0
 11
229.7451893087034
 21
-60.38082725023588
 31
0.0
 11
229.7424739969051
 21
-60.40675790303408
 31
0.0
 11
229.739647739194
 21
-60.43267665788406
 31
0.0
 11
229.7367096307704
 21
-60.45858341412623
 31
0.0
 11
229.7336588645412
 21
-60.48447724215529
 31
0.0
 11
229.7257262367853
 21
-60.54766058454799
 31
0.0
 11
229.7170877067855
 21
-60.61075174083831
 31
0.0
 11
229.7077143650617
 21
-60.67373906135263
 31
0.0
 11
229.6975777231742
 21
-60.73660779555114
 31
0.0
 11
229.6880273607721
 21
-60.791685588821
 31
0.0
 11
229.6778438863885
 21
-60.84664981389241
 31
0.0
 11
229.6670046492544
 21
-60.90148775391214
 31
0.0
 11
229.6554869502779
 21
-60.95618709186778
 31
0.0
 11
229.6449055467595
 21
-61.00361271165445
 31
0.0
 11
229.6337760791793
 21
-61.05091264898124
 31
0.0
 11
229.6220804729313
 21
-61.09807485914408
 31
0.0
 11
229.6098004144285
 21
-61.14508818791773
 31
0.0
 11
229.5987800384507
 21
-61.18531295611795
 31
0.0
 11
229.5873034423874
 21
-61.22540979112325
 31
0.0
 11
229.5753580838726
 21
-61.26537026868166
 31
0.0
 11
229.5629319842013
 21
-61.3051841405133
 31
0.0
 11
229.5465408242972
 21
-61.35521563889656
 31
0.0
 11
229.5293366142401
 21
-61.40497360734328
 31
0.0
 11
229.5112912997905
 21
-61.45443442413166
 31
0.0
 11
229.4923784064327
 21
-61.50357013515512
 31
0.0
 11
229.4713909325211
 21
-61.55517841514483
 31
0.0
 11
229.4493691954884
 21
-61.60635397832111
 31
0.0
 11
229.426280529053
 21
-61.65705798192101
 31
0.0
 11
229.4020940670198
 21
-61.70724775343345
 31
0.0
 11
229.3757559854163
 21
-61.75882649652846
 31
0.0
 11
229.3481642246705
 21
-61.80974569541267
 31
0.0
 11
229.3192842352279
 21
-61.85994838005607
 31
0.0
 11
229.2890862623097
 21
-61.90936953186847
 31
0.0
 11
229.2566038270325
 21
-61.95934278102852
 31
0.0
 11
229.2226694783901
 21
-62.00834225616873
 31
0.0
 11
229.1872622152459
 21
-62.05628546118142
 31
0.0
 11
229.1503622886476
 21
-62.10308800698004
 31
0.0
 11
229.1171636958109
 21
-62.14265838547237
 31
0.0
 11
229.0828288785526
 21
-62.18124663925171
 31
0.0
 11
229.0473593962546
 21
-62.21878994765003
 31
0.0
 11
229.0107554101168
 21
-62.25522697331249
 31
0.0
 11
228.9777745852912
 21
-62.28617434966908
 31
0.0
 11
228.9439365210536
 21
-62.31618163537184
 31
0.0
 11
228.9092543075492
 21
-62.34520465110938
 31
0.0
 11
228.873738807016
 21
-62.37320094120041
 31
0.0
 11
228.8423327722056
 21
-62.39657291543864
 31
0.0
 11
228.8103265556826
 21
-62.41911525414449
 31
0.0
 11
228.7777353814373
 21
-62.44080082201661
 31
0.0
 11
228.7445732197087
 21
-62.46160325774921
 31
0.0
 11
228.7091013243945
 21
-62.48249719919436
 31
0.0
 11
228.6730393840903
 21
-62.50235539355624
 31
0.0
 11
228.6364066454725
 21
-62.52115173471598
 31
0.0
 11
228.5992326080611
 21
-62.53885495204104
 31
0.0
 11
228.5536172231499
 21
-62.55875432292149
 31
0.0
 11
228.5073047762875
 21
-62.57697709766823
 31
0.0
 11
228.4603554319577
 21
-62.59348409436116
 31
0.0
 11
228.412827246585
 21
-62.60823611430025
 31
0.0
 11
228.3725490932304
 21
-62.61923122197926
 31
0.0
 11
228.3319441662852
 21
-62.62894800052506
 31
0.0
 11
228.2910507962143
 21
-62.63737206650264
 31
0.0
 11
228.2499100117378
 21
-62.64448915503012
 31
0.0
 11
228.2090131657494
 21
-62.65023071387883
 31
0.0
 11
228.1679541335268
 21
-62.65467446379434
 31
0.0
 11
228.1267883129904
 21
-62.65781390769123
 31
0.0
 11
228.0855469166043
 21
-62.65964370535082
 31
0.0
 11
228.0671340187738
 21
-62.66003584680445
 31
0.0
 11
228.048717409647
 21
-62.6601665744672
 31
0.0
  0
SPLINE
  5
20E
330
1F
100
AcDbEntity
  8
0
  6
Continuous
 62
     3
100
AcDbSpline
210
0.0
220
0.0
230
1.0
 70
     8
 71
     3
 72
   191
 73
   187
 74
   185
 42
0.0000000001
 43
0.0000000001
 44
0.00000001
 40
0.0
 40
0.0
 40
0.0
 40
0.0
 40
0.0184217108959934
 40
0.0368434217920565
 40
0.0609200786665754
 40
0.0849982651669574
 40
0.1090850171422882
 40
0.1331716657841796
 40
0.1615202838042573
 40
0.1898696813457958
 40
0.2182188003397307
 40
0.2465681643747806
 40
0.2795433804172643
 40
0.3125191631352476
 40
0.3455028437182102
 40
0.3784881334971825
 40
0.4339646159461731
 40
0.4894512795988938
 40
0.5449693543220739
 40
0.6004840646789058
 40
0.6499577987146852
 40
0.6994302273729951
 40
0.7488864078974311
 40
0.7983442634122744
 40
0.8641557457670681
 40
0.9299703846712929
 40
0.9958044338353903
 40
1.06163778444977
 40
1.124794286348791
 40
1.187950314322799
 40
1.251094786241353
 40
1.314239346458511
 40
1.371484472709281
 40
1.428728897043425
 40
1.485974471660063
 40
1.543220956097557
 40
1.633893327193446
 40
1.724568310077826
 40
1.815254640027121
 40
1.905940517907593
 40
1.997867099499697
 40
2.08979366393635
 40
2.181714765464999
 40
2.273635957115498
 40
2.36471172993181
 40
2.455787365396329
 40
2.546863362216189
 40
2.637939386054698
 40
2.725795084957752
 40
2.81365073676794
 40
2.901504710041912
 40
2.989358457069173
 40
3.044617237022189
 40
3.099875844706725
 40
3.155133830701722
 40
3.210391885285672
 40
3.273427730184241
 40
3.336463586861377
 40
3.3994998490612
 40
3.462536132273357
 40
3.533748764082952
 40
3.60496142321378
 40
3.676174096696224
 40
3.747386788025347
 40
3.827186914685715
 40
3.906987071796638
 40
3.986787493758344
 40
4.066587923239538
 40
4.155397920242657
 40
4.244207987664105
 40
4.333017661886904
 40
4.421827199289959
 40
4.458276282168819
 40
4.494725335834597
 40
4.531174261448544
 40
4.567623198869163
 40
4.614106688635919
 40
4.660590181745094
 40
4.707073775088012
 40
4.753557373144996
 40
4.809470761079204
 40
4.865384156022409
 40
4.921297570395764
 40
4.977210989974314
 40
5.041954772074067
 40
5.106698561608929
 40
5.171442392693302
 40
5.236186229804599
 40
5.309166847215652
 40
5.382147472947837
 40
5.455128183748196
 40
5.528108899115558
 40
5.608739567901404
 40
5.68937025548503
 40
5.770000844544185
 40
5.850631399632426
 40
5.905760920543526
 40
5.96089042322314
 40
6.016019874799487
 40
6.071149337836744
 40
6.136009338102362
 40
6.200869342527838
 40
6.265729429543823
 40
6.330589524172233
 40
6.403600090131151
 40
6.476610661628826
 40
6.549621281959327
 40
6.622631911460013
 40
6.702222064663872
 40
6.781812222624925
 40
6.861402440397806
 40
6.94099266942205
 40
7.025603210497219
 40
7.110213754717808
 40
7.194824433552903
 40
7.279435124984325
 40
7.368244969066593
 40
7.457054827907739
 40
7.545864652128219
 40
7.634674440367556
 40
7.714474825967723
 40
7.794275194974418
 40
7.874075394944541
 40
7.953875566349051
 40
8.025088266185106
 40
8.096300948003094
 40
8.167513599697239
 40
8.238726224233034
 40
8.301762508504316
 40
8.36479877166752
 40
8.427834627085478
 40
8.490870470724818
 40
8.546128517278026
 40
8.601386495251832
 40
8.65664511099632
 40
8.711903899022687
 40
8.799757704933326
 40
8.887611737005443
 40
8.975467329834466
 40
9.063322970074417
 40
9.154398750459832
 40
9.24547450230827
 40
9.33655037837938
 40
9.42762639749479
 40
9.519548524253388
 40
9.611470541242962
 40
9.703396150038184
 40
9.795321849551195
 40
9.886004517315483
 40
9.97668735305927
 40
10.06736511074997
 40
10.15804131848908
 40
10.22833438376715
 40
10.29862679470341
 40
10.36891641037679
 40
10.43920562515621
 40
10.50094105352422
 40
10.56267609083374
 40
10.6244110403498
 40
10.68614543341669
 40
10.74034305744359
 40
10.79454017698347
 40
10.84873015140821
 40
10.90291989105506
 40
10.9523764091878
 40
11.00183205711383
 40
11.05130558472446
 40
11.10078020860257
 40
11.15629519322162
 40
11.21181359738983
 40
11.26729994748376
 40
11.32277610180316
 40
11.35576134923216
 40
11.38874498987054
 40
11.4217208151672
 40
11.45469607320734
 40
11.48304544621565
 40
11.51139457421646
 40
11.5397439626668
 40
11.56809257159342
 40
11.59217921857339
 40
11.61626596889839
 40
11.64034415700742
 40
11.66442081548307
 40
11.68284252637921
 40
11.70126423727529
 40
11.70126423727529
 40
11.70126423727529
 40
11.70126423727529
 10
82.5442487970115
 20
42.2096326206536
 30
0.0
 10
82.54420510421852
 20
42.21577335090853
 30
0.0
 10
82.54411771863256
 20
42.2280548114184
 30
0.0
 10
82.54334199475548
 20
42.24834964811257
 30
0.0
 10
82.54190361304627
 20
42.27049853524316
 30
0.0
 10
82.53956496384522
 20
42.29446950188659
 30
0.0
 10
82.53647289785903
 20
42.31835801604875
 30
0.0
 10
82.53240397797273
 20
42.3435428664512
 30
0.0
 10
82.52720679198522
 20
42.36997103166086
 30
0.0
 10
82.52073746334194
 20
42.39757815205531
 30
0.0
 10
82.51329801214831
 20
42.42493993646829
 30
0.0
 10
82.50445983746815
 20
42.45350064605282
 30
0.0
 10
82.49406689605782
 20
42.48317492732058
 30
0.0
 10
82.4819808438099
 20
42.51386688700092
 30
0.0
 10
82.46876541346494
 20
42.54409324024077
 30
0.0
 10
82.4512251676964
 20
42.58058610685907
 30
0.0
 10
82.42843413506426
 20
42.62284226108827
 30
0.0
 10
82.39944947351542
 20
42.67019448542224
 30
0.0
 10
82.3680781090312
 20
42.71601291423931
 30
0.0
 10
82.33576496431115
 20
42.75867908794278
 30
0.0
 10
82.30296996439424
 20
42.79838645448827
 30
0.0
 10
82.27005355637775
 20
42.83532730081367
 30
0.0
 10
82.23585767155328
 20
42.87107795073813
 30
0.0
 10
82.19660558849131
 20
42.90948619272146
 30
0.0
 10
82.1519585982684
 20
42.95013281500223
 30
0.0
 10
82.10161476887022
 20
42.99255587096955
 30
0.0
 10
82.04978915190955
 20
43.03316432267434
 30
0.0
 10
81.99737139901062
 20
43.07151994998866
 30
0.0
 10
81.94457622426397
 20
43.10779623201994
 30
0.0
 10
81.89155983826774
 20
43.14212441845879
 30
0.0
 10
81.83768083715965
 20
43.17507272324195
 30
0.0
 10
81.78472911698219
 20
43.20572485308135
 30
0.0
 10
81.7328572507569
 20
43.23428611331052
 30
0.0
 10
81.68218219006926
 20
43.26092113438972
 30
0.0
 10
81.63102508990558
 20
43.28661851729703
 30
0.0
 10
81.56938491157206
 20
43.31624679068366
 30
0.0
 10
81.4969788725015
 20
43.34917150282524
 30
0.0
 10
81.41353531908582
 20
43.3846840181645
 30
0.0
 10
81.32930248166676
 20
43.41829135964893
 30
0.0
 10
81.243989995068
 20
43.45026072669359
 30
0.0
 10
81.1576785625002
 20
43.48069078234854
 30
0.0
 10
81.07042590195076
 20
43.50963987308126
 30
0.0
 10
80.98268263097329
 20
43.53705802027164
 30
0.0
 10
80.89477477462631
 20
43.56295547898586
 30
0.0
 10
80.806755572917
 20
43.58743851883311
 30
0.0
 10
80.7186666424649
 20
43.61058335209693
 30
0.0
 10
80.63027134491526
 20
43.63252806826169
 30
0.0
 10
80.54264682106249
 20
43.65309080418327
 30
0.0
 10
80.45583276839943
 20
43.67237932815375
 30
0.0
 10
80.36986059392486
 20
43.69047935286387
 30
0.0
 10
80.28370218586431
 20
43.70766670823423
 30
0.0
 10
80.20805172931983
 20
43.72196672124566
 30
0.0
 10
80.1429846784237
 20
43.73374249535249
 30
0.0
 10
80.08855257781124
 20
43.74326502922954
 30
0.0
 10
80.03406743034992
 20
43.75247757865732
 30
0.0
 10
79.97697367903272
 20
43.76180663173034
 30
0.0
 10
79.91726607351612
 20
43.77121056698566
 30
0.0
 10
79.85494011503212
 20
43.78064749874854
 30
0.0
 10
79.79256068854825
 20
43.78972517734034
 30
0.0
 10
79.72743227890696
 20
43.7988321645033
 30
0.0
 10
79.6595511928204
 20
43.80792672783193
 30
0.0
 10
79.58891418963705
 20
43.8169662303964
 30
0.0
 10
79.51822667702962
 20
43.82560187533846
 30
0.0
 10
79.44464931038246
 20
43.83417822371138
 30
0.0
 10
79.36817943088718
 20
43.84265351549124
 30
0.0
 10
79.28881482079392
 20
43.85098446433339
 30
0.0
 10
79.20940465608348
 20
43.8588701719161
 30
0.0
 10
79.12696276764973
 20
43.86660564575016
 30
0.0
 10
79.04148764944472
 20
43.87414875758275
 30
0.0
 10
78.95297852999562
 20
43.88145744654145
 30
0.0
 10
78.86443118791894
 20
43.88828494658461
 30
0.0
 10
78.79325816165371
 20
43.89339790452867
 30
0.0
 10
78.73948073825754
 20
43.89706906442849
 30
0.0
 10
78.7031112957545
 20
43.89947671194209
 30
0.0
 10
78.66673705760988
 20
43.90180999285995
 30
0.0
 10
78.62701977183005
 20
43.90427668171803
 30
0.0
 10
78.58395800839526
 20
43.90685175831941
 30
0.0
 10
78.53755044078125
 20
43.90950887919806
 30
0.0
 10
78.49113635647538
 20
43.91205028175978
 30
0.0
 10
78.44157717202164
 20
43.91464202261008
 30
0.0
 10
78.38887184972509
 20
43.91725798027695
 30
0.0
 10
78.33301943726502
 20
43.91987035160419
 30
0.0
 10
78.27715989807115
 20
43.92232584062722
 30
0.0
 10
78.21835282023358
 20
43.92474811071472
 30
0.0
 10
78.15659755360483
 20
43.92711045106633
 30
0.0
 10
78.09189358798405
 20
43.92938417341703
 30
0.0
 10
78.02718292824534
 20
43.93145920655308
 30
0.0
 10
77.95972182206812
 20
43.93341766776879
 30
0.0
 10
77.88951010335163
 20
43.9352321915369
 30
0.0
 10
77.81654777668277
 20
43.93687350909688
 30
0.0
 10
77.74358037495617
 20
43.93827279789375
 30
0.0
 10
77.66805907566335
 20
43.93947267789068
 30
0.0
 10
77.58998427267677
 20
43.94044530817021
 30
0.0
 10
77.50935662750315
 20
43.94116083127895
 30
0.0
 10
77.42872698550698
 20
43.94158888563515
 30
0.0
 10
77.35659671665003
 20
43.9417159039172
 30
0.0
 10
77.29296684712651
 20
43.94163883216024
 30
0.0
 10
77.23783766397241
 20
43.94143857565879
 30
0.0
 10
77.18270914965137
 20
43.94110443568634
 30
0.0
 10
77.12433822915206
 20
43.94060845072524
 30
0.0
 10
77.0627254863654
 20
43.93992108485403
 30
0.0
 10
76.9978717644038
 20
43.93901004402785
 30
0.0
 10
76.93302093125101
 20
43.93791044873998
 30
0.0
 10
76.86545727175371
 20
43.9365672344821
 30
0.0
 10
76.79518199258212
 20
43.93495038092399
 30
0.0
 10
76.72219662578743
 20
43.93302632483815
 30
0.0
 10
76.64921818634868
 20
43.93085445771282
 30
0.0
 10
76.57405565560394
 20
43.92835890426594
 30
0.0
 10
76.49671096394471
 20
43.92550917565642
 30
0.0
 10
76.41718649599484
 20
43.92227076504662
 30
0.0
 10
76.33767540101962
 20
43.91871834365007
 30
0.0
 10
76.25650776499947
 20
43.9147644132009
 30
0.0
 10
76.17368643887627
 20
43.91037846676094
 30
0.0
 10
76.08921486149984
 20
43.90552528998671
 30
0.0
 10
76.00476645543893
 20
43.90028325566105
 30
0.0
 10
75.91894709241217
 20
43.89454893403718
 30
0.0
 10
75.83176106717114
 20
43.88828820468975
 30
0.0
 10
75.7432136397542
 20
43.88146055986761
 30
0.0
 10
75.65470474131862
 20
43.87415028992801
 30
0.0
 10
75.56922993684967
 20
43.86660550971927
 30
0.0
 10
75.48678820949894
 20
43.85886942943436
 30
0.0
 10
75.40737806038007
 20
43.8509837547249
 30
0.0
 10
75.32801340118183
 20
43.84265316693993
 30
0.0
 10
75.25154344712485
 20
43.83417825434701
 30
0.0
 10
75.177966043458
 20
43.8256020428967
 30
0.0
 10
75.1072785284228
 20
43.81696639042141
 30
0.0
 10
75.03664153771295
 20
43.80792680641436
 30
0.0
 10
74.96876046772506
 20
43.79883215771417
 30
0.0
 10
74.90363206427523
 20
43.78972513954928
 30
0.0
 10
74.84125263736848
 20
43.78064746239151
 30
0.0
 10
74.77892667666171
 20
43.77121054890917
 30
0.0
 10
74.7192190715763
 20
43.7618066334201
 30
0.0
 10
74.66212532475674
 20
43.75247758848585
 30
0.0
 10
74.6076401799248
 20
43.7432650394286
 30
0.0
 10
74.55320807735829
 20
43.73374250099992
 30
0.0
 10
74.48814100287328
 20
43.72196671684102
 30
0.0
 10
74.41249050545105
 20
43.70766669449358
 30
0.0
 10
74.32633207776428
 20
43.69047933753709
 30
0.0
 10
74.24035992162084
 20
43.67237932096116
 30
0.0
 10
74.15354598706165
 20
43.65309082012745
 30
0.0
 10
74.06592164517689
 20
43.63252810683095
 30
0.0
 10
73.97752643279773
 20
43.61058339055086
 30
0.0
 10
73.8894374269709
 20
43.58743852718265
 30
0.0
 10
73.80141775739821
 20
43.56295540224961
 30
0.0
 10
73.71350919145485
 20
43.53705787968127
 30
0.0
 10
73.62576559444375
 20
43.50963977520578
 30
0.0
 10
73.53851320657742
 20
43.48069083472623
 30
0.0
 10
73.45220345133637
 20
43.45026107606304
 30
0.0
 10
73.36689361989842
 20
43.41829180817246
 30
0.0
 10
73.28266230469103
 20
43.38468425119754
 30
0.0
 10
73.19921781714723
 20
43.34917108808751
 30
0.0
 10
73.1228502290173
 20
43.31444648682707
 30
0.0
 10
73.05342871550164
 20
43.2809215499413
 30
0.0
 10
72.99080446914775
 20
43.24898461286511
 30
0.0
 10
72.9289391861867
 20
43.21560248358265
 30
0.0
 10
72.87039393794761
 20
43.18211579613715
 30
0.0
 10
72.81513376490706
 20
43.14867162792196
 30
0.0
 10
72.76312090483296
 20
43.11540405634586
 30
0.0
 10
72.71200754122228
 20
43.08076951407863
 30
0.0
 10
72.6639307325471
 20
43.04617302844135
 30
0.0
 10
72.61884544693692
 20
43.01176250802531
 30
0.0
 10
72.57670212656305
 20
42.97767638929108
 30
0.0
 10
72.53560323292912
 20
42.94234059691419
 30
0.0
 10
72.49681815532335
 20
42.90677708226971
 30
0.0
 10
72.46033471950433
 20
42.87107975644046
 30
0.0
 10
72.42613904687936
 20
42.83532935070812
 30
0.0
 10
72.39322280776759
 20
42.79838766810447
 30
0.0
 10
72.36042800308095
 20
42.75867917355552
 30
0.0
 10
72.32811479787068
 20
42.71601243112538
 30
0.0
 10
72.29674331654769
 20
42.67019396909792
 30
0.0
 10
72.2677585722433
 20
42.62284191814231
 30
0.0
 10
72.24496753723727
 20
42.58058602277497
 30
0.0
 10
72.22742732515138
 20
42.54409329103891
 30
0.0
 10
72.21421190411803
 20
42.51386694801366
 30
0.0
 10
72.20212585683718
 20
42.48317497033031
 30
0.0
 10
72.19173291530863
 20
42.45350065612458
 30
0.0
 10
72.18289473727746
 20
42.42493992672834
 30
0.0
 10
72.1754552844242
 20
42.39757813970579
 30
0.0
 10
72.16898595556395
 20
42.36997102250405
 30
0.0
 10
72.16378877012555
 20
42.34354286392478
 30
0.0
 10
72.15971985085572
 20
42.31835801760589
 30
0.0
 10
72.1566277850895
 20
42.29446950398965
 30
0.0
 10
72.15428913574253
 20
42.27049853683985
 30
0.0
 10
72.15285075386139
 20
42.24834964864679
 30
0.0
 10
72.15207502998
 20
42.22805481141833
 30
0.0
 10
72.15198764439214
 20
42.21577335090852
 30
0.0
 10
72.1519439515982
 20
42.2096326206536
 30
0.0
 11
82.5442487970115
 21
42.2096326206536
 31
0.0
 11
82.54402227889524
 21
42.22805293883431
 31
0.0
 11
82.54334316113608
 21
42.24646212761077
 31
0.0
 11
82.5417740252926
 21
42.27048759782382
 31
0.0
 11
82.53943977747413
 21
42.2944523709767
 31
0.0
 11
82.53634791460367
 21
42.31833985733905
 31
0.0
 11
82.5325071144239
 21
42.34211831180474
 31
0.0
 11
82.52704052664922
 21
42.36993486374329
 31
0.0
 11
82.5205757631322
 21
42.39753731243244
 31
0.0
 11
82.51314090086723
 21
42.4248941282346
 31
0.0
 11
82.50476305635581
 21
42.45197729943987
 31
0.0
 11
82.49386991853099
 21
42.48310131623363
 31
0.0
 11
82.4817938396344
 21
42.51378633805776
 31
0.0
 11
82.46858644441545
 21
42.54401030034481
 31
0.0
 11
82.45430260154149
 21
42.57374245759171
 31
0.0
 11
82.42799824601043
 21
42.6225863004484
 31
0.0
 11
82.39905852151503
 21
42.66992827114503
 31
0.0
 11
82.36771867238633
 21
42.71575479706135
 31
0.0
 11
82.33422591666644
 21
42.76002802125262
 31
0.0
 11
82.30273502933409
 21
42.79818525352206
 31
0.0
 11
82.26983603979053
 21
42.83513356450328
 31
0.0
 11
82.23566428409531
 21
42.87088555612293
 31
0.0
 11
82.20032704393638
 21
42.90548843071562
 31
0.0
 11
82.15168288216842
 21
42.94981558645144
 31
0.0
 11
82.1013737660628
 21
42.99224858694357
 31
0.0
 11
82.04957105975961
 21
43.03287618407909
 31
0.0
 11
81.99645919375129
 21
43.07177553808697
 31
0.0
 11
81.94441607889007
 21
43.10755623019406
 31
0.0
 11
81.89141224761869
 21
43.14189684375889
 31
0.0
 11
81.8375511899424
 21
43.17485455605608
 31
0.0
 11
81.78291102159007
 21
43.20650400293034
 31
0.0
 11
81.73276941376726
 21
43.23412326512922
 31
0.0
 11
81.68210225868032
 21
43.26076465234429
 31
0.0
 11
81.63095204609712
 21
43.28646896260314
 31
0.0
 11
81.57936041431591
 21
43.31127749965401
 31
0.0
 11
81.4968314214226
 21
43.34883338084678
 31
0.0
 11
81.41340796174465
 21
43.38436475988623
 31
0.0
 11
81.32918751105323
 21
43.41799400497153
 31
0.0
 11
81.24427693307959
 21
43.44983929026046
 31
0.0
 11
81.15758640692322
 21
43.48042113255193
 31
0.0
 11
81.07034211524342
 21
43.50938536598589
 31
0.0
 11
80.98260988870405
 21
43.53681792570394
 31
0.0
 11
80.8944401398348
 21
43.56281024877791
 31
0.0
 11
80.80669866786668
 21
43.58722808019179
 31
0.0
 11
80.71861571151314
 21
43.61038329937204
 31
0.0
 11
80.63022565703733
 21
43.63233860548456
 31
0.0
 11
80.54156097476165
 21
43.65315725662209
 31
0.0
 11
80.45579832042296
 21
43.6722200725349
 31
0.0
 11
80.36982890063894
 21
43.69032737539843
 31
0.0
 11
80.28367398135559
 21
43.70752186589115
 31
0.0
 11
80.19735037803987
 21
43.72384719520851
 31
0.0
 11
80.1429751758447
 21
43.73368945857268
 31
0.0
 11
80.08854349273038
 21
43.74321340715382
 31
0.0
 11
80.03405910147258
 21
43.75242731650273
 31
0.0
 11
79.97952450533553
 21
43.76133969107813
 31
0.0
 11
79.91725654859563
 21
43.77114883505271
 31
0.0
 11
79.85493136149461
 21
43.78058759979407
 31
0.0
 11
79.79255242210289
 21
43.78966715223287
 31
0.0
 11
79.73012377994918
 21
43.79839856907368
 31
0.0
 11
79.65954210622289
 21
43.80785722982686
 31
0.0
 11
79.58890577942749
 21
43.81689891978714
 31
0.0
 11
79.51821891605955
 21
43.8255367558425
 31
0.0
 11
79.44748538630718
 21
43.83378388716842
 31
0.0
 11
79.36817118130345
 21
43.84257690142053
 31
0.0
 11
79.28880733292048
 21
43.85091024677358
 31
0.0
 11
79.20939773130526
 21
43.85879837180919
 31
0.0
 11
79.1299465088358
 21
43.8662557033354
 31
0.0
 11
79.04148058465402
 21
43.8740656858167
 31
0.0
 11
78.9529720034522
 21
43.88137726082093
 31
0.0
 11
78.86442538137854
 21
43.8882076308624
 31
0.0
 11
78.77584433196157
 21
43.89457407554782
 31
0.0
 11
78.73947988886592
 21
43.89705659867021
 31
0.0
 11
78.70311044582354
 21
43.89946432081329
 31
0.0
 11
78.6667362839423
 21
43.90179767159023
 31
0.0
 11
78.63035744344756
 21
43.90405709703731
 31
0.0
 11
78.58395686288547
 21
43.90683215458569
 31
0.0
 11
78.53754939403161
 21
43.9094895906073
 31
0.0
 11
78.49113534332099
 21
43.91203131181574
 31
0.0
 11
78.44471519492133
 21
43.91445921438312
 31
0.0
 11
78.38887057236342
 21
43.91723141236404
 31
0.0
 11
78.33301825770234
 21
43.91984420418017
 31
0.0
 11
78.27715880538939
 21
43.92230011423236
 31
0.0
 11
78.22129277506346
 21
43.92460166687987
 31
0.0
 11
78.15659632694515
 21
43.92707692877607
 31
0.0
 11
78.09189248919422
 21
43.92935105798003
 31
0.0
 11
78.02718193202674
 21
43.93142649878989
 31
0.0
 11
77.96246537255449
 21
43.93330569382223
 31
0.0
 11
77.88950912370059
 21
43.93519150157128
 31
0.0
 11
77.81654696463056
 21
43.93683317026529
 31
0.0
 11
77.74357967638828
 21
43.93823281146693
 31
0.0
 11
77.67060817607475
 21
43.93939253450488
 31
0.0
 11
77.58998376618105
 21
43.94039716286659
 31
0.0
 11
77.5093562555423
 21
43.94111292009266
 31
0.0
 11
77.42872680396506
 21
43.94154120782338
 31
0.0
 11
77.34809637430482
 21
43.94168342822251
 31
0.0
 11
77.29296689391623
 21
43.94161658533293
 31
0.0
 11
77.23783775519519
 21
43.94141626165082
 31
0.0
 11
77.18270931664586
 21
43.94108205479669
 31
0.0
 11
77.12758184427868
 21
43.94061356233932
 31
0.0
 11
77.06272588190754
 21
43.93988983630758
 31
0.0
 11
76.99787227864054
 21
43.93897861879248
 31
0.0
 11
76.93302151621205
 21
43.93787884601391
 31
0.0
 11
76.86817423909265
 21
43.93658945646602
 31
0.0
 11
76.79518300119656
 21
43.93490959574621
 31
0.0
 11
76.72219780014666
 21
43.93298502355418
 31
0.0
 11
76.6492195059071
 21
43.93081263985685
 31
0.0
 11
76.57624910315396
 21
43.92838934826676
 31
0.0
 11
76.49671295521215
 21
43.92545785417801
 31
0.0
 11
76.41718874895146
 21
43.92221843094645
 31
0.0
 11
76.33767789518653
 21
43.91866499617054
 31
0.0
 11
76.25818198087002
 21
43.91479147540596
 31
0.0
 11
76.17368992256556
 21
43.91031534487745
 31
0.0
 11
76.08921877651555
 21
43.90546048357122
 31
0.0
 11
76.00477074305925
 21
43.90021676177276
 31
0.0
 11
75.92034841664811
 21
43.89457407554777
 31
0.0
 11
75.83176685876262
 21
43.88821042812697
 31
0.0
 11
75.74322004665555
 21
43.88138012117488
 31
0.0
 11
75.65471182121398
 21
43.87406719376813
 31
0.0
 11
75.56624623974697
 21
43.86625570333284
 31
0.0
 11
75.48679512129391
 21
43.85879773320067
 31
0.0
 11
75.4073855741415
 21
43.85090959560971
 31
0.0
 11
75.32802165027968
 21
43.8425765586767
 31
0.0
 11
75.24870736226137
 21
43.83378388716356
 31
0.0
 11
75.17797380715068
 21
43.82553689987469
 31
0.0
 11
75.10728693502918
 21
43.8168990667327
 31
0.0
 11
75.03665062464403
 21
43.80785730714268
 31
0.0
 11
74.96606896861849
 21
43.79839856906784
 31
0.0
 11
74.90364032994843
 21
43.78966711967306
 31
0.0
 11
74.84126138974578
 21
43.78058756611713
 31
0.0
 11
74.77893620150905
 21
43.77114881728424
 31
0.0
 11
74.71666824324555
 21
43.76133969107352
 31
0.0
 11
74.66213365382706
 21
43.75242732517929
 31
0.0
 11
74.60764927040627
 21
43.7432134175929
 31
0.0
 11
74.55321757996647
 21
43.73368946411428
 31
0.0
 11
74.4988423705698
 21
43.72384719520861
 31
0.0
 11
74.41251870981854
 21
43.70752185271649
 31
0.0
 11
74.32636373251896
 21
43.69032735249588
 31
0.0
 11
74.24039436992079
 21
43.67222006430011
 31
0.0
 11
74.15463177384657
 21
43.65315725662175
 31
0.0
 11
74.06596733252685
 21
43.63233864431752
 31
0.0
 11
73.97757752017641
 21
43.61038337963199
 31
0.0
 11
73.88949433170988
 21
43.58722809704484
 31
0.0
 11
73.80175260877319
 21
43.56281024877744
 31
0.0
 11
73.71358192784542
 21
43.53681778039602
 31
0.0
 11
73.62584879115832
 21
43.50938506389777
 31
0.0
 11
73.5386054027466
 21
43.48042114270582
 31
0.0
 11
73.4519158155291
 21
43.44983929026002
 31
0.0
 11
73.36700850125273
 21
43.41799444428425
 31
0.0
 11
73.2827915462717
 21
43.38436586726621
 31
0.0
 11
73.19936554012719
 21
43.34883338580783
 31
0.0
 11
73.11683233429373
 21
43.31127749965402
 31
0.0
 11
73.05354143816635
 21
43.28069355789401
 31
0.0
 11
72.99092994844602
 21
43.24874321532567
 31
0.0
 11
72.92907970641399
 21
43.21534893988677
 31
0.0
 11
72.86807501800452
 21
43.18043473494993
 31
0.0
 11
72.81526826116773
 21
43.14845490461639
 31
0.0
 11
72.76327074849453
 21
43.11517618007039
 31
0.0
 11
72.71217354306934
 21
43.08053112862742
 31
0.0
 11
72.66207518908716
 21
43.04445772823858
 31
0.0
 11
72.61900242970452
 21
43.01156213811884
 31
0.0
 11
72.5768740319717
 21
42.97746630448941
 31
0.0
 11
72.53579465062658
 21
42.94212457622866
 31
0.0
 11
72.4958657046733
 21
42.90548843071561
 31
0.0
 11
72.46052847823199
 21
42.87088745365932
 31
0.0
 11
72.42635700982457
 21
42.83513592420024
 31
0.0
 11
72.3934577283728
 21
42.79818640168375
 31
0.0
 11
72.3619668328804
 21
42.7600280224078
 31
0.0
 11
72.3284741953138
 21
42.71575436493423
 31
0.0
 11
72.29713413954913
 21
42.66992758121498
 31
0.0
 11
72.26819445785574
 21
42.62258595185739
 31
0.0
 11
72.24189014706857
 21
42.57374245759171
 31
0.0
 11
72.22760629845517
 21
42.54401035008581
 31
0.0
 11
72.21439891992205
 21
42.51378642409919
 31
0.0
 11
72.20232283459482
 21
42.4831013590485
 31
0.0
 11
72.19142969222568
 21
42.45197729934961
 31
0.0
 11
72.18305184805978
 21
42.42489411864469
 31
0.0
 11
72.17561698314833
 21
42.39753729422819
 31
0.0
 11
72.16915222087128
 21
42.36993485458584
 31
0.0
 11
72.16368563416886
 21
42.34211831170397
 31
0.0
 11
72.15984483413435
 21
42.31833985889828
 31
0.0
 11
72.15675297154255
 21
42.29445237416396
 31
0.0
 11
72.15441872350199
 21
42.27048759941645
 31
0.0
 11
72.15284958747364
 21
42.24646212761093
 31
0.0
 11
72.15217046971443
 21
42.2280529388344
 31
0.0
 11
72.1519439515982
 21
42.2096326206536
 31
0.0
  0
SPLINE
  5
20F
330
1F
100
AcDbEntity
  8
0
  6
Continuous
 62
     3
100
AcDbSpline
210
0.0
220
0.0
230
1.0
 70
     8
 71
     3
 72
   171
 73
   167
 74
   165
 42
0.0000000001
 43
0.0000000001
 44
0.00000001
 40
0.0
 40
0.0
 40
0.0
 40
0.0
 40
0.0184244461601447
 40
0.0368488923203962
 40
0.0785066342565084
 40
0.1201755649481964
 40
0.1618863843032599
 40
0.2035938205724565
 40
0.2473145833833635
 40
0.2910376124845185
 40
0.3347531559376225
 40
0.3784688642225374
 40
0.4281348304963676
 40
0.4778031582946118
 40
0.5274829504268672
 40
0.5771629001179536
 40
0.632452603588378
 40
0.6877438418198082
 40
0.7430345080179611
 40
0.7983249856884509
 40
0.8525207470133099
 40
0.9067159550424778
 40
0.9609075887041149
 40
1.015099954119568
 40
1.076832753135236
 40
1.138566033568951
 40
1.200302927553275
 40
1.262040228576576
 40
1.332330180017088
 40
1.402620529343617
 40
1.472912559406323
 40
1.543205246006113
 40
1.633880936625329
 40
1.724558175120498
 40
1.815240896718289
 40
1.905923450269129
 40
1.997848868952071
 40
2.089774197287629
 40
2.181695828223523
 40
2.273617568966399
 40
2.364693241642915
 40
2.455768771182306
 40
2.546844203143926
 40
2.637919663636979
 40
2.725775001077295
 40
2.813630291127531
 40
2.901484014249218
 40
2.989337511214461
 40
3.044596333223737
 40
3.099854982950822
 40
3.155112995763679
 40
3.210371077155645
 40
3.273406958599415
 40
3.336442851822411
 40
3.399479152519869
 40
3.462515474325449
 40
3.533728140814845
 40
3.604940834462495
 40
3.676153558308917
 40
3.747366300173428
 40
3.827166518970202
 40
3.906966766332714
 40
3.986767182756594
 40
4.066567615773967
 40
4.155377458048656
 40
4.244187336304615
 40
4.332997248962219
 40
4.421807146861157
 40
4.506417889430694
 40
4.591028619403466
 40
4.675639215570294
 40
4.760249808592453
 40
4.839840088444093
 40
4.91943035704045
 40
4.99902056302879
 40
5.078610764276513
 40
5.151621434160679
 40
5.224632094823598
 40
5.297642715828371
 40
5.370653331477477
 40
5.435513479107165
 40
5.500373618532072
 40
5.565233645373313
 40
5.630093670247167
 40
5.68522312221561
 40
5.740352556182599
 40
5.795482119102951
 40
5.850611724150355
 40
5.9665666855713
 40
6.08252180097072
 40
6.198477563085107
 40
6.314433307714213
 40
6.434270703343396
 40
6.554108105891453
 40
6.673945661781515
 40
6.79378322701501
 40
6.915191517170353
 40
7.036599843633415
 40
7.158007576583005
 40
7.279415133148729
 40
7.368225219401309
 40
7.457035232610298
 40
7.545844951953598
 40
7.634654658194211
 40
7.714455059533851
 40
7.794255439173431
 40
7.87405572074667
 40
7.953855975177222
 40
8.025068725955528
 40
8.096281458350655
 40
8.167494143069776
 40
8.238706800709792
 40
8.301743118117669
 40
8.364779414408465
 40
8.427815312068587
 40
8.490851197955118
 40
8.546109287724393
 40
8.601367308914844
 40
8.656625950277332
 40
8.711884763908749
 40
8.799738204540645
 40
8.887591871405455
 40
8.975447217786376
 40
9.063302611254633
 40
9.15437830296077
 40
9.245453967653313
 40
9.336529269153534
 40
9.42760470801613
 40
9.51952556224527
 40
9.611446326351375
 40
9.703372560365041
 40
9.795298811477133
 40
9.885984389625168
 40
9.976670419843023
 40
10.06734507477564
 40
10.15801711822398
 40
10.21526369636457
 40
10.272509364655
 40
10.32975394522002
 40
10.38699922744931
 40
10.45014405744565
 40
10.5132887988699
 40
10.57644482422432
 40
10.63960132711578
 40
10.70543425405973
 40
10.77126787105106
 40
10.83708323498976
 40
10.90289546189674
 40
10.952354619472
 40
11.00181203800737
 40
11.05128242723244
 40
11.10075438349018
 40
11.15626235094851
 40
11.21177254241888
 40
11.26726386472682
 40
11.32274918478811
 40
11.36646687973321
 40
11.41018362239171
 40
11.453904988654
 40
11.49762430096322
 40
11.53933145553159
 40
11.58104194366327
 40
11.62271116257778
 40
11.66436919810339
 40
11.68279364426316
 40
11.7012180904228
 40
11.7012180904228
 40
11.7012180904228
 40
11.7012180904228
 10
100.044248797012
 20
42.2096326206536
 30
0.0
 10
100.0442049040077
 20
42.21577427890013
 30
0.0
 10
100.044117117999
 20
42.22805759539321
 30
0.0
 10
100.0431212988657
 20
42.25421084568686
 30
0.0
 10
100.0405139809376
 20
42.28804555746573
 30
0.0
 10
100.0350112420515
 20
42.32938052352301
 30
0.0
 10
100.0273062856419
 20
42.37037805634784
 30
0.0
 10
100.0172846719209
 20
42.41157578360765
 30
0.0
 10
100.0048872279606
 20
42.45282418684373
 30
0.0
 10
99.9901256939566
 20
42.49399670920869
 30
0.0
 10
99.97332135494273
 20
42.53437526568877
 30
0.0
 10
99.95375087531023
 20
42.57569002677771
 30
0.0
 10
99.93123600055438
 20
42.61774698336924
 30
0.0
 10
99.90565423976778
 20
42.6603460650439
 30
0.0
 10
99.87812081558518
 20
42.70171391857271
 30
0.0
 10
99.8477016876191
 20
42.7433506767026
 30
0.0
 10
99.8143368283706
 20
42.7850929100947
 30
0.0
 10
99.7779882387387
 20
42.82677694458005
 30
0.0
 10
99.74000168419536
 20
42.86697170026628
 30
0.0
 10
99.70080525718153
 20
42.90546534128501
 30
0.0
 10
99.66058482104796
 20
42.94234662336797
 30
0.0
 10
99.61948460386657
 20
42.97768394682063
 30
0.0
 10
99.57734202616787
 20
43.01176804921029
 30
0.0
 10
99.53225914336026
 20
43.04617494035622
 30
0.0
 10
99.4841841802534
 20
43.08076911195634
 30
0.0
 10
99.43307112266365
 20
43.11540325935524
 30
0.0
 10
99.38105794224762
 20
43.14867159805177
 30
0.0
 10
99.32579681766086
 20
43.18211707235333
 30
0.0
 10
99.26725073420167
 20
43.21560455121687
 30
0.0
 10
99.20538510545141
 20
43.24898680941638
 30
0.0
 10
99.14276072810432
 20
43.28092347332058
 30
0.0
 10
99.0733394296164
 20
43.31444787559537
 30
0.0
 10
98.99697217576443
 20
43.34917206787965
 30
0.0
 10
98.91352801354253
 20
43.38468501303934
 30
0.0
 10
98.82929695008042
 20
43.41829252685179
 30
0.0
 10
98.74398730593252
 20
43.4502618114655
 30
0.0
 10
98.65767776796332
 20
43.48069151043981
 30
0.0
 10
98.57042567009987
 20
43.50964032280773
 30
0.0
 10
98.48268239085542
 20
43.53705826811043
 30
0.0
 10
98.39477416707493
 20
43.56295563235565
 30
0.0
 10
98.30675483719087
 20
43.58743863582144
 30
0.0
 10
98.21866615687027
 20
43.61058340911713
 30
0.0
 10
98.1302712660304
 20
43.6325280558403
 30
0.0
 10
98.04264723350367
 20
43.65309071213135
 30
0.0
 10
97.95583360262353
 20
43.67237915748355
 30
0.0
 10
97.8698617468583
 20
43.69047912108738
 30
0.0
 10
97.78370362215138
 20
43.70766642807821
 30
0.0
 10
97.70805331804462
 20
43.72196642511562
 30
0.0
 10
97.64298632462399
 20
43.73374220613614
 30
0.0
 10
97.58855418995738
 20
43.74326475993357
 30
0.0
 10
97.53406901263666
 20
43.7524773241067
 30
0.0
 10
97.47697523199393
 20
43.76180638422198
 30
0.0
 10
97.41726759196985
 20
43.77121031452452
 30
0.0
 10
97.35494159530003
 20
43.7806472424237
 30
0.0
 10
97.29256213234996
 20
43.78972493317893
 30
0.0
 10
97.22743369139206
 20
43.79883196478715
 30
0.0
 10
97.15955258234885
 20
43.8079266268325
 30
0.0
 10
97.08891555100257
 20
43.81696622401046
 30
0.0
 10
97.01822799517659
 20
43.82560188897769
 30
0.0
 10
96.94465054882997
 20
43.83417811273318
 30
0.0
 10
96.86818055022039
 20
43.84265303734822
 30
0.0
 10
96.7888158445852
 20
43.85098363680628
 30
0.0
 10
96.70940564890586
 20
43.85886932242011
 30
0.0
 10
96.62696387270731
 20
43.86660541330283
 30
0.0
 10
96.541489017109
 20
43.87415020374012
 30
0.0
 10
96.45298006533787
 20
43.88146048350728
 30
0.0
 10
96.36443258457348
 20
43.88828813744617
 30
0.0
 10
96.27724650687097
 20
43.89454887513982
 30
0.0
 10
96.19142709221046
 20
43.90028320445163
 30
0.0
 10
96.1069786350745
 20
43.90552524573864
 30
0.0
 10
96.02250700629352
 20
43.91037842875645
 30
0.0
 10
95.93968562880664
 20
43.91476438054626
 30
0.0
 10
95.85851794173983
 20
43.91871831539137
 30
0.0
 10
95.77900679699766
 20
43.92227074071572
 30
0.0
 10
95.6994822802059
 20
43.92550915533053
 30
0.0
 10
95.62213754319254
 20
43.92835888828994
 30
0.0
 10
95.54697496967339
 20
43.93085444681802
 30
0.0
 10
95.4739964869371
 20
43.93302631833984
 30
0.0
 10
95.40101107367764
 20
43.93495037685972
 30
0.0
 10
95.33073574373726
 20
43.93656722964425
 30
0.0
 10
95.26317203243109
 20
43.93791043909194
 30
0.0
 10
95.19832115659982
 20
43.93901003026486
 30
0.0
 10
95.13346740149683
 20
43.9399210718808
 30
0.0
 10
95.07185464687781
 20
43.94060844683651
 30
0.0
 10
95.01348372777558
 20
43.94110445116856
 30
0.0
 10
94.95835520348403
 20
43.94143860692691
 30
0.0
 10
94.90322597633251
 20
43.94163886438681
 30
0.0
 10
94.82782126347065
 20
43.94173016296955
 30
0.0
 10
94.73214122373867
 20
43.94148753243221
 30
0.0
 10
94.616188842366
 20
43.94060023835402
 30
0.0
 10
94.5002422877252
 20
43.93911533613858
 30
0.0
 10
94.38301111910458
 20
43.93700517377773
 30
0.0
 10
94.2644992321211
 20
43.93424148897273
 30
0.0
 10
94.14471102299714
 20
43.93078467649075
 30
0.0
 10
94.02494422317348
 20
43.92664954892626
 30
0.0
 10
93.90468015220961
 20
43.92179968513473
 30
0.0
 10
93.78392402577123
 20
43.91620889136814
 30
0.0
 10
93.6626823678043
 20
43.90983783909878
 30
0.0
 10
93.54148467418683
 20
43.90268238746546
 30
0.0
 10
93.43118031499638
 20
43.8954273356037
 30
0.0
 10
93.33176004727083
 20
43.88828762353734
 30
0.0
 10
93.24321251500805
 20
43.8814599868654
 30
0.0
 10
93.1547036100324
 20
43.87414995436588
 30
0.0
 10
93.0692288395249
 20
43.86660543021332
 30
0.0
 10
92.98678712232712
 20
43.85886943873417
 30
0.0
 10
92.9073769383951
 20
43.85098374881014
 30
0.0
 10
92.8280122274458
 20
43.84265309394283
 30
0.0
 10
92.75154220910991
 20
43.83417810937409
 30
0.0
 10
92.67796474764556
 20
43.82560186295509
 30
0.0
 10
92.60727718888255
 20
43.81696619879723
 30
0.0
 10
92.53664015906433
 20
43.80792661401834
 30
0.0
 10
92.46875905565113
 20
43.79883196553894
 30
0.0
 10
92.40363061988234
 20
43.78972493922021
 30
0.0
 10
92.3412511584105
 20
43.78064724837392
 30
0.0
 10
92.27892516066521
 20
43.77121031759853
 30
0.0
 10
92.21921751537559
 20
43.76180638377238
 30
0.0
 10
92.16212372786693
 20
43.75247732187813
 30
0.0
 10
92.10763854772865
 20
43.7432647575999
 30
0.0
 10
92.05320641568731
 20
43.73374220497611
 30
0.0
 10
91.9881394462397
 20
43.72196642825245
 30
0.0
 10
91.91248918234524
 20
43.70766643553138
 30
0.0
 10
91.8263310769221
 20
43.69047912774634
 30
0.0
 10
91.7403592034051
 20
43.67237915776521
 30
0.0
 10
91.6535454588798
 20
43.65309069623117
 30
0.0
 10
91.56592125078325
 20
43.63252802965605
 30
0.0
 10
91.47752627650328
 20
43.61058339245227
 30
0.0
 10
91.3894376674404
 20
43.58743864792302
 30
0.0
 10
91.30141878556825
 20
43.56295570893787
 30
0.0
 10
91.21351124597547
 20
43.5370583651617
 30
0.0
 10
91.12576828678253
 20
43.50964034382518
 30
0.0
 10
91.03851593252998
 20
43.48069138676748
 30
0.0
 10
90.95220479160383
 20
43.45026146696269
 30
0.0
 10
90.8668925850414
 20
43.41829223612082
 30
0.0
 10
90.78266001946814
 20
43.38468504798142
 30
0.0
 10
90.69921673227998
 20
43.34917272097641
 30
0.0
 10
90.62681082483348
 20
43.31624817284934
 30
0.0
 10
90.56517064115504
 20
43.28662001861803
 30
0.0
 10
90.5140134000253
 20
43.26092266092252
 30
0.0
 10
90.46333819240866
 20
43.2342876281087
 30
0.0
 10
90.41146614915023
 20
43.20572628628968
 30
0.0
 10
90.35851425562275
 20
43.17507399260296
 30
0.0
 10
90.30463512369532
 20
43.14212555993335
 30
0.0
 10
90.25161862560185
 20
43.1077973845031
 30
0.0
 10
90.19882343294225
 20
43.07152138273214
 30
0.0
 10
90.14640562535502
 20
43.03316631542708
 30
0.0
 10
90.09457976977443
 20
42.99255823460577
 30
0.0
 10
90.04423563303811
 20
42.95013499800822
 30
0.0
 10
89.9995882406698
 20
42.90948743229394
 30
0.0
 10
89.96033598520101
 20
42.87107779764298
 30
0.0
 10
89.92614040837425
 20
42.83532663181573
 30
0.0
 10
89.89322438214964
 20
42.79838660980408
 30
0.0
 10
89.86043079038961
 20
42.75868266769558
 30
0.0
 10
89.82811924717014
 20
42.71602213080189
 30
0.0
 10
89.79674809155844
 20
42.67020766265328
 30
0.0
 10
89.76776255110335
 20
42.62285336097491
 30
0.0
 10
89.7432721388671
 20
42.57744289467495
 30
0.0
 10
89.72287017410406
 20
42.5343740073902
 30
0.0
 10
89.70606563233346
 20
42.49399488582772
 30
0.0
 10
89.69130473124974
 20
42.45282283506644
 30
0.0
 10
89.6789080081413
 20
42.41157539447282
 30
0.0
 10
89.66888676363402
 20
42.37037829023127
 30
0.0
 10
89.66118185245733
 20
42.32938086285734
 30
0.0
 10
89.65567891158025
 20
42.28804584193747
 30
0.0
 10
89.65307144064832
 20
42.2542109441916
 30
0.0
 10
89.65207563276317
 20
42.22805759527724
 30
0.0
 10
89.65198784531985
 20
42.21577427886146
 30
0.0
 10
89.6519439515982
 20
42.2096326206536
 30
0.0
 11
100.044248797012
 21
42.2096326206536
 31
0.0
 11
100.0440222118544
 21
42.22805567348082
 31
0.0
 11
100.0433428923366
 21
42.24646759193884
 31
0.0
 11
100.0401313959557
 21
42.28800135837304
 31
0.0
 11
100.0346468335146
 21
42.32930776659039
 31
0.0
 11
100.0269467787699
 21
42.37030168819102
 31
0.0
 11
100.0170937990688
 21
42.41082858088168
 31
0.0
 11
100.0045255586616
 21
42.45270392486634
 31
0.0
 11
99.98978422155308
 21
42.4938669696278
 31
0.0
 11
99.97300176318218
 21
42.53423276988531
 31
0.0
 11
99.95430060374711
 21
42.57374643570659
 31
0.0
 11
99.93088172102073
 21
42.61754442810077
 31
0.0
 11
99.9053314185646
 21
42.6601369724093
 31
0.0
 11
99.87782415692712
 21
42.70150643341028
 31
0.0
 11
99.84853486786822
 21
42.74163416631077
 31
0.0
 11
99.81403455160613
 21
42.7848392526741
 31
0.0
 11
99.77771514390416
 21
42.82652883949555
 31
0.0
 11
99.73975656452897
 21
42.86673087949918
 31
0.0
 11
99.70032571816752
 21
42.90548968851404
 31
0.0
 11
99.66039304638885
 21
42.94213068017908
 31
0.0
 11
99.61930981785282
 21
42.97747596142541
 31
0.0
 11
99.57718509474947
 21
43.01156761527767
 31
0.0
 11
99.53411577896482
 21
43.04445905044192
 31
0.0
 11
99.4840182285975
 21
43.08053083888529
 31
0.0
 11
99.43292231711467
 21
43.11517482455159
 31
0.0
 11
99.38092345472202
 21
43.14845488447794
 31
0.0
 11
99.3281153653263
 21
43.18043612948208
 31
0.0
 11
99.26711018430733
 21
43.2153509567386
 31
0.0
 11
99.20525927810276
 21
43.24874554627222
 31
0.0
 11
99.14264800425572
 21
43.28069547393391
 31
0.0
 11
99.0793573088559
 21
43.3112789607401
 31
0.0
 11
98.99682446554304
 21
43.34883439502019
 31
0.0
 11
98.91339890522352
 21
43.38436659825167
 31
0.0
 11
98.82918207017137
 21
43.41799516780468
 31
0.0
 11
98.74427488576993
 21
43.44984003482466
 31
0.0
 11
98.65758556975004
 21
43.48042181188288
 31
0.0
 11
98.5703424389467
 21
43.50938561890528
 31
0.0
 11
98.48260965504662
 21
43.53681817006365
 31
0.0
 11
98.39443933004111
 21
43.56281048065012
 31
0.0
 11
98.30669793359989
 21
43.58722820994719
 31
0.0
 11
98.21861507886464
 21
43.61038339905395
 31
0.0
 11
98.13022557901623
 21
43.63233859487504
 31
0.0
 11
98.04156145229534
 21
43.65315714758276
 31
0.0
 11
97.95579915437793
 21
43.6722199011267
 31
0.0
 11
97.86983009018743
 21
43.69032713702901
 31
0.0
 11
97.78367541794104
 21
43.70752158719348
 31
0.0
 11
97.6973520631585
 21
43.72384688498894
 31
0.0
 11
97.6429768220043
 21
43.73368916923981
 31
0.0
 11
97.58854509973935
 21
43.74321313799931
 31
0.0
 11
97.53406068354191
 21
43.75242706070628
 31
0.0
 11
97.47952606120151
 21
43.76133944115772
 31
0.0
 11
97.41725806708968
 21
43.77114858274511
 31
0.0
 11
97.35493284280523
 21
43.78058734602819
 31
0.0
 11
97.29255386665315
 21
43.78966691318963
 31
0.0
 11
97.23012519189149
 21
43.79839837551157
 31
0.0
 11
97.15954349539462
 21
43.80785712744579
 31
0.0
 11
97.08890714439936
 21
43.81689890020498
 31
0.0
 11
97.01822023146379
 21
43.82553674584297
 31
0.0
 11
96.94748663541803
 21
43.83378374495157
 31
0.0
 11
96.86817230110128
 21
43.84257642895044
 31
0.0
 11
96.78880833081277
 21
43.85090947756199
 31
0.0
 11
96.70939873709374
 21
43.85879762606481
 31
0.0
 11
96.6299475719708
 21
43.86625560637912
 31
0.0
 11
96.54148193719723
 21
43.87406710744899
 31
0.0
 11
96.45297365834966
 21
43.88138004470285
 31
0.0
 11
96.36442679297005
 21
43.88821036077871
 31
0.0
 11
96.27584518173953
 21
43.89457401669527
 31
0.0
 11
96.19142280458017
 21
43.90021671046083
 31
0.0
 11
96.10697472031774
 21
43.90546043918477
 31
0.0
 11
96.02250352259455
 21
43.91031530673352
 31
0.0
 11
95.93801141255665
 21
43.9147914426681
 31
0.0
 11
95.8585154475677
 21
43.91866496785039
 31
0.0
 11
95.7790045431095
 21
43.92221840667479
 31
0.0
 11
95.69948028894616
 21
43.92545783394397
 31
0.0
 11
95.61994409309708
 21
43.92838933262359
 31
0.0
 11
95.54697365009267
 21
43.9308126288653
 31
0.0
 11
95.47399531562385
 21
43.93298501662854
 31
0.0
 11
95.40101006511016
 21
43.9349095911154
 31
0.0
 11
95.32801877748564
 21
43.9365894507454
 31
0.0
 11
95.2631714472785
 21
43.93787883647146
 31
0.0
 11
95.19832063237888
 21
43.93897860602659
 31
0.0
 11
95.13346700671201
 21
43.93988982483009
 31
0.0
 11
95.06861101984666
 21
43.94061356121718
 31
0.0
 11
95.01348355868633
 21
43.94108206987004
 31
0.0
 11
94.95835513782897
 21
43.94141629029833
 31
0.0
 11
94.90322593886343
 21
43.94161661305381
 31
0.0
 11
94.84809637430487
 21
43.94168342822254
 31
0.0
 11
94.73214178755308
 21
43.94138865822264
 31
0.0
 11
94.61619007255817
 21
43.9405006396234
 31
0.0
 11
94.50024382783779
 21
43.93901500751184
 31
0.0
 11
94.38430687674595
 21
43.93692740505477
 31
0.0
 11
94.26450211271293
 21
43.93413099553941
 31
0.0
 11
94.14471465172002
 21
43.93067162589493
 31
0.0
 11
94.02494854891728
 21
43.92653394282991
 31
0.0
 11
93.90520841196549
 21
43.92170262376999
 31
0.0
 11
93.78393025468769
 21
43.91608288305132
 31
0.0
 11
93.66268945697527
 21
43.90970709254204
 31
0.0
 11
93.5414930477591
 21
43.90254692403383
 31
0.0
 11
93.42034756687009
 21
43.89457401669526
 31
0.0
 11
93.3317657988823
 21
43.88820991421745
 31
0.0
 11
93.24321883419913
 21
43.88137957809269
 31
0.0
 11
93.15471069646473
 21
43.87406686282232
 31
0.0
 11
93.06624517665422
 21
43.86625560638051
 31
0.0
 11
92.9867940339305
 21
43.85879772639612
 31
0.0
 11
92.9073844765866
 21
43.85090958383478
 31
0.0
 11
92.8280204771998
 21
43.84257648474139
 31
0.0
 11
92.74870611321559
 21
43.83378374495443
 31
0.0
 11
92.67797251082511
 21
43.82553672329331
 31
0.0
 11
92.60728558947
 21
43.81689887607799
 31
0.0
 11
92.5366492460035
 21
43.80785711482317
 31
0.0
 11
92.46606755674308
 21
43.79839837551503
 31
0.0
 11
92.40363888568395
 21
43.78966691846958
 31
0.0
 11
92.34125991388146
 21
43.78058735201927
 31
0.0
 11
92.2789346855539
 21
43.77114858580033
 31
0.0
 11
92.21666668742537
 21
43.76133944116051
 31
0.0
 11
92.16213205693596
 21
43.75242705863212
 31
0.0
 11
92.1076476324365
 21
43.7432131347749
 31
0.0
 11
92.05321591832195
 21
43.7336891679658
 31
0.0
 11
91.99884068545114
 21
43.72384688498893
 31
0.0
 11
91.91251738659903
 21
43.70752159460402
 31
0.0
 11
91.82636277030029
 21
43.69032715154792
 31
0.0
 11
91.74039365117895
 21
43.67221990313156
 31
0.0
 11
91.65463129631198
 21
43.65315714758222
 31
0.0
 11
91.56596693837018
 21
43.6323385681273
 31
0.0
 11
91.4775772064503
 21
43.61038334117969
 31
0.0
 11
91.38949457195325
 21
43.58722821122078
 31
0.0
 11
91.30175341856585
 21
43.56281048064925
 31
0.0
 11
91.21358398760539
 21
43.53681827246443
 31
0.0
 11
91.12585207516338
 21
43.50938583886627
 31
0.0
 11
91.03860808761588
 21
43.48042173803873
 31
0.0
 11
90.95191786283816
 21
43.44984003482405
 31
0.0
 11
90.86700755442575
 21
43.41799488433997
 31
0.0
 11
90.78278736574094
 21
43.38436579136129
 31
0.0
 11
90.69936417999304
 21
43.34883460608949
 31
0.0
 11
90.61683543975373
 21
43.31127896074008
 31
0.0
 11
90.56524368526439
 21
43.28647046264933
 31
0.0
 11
90.51409335204428
 21
43.26076618383257
 31
0.0
 11
90.4634260329489
 21
43.23412477283856
 31
0.0
 11
90.41328428331724
 21
43.20650544479846
 31
0.0
 11
90.35864390226409
 21
43.17485582689186
 31
0.0
 11
90.30478262805374
 21
43.14189795211249
 31
0.0
 11
90.2517787560164
 21
43.10755740628664
 31
0.0
 11
90.19973550048309
 21
43.07177691703659
 31
0.0
 11
90.14662371643442
 21
43.03287816814699
 31
0.0
 11
90.09482111082565
 21
42.99225114292605
 31
0.0
 11
90.04451141536339
 21
42.94981770478019
 31
0.0
 11
89.9958670304422
 21
42.90548968851401
 31
0.0
 11
89.96052934157035
 21
42.87088541113027
 31
0.0
 11
89.92635707981682
 21
42.83513219064832
 31
0.0
 11
89.89345926311543
 21
42.79818556608854
 31
0.0
 11
89.86196869761363
 21
42.76003037325263
 31
0.0
 11
89.82847843033517
 21
42.71576372159507
 31
0.0
 11
89.79714159966085
 21
42.6699446818805
 31
0.0
 11
89.768199529407
 21
42.62259868499687
 31
0.0
 11
89.7418921448622
 21
42.57374643570662
 31
0.0
 11
89.72318971912625
 21
42.53423117127749
 31
0.0
 11
89.70640682936502
 21
42.49386425165348
 31
0.0
 11
89.69166640707849
 21
42.4527026455301
 31
0.0
 11
89.67909894957054
 21
42.41082858099634
 31
0.0
 11
89.66924623470972
 21
42.37030191382445
 31
0.0
 11
89.66154625744342
 21
42.32930831468651
 31
0.0
 11
89.65606150294961
 21
42.28800164121735
 31
0.0
 11
89.65284985627247
 21
42.2464675919388
 31
0.0
 11
89.65217053679223
 21
42.22805567347987
 31
0.0
 11
89.6519439515982
 21
42.2096326206536
 31
0.0
  0
SPLINE
  5
210
330
1F
100
AcDbEntity
  8
0
  6
Continuous
 62
     3
100
AcDbSpline
210
0.0
220
0.0
230
1.0
 70
     8
 71
     3
 72
    83
 73
    79
 74
    77
 42
0.0000000001
 43
0.0000000001
 44
0.00000001
 40
0.0
 40
0.0
 40
0.0
 40
0.0
 40
0.1439558372644804
 40
0.2879116350812537
 40
0.3625363802635569
 40
0.4371650698865507
 40
0.5118546509428217
 40
0.5865399660329411
 40
0.6499194646567241
 40
0.7132960798433834
 40
0.7766472513744435
 40
0.8400014686618675
 40
0.923624373332732
 40
1.007252169436026
 40
1.090916986805474
 40
1.174583770920525
 40
1.287849936120116
 40
1.401124290370538
 40
1.514431906735041
 40
1.627744818864163
 40
1.828412480487341
 40
2.029124829176631
 40
2.229993363394136
 40
2.430852514039028
 40
2.610207860462163
 40
2.789556329927004
 40
2.968807050920299
 40
3.148062717261086
 40
3.374575988092324
 40
3.601092864199744
 40
3.827661190634026
 40
4.054229025106928
 40
4.26548591593211
 40
4.476741152315409
 40
4.687970827427507
 40
4.899200550045329
 40
5.077442806927534
 40
5.255683983119941
 40
5.433920743265778
 40
5.612157316169367
 40
5.738496158093989
 40
5.864833795779459
 40
5.991170884536897
 40
6.117510511278025
 40
6.484793779998795
 40
6.852088954153863
 40
7.219594218856517
 40
7.587103280611294
 40
7.96224039800121
 40
8.337385495825657
 40
8.712172227000524
 40
9.086901664283104
 40
9.266158091967437
 40
9.445404461600184
 40
9.624752252278505
 40
9.804108084957862
 40
10.00496504787474
 40
10.20583118966637
 40
10.40654690031547
 40
10.60721808851062
 40
10.72053546310619
 40
10.8338474499711
 40
10.94711688671764
 40
11.0603784203064
 40
11.14403462902023
 40
11.22768824965112
 40
11.31132636530203
 40
11.39496161809363
 40
11.46658030694439
 40
11.5381977146276
 40
11.60981828050491
 40
11.68143697001215
 40
11.7478637484419
 40
11.8142898598742
 40
11.88067278081664
 40
11.94705686083657
 40
12.09101262301076
 40
12.23496838122546
 40
12.23496838122546
 40
12.23496838122546
 40
12.23496838122546
 10
72.1519439515982
 20
33.9096326206548
 30
0.0
 10
72.1537234053813
 20
33.86161722557439
 30
0.0
 10
72.15728231245987
 20
33.76558644857109
 30
0.0
 10
72.18119801807619
 20
33.64660141314516
 30
0.0
 10
72.20834924416054
 20
33.55269765597465
 30
0.0
 10
72.23348400909997
 20
33.48235133497677
 30
0.0
 10
72.26257733013855
 20
33.41354601643526
 30
0.0
 10
72.29377125698124
 20
33.34981631657457
 30
0.0
 10
72.32621364771823
 20
33.29100310951968
 30
0.0
 10
72.35918010664182
 20
33.23686233241082
 30
0.0
 10
72.39432382714477
 20
33.18412116408517
 30
0.0
 10
72.43544384039674
 20
33.12731706693473
 30
0.0
 10
72.483154019202
 20
33.06700894709856
 30
0.0
 10
72.53800048412468
 20
33.00382885216465
 30
0.0
 10
72.59550552661763
 20
32.94304169487967
 30
0.0
 10
72.66246713937588
 20
32.87770707426496
 30
0.0
 10
72.73961121585951
 20
32.80878860016234
 30
0.0
 10
72.82754854589771
 20
32.73731579704196
 30
0.0
 10
72.91847988799915
 20
32.66967397136436
 30
0.0
 10
73.03602912669042
 20
32.58919588091242
 30
0.0
 10
73.18229366981026
 20
32.49931074612559
 30
0.0
 10
73.35907233478132
 20
32.4039871315949
 30
0.0
 10
73.54046227981675
 20
32.31765071718588
 30
0.0
 10
73.71891717703545
 20
32.2422022439066
 30
0.0
 10
73.89325823040076
 20
32.1758153704498
 30
0.0
 10
74.06280191220515
 20
32.11733436690536
 30
0.0
 10
74.23394783795209
 20
32.06384976040875
 30
0.0
 10
74.42158523795878
 20
32.01067437388986
 30
0.0
 10
74.62589272198194
 20
31.95878581503734
 30
0.0
 10
74.84697464537818
 20
31.90926401212437
 30
0.0
 10
75.0692876744952
 20
31.86552629385189
 30
0.0
 10
75.28756420436858
 20
31.82797259754174
 30
0.0
 10
75.50152604922465
 20
31.7957568375983
 30
0.0
 10
75.71099608085018
 20
31.76831682666273
 30
0.0
 10
75.92091989264105
 20
31.74469086437
 30
0.0
 10
76.12026201487507
 20
31.72571439051929
 30
0.0
 10
76.30889967251068
 20
31.71058776823389
 30
0.0
 10
76.48674894559109
 20
31.69871208723021
 30
0.0
 10
76.66473582629877
 20
31.6891594649183
 30
0.0
 10
76.82554346581554
 20
31.68258731609609
 30
0.0
 10
76.96911747703518
 20
31.67825371429687
 30
0.0
 10
77.09542789832432
 20
31.67554611000749
 30
0.0
 10
77.22175735874562
 20
31.67392870690638
 30
0.0
 10
77.42841030157253
 20
31.67304361561276
 30
0.0
 10
77.71539497880643
 20
31.67652814142298
 30
0.0
 10
78.0825360029864
 20
31.69036406539955
 30
0.0
 10
78.4492588237418
 20
31.7139808413752
 30
0.0
 10
78.81779107470143
 20
31.74798706955838
 30
0.0
 10
79.18772119095195
 20
31.79299827658501
 30
0.0
 10
79.55830539990131
 20
31.85108810841896
 30
0.0
 10
79.9261964903032
 20
31.92372110937984
 30
0.0
 10
80.22707377387601
 20
31.99719729540391
 30
0.0
 10
80.46222792037972
 20
32.06390454871911
 30
0.0
 10
80.6333726304204
 20
32.11738887505393
 30
0.0
 10
80.80292354648616
 20
32.17584326107412
 30
0.0
 10
80.97727614994703
 20
32.24219794684509
 30
0.0
 10
81.15573612961103
 20
32.31763160544124
 30
0.0
 10
81.33712617317288
 20
32.40396730938988
 30
0.0
 10
81.51390206902109
 20
32.49929947475468
 30
0.0
 10
81.66016455506704
 20
32.5891951516809
 30
0.0
 10
81.77771361013318
 20
32.66968075338399
 30
0.0
 10
81.8686444271496
 20
32.73732539716401
 30
0.0
 10
81.95658124088231
 20
32.80879600560307
 30
0.0
 10
82.03372336822981
 20
32.87770649115343
 30
0.0
 10
82.10068346041004
 20
32.94303006573409
 30
0.0
 10
82.15818926948916
 20
33.00381125024511
 30
0.0
 10
82.21303757461112
 20
33.06699516554465
 30
0.0
 10
82.2624568925088
 20
33.12947414344804
 30
0.0
 10
82.30665922054168
 20
33.19086242850899
 30
0.0
 10
82.34591901694488
 20
33.25079131485143
 30
0.0
 10
82.38234613911216
 20
33.31248596560833
 30
0.0
 10
82.41489272315886
 20
33.37436762843299
 30
0.0
 10
82.44357919393192
 20
33.43622454601351
 30
0.0
 10
82.46848950980866
 20
33.49781540905816
 30
0.0
 10
82.49021568092819
 20
33.56060020328492
 30
0.0
 10
82.51552335071284
 20
33.64930547110603
 30
0.0
 10
82.53891383663435
 20
33.7655868130868
 30
0.0
 10
82.5424704769021
 20
33.86161735190568
 30
0.0
 10
82.5442487970115
 20
33.9096326206548
 30
0.0
 11
72.1519439515982
 21
33.9096326206548
 31
0.0
 11
72.16114080719528
 21
33.76597086189609
 31
0.0
 11
72.18829660945144
 21
33.62459959844808
 31
0.0
 11
72.2090815682007
 21
33.55292786006177
 31
0.0
 11
72.23413518715081
 21
33.48263022502084
 31
0.0
 11
72.26320307646554
 21
33.41382912525385
 31
0.0
 11
72.29601196254039
 21
33.34673610561217
 31
0.0
 11
72.32660575962683
 21
33.2912295255911
 31
0.0
 11
72.35954829095911
 21
33.23708725945881
 31
0.0
 11
72.39465954937499
 21
33.18435614467057
 31
0.0
 11
72.43179220890272
 21
33.13302464903192
 31
0.0
 11
72.48364193455912
 21
33.0674167521372
 31
0.0
 11
72.53843365812035
 21
33.00423862846861
 31
0.0
 11
72.59590240928452
 21
32.94343448136421
 31
0.0
 11
72.65576067537032
 21
32.88497835469337
 31
0.0
 11
72.74017940988041
 21
32.80946212171837
 31
0.0
 11
72.82803674722331
 21
32.73796269790344
 31
0.0
 11
72.91890775251952
 21
32.67027904904597
 31
0.0
 11
73.01236840113019
 21
32.6062093743437
 31
0.0
 11
73.18321926960172
 21
32.50095971323338
 31
0.0
 11
73.3597849912226
 21
32.40551343061917
 31
0.0
 11
73.54106925949851
 21
32.319002263049
 31
0.0
 11
73.72599430378567
 21
32.2405986509308
 31
0.0
 11
73.89358296112948
 21
32.17670512840887
 31
0.0
 11
74.0631051662502
 21
32.11815518843972
 31
0.0
 11
74.23417354803163
 21
32.06461613978085
 31
0.0
 11
74.40661710711161
 21
32.01566909853106
 31
0.0
 11
74.62613928805398
 21
31.95982759123609
 31
0.0
 11
74.84716008042268
 21
31.9102321831606
 31
0.0
 11
75.06945067197931
 21
31.86641324377778
 31
0.0
 11
75.29272375937113
 21
31.82791503519262
 31
0.0
 11
75.50162063874066
 21
31.79642586704239
 31
0.0
 11
75.71108166714811
 21
31.76895128828568
 31
0.0
 11
75.92098214571753
 21
31.74529194035955
 31
0.0
 11
76.13125784664072
 21
31.7252388777889
 31
0.0
 11
76.30892909816583
 21
31.71098305371722
 31
0.0
 11
76.4867736647482
 21
31.69909915588934
 31
0.0
 11
76.66475381991519
 21
31.68953845329915
 31
0.0
 11
76.84284138094415
 21
31.68225171691222
 31
0.0
 11
76.96912263988034
 21
31.67843771372057
 31
0.0
 11
77.09543121085275
 21
31.67572780692286
 31
0.0
 11
77.22175791641439
 21
31.67410809779833
 31
0.0
 11
77.34809637430484
 21
31.67356464315504
 31
0.0
 11
77.7153517596286
 21
31.67809028486758
 31
0.0
 11
78.08238383280853
 21
31.69199000482323
 31
0.0
 11
78.44912523205227
 21
31.71567260740222
 31
0.0
 11
78.81507361800166
 21
31.74950586460441
 31
0.0
 11
79.1874260584561
 21
31.79512950903624
 31
0.0
 11
79.55799647185783
 21
31.85353681280024
 31
0.0
 11
79.92562278244071
 21
31.92644764623371
 31
0.0
 11
80.28957564149815
 21
32.01566909853101
 31
0.0
 11
80.4620063750938
 21
32.06466408784436
 31
0.0
 11
80.63306963678104
 21
32.11820492765322
 31
0.0
 11
80.80259897590675
 21
32.1767321281398
 31
0.0
 11
80.97019844482752
 21
32.24059865093212
 31
0.0
 11
81.15512820085921
 21
32.3189855432436
 31
0.0
 11
81.3364110444512
 21
32.4054941412987
 31
0.0
 11
81.5129760565464
 21
32.50094880595785
 31
0.0
 11
81.68382434747947
 21
32.60620937434366
 31
0.0
 11
81.7772859668543
 21
32.67028552504787
 31
0.0
 11
81.86815907039659
 21
32.73797367334479
 31
0.0
 11
81.95601341901744
 21
32.80946897898988
 31
0.0
 11
82.04043207321075
 21
32.88497835466645
 31
0.0
 11
82.10028662732665
 21
32.94342314577703
 31
0.0
 11
82.15775060488942
 21
33.00421639809439
 31
0.0
 11
82.21254832749796
 21
33.06740297884183
 31
0.0
 11
82.2644005397071
 21
33.13302464903189
 31
0.0
 11
82.30622585779491
 21
33.19116137889826
 31
0.0
 11
82.34544634763496
 21
33.2510847154206
 31
0.0
 11
82.38183397290805
 21
33.3127730140158
 31
0.0
 11
82.41514374114116
 21
33.3761740867748
 31
0.0
 11
82.44307223844174
 21
33.43644444375968
 31
0.0
 11
82.46796470981499
 21
33.4980301007664
 31
0.0
 11
82.48963086105482
 21
33.56077777070962
 31
0.0
 11
82.50789613915865
 21
33.62459959844811
 31
0.0
 11
82.53505103948206
 21
33.76597099884995
 31
0.0
 11
82.5442487970115
 21
33.9096326206548
 31
0.0
  0
SPLINE
  5
211
330
1F
100
AcDbEntity
  8
0
  6
Continuous
 62
     3
100
AcDbSpline
210
0.0
220
0.0
230
1.0
 70
     8
 71
     3
 72
    75
 73
    71
 74
    69
 42
0.0000000001
 43
0.0000000001
 44
0.00000001
 40
0.0
 40
0.0
 40
0.0
 40
0.0
 40
0.1439557582463108
 40
0.2879115204555739
 40
0.3542958910258263
 40
0.4206790923522107
 40
0.4871048875861829
 40
0.5535314013780869
 40
0.6251489256718109
 40
0.6967680892432947
 40
0.7683863180991177
 40
0.84000674063064
 40
0.9318141143439517
 40
1.023628535395665
 40
1.115473407850996
 40
1.207318649055199
 40
1.312423181383523
 40
1.417529956991756
 40
1.522638900486418
 40
1.627751956900423
 40
1.785263841723124
 40
1.942790263319153
 40
2.10038788068908
 40
2.257988292047455
 40
2.48047415932172
 40
2.702974863024234
 40
2.925518966822078
 40
3.148070526625625
 40
3.522901229129745
 40
3.897775030315326
 40
4.272821037609546
 40
4.647864242503633
 40
5.015342103550505
 40
5.382810192149606
 40
5.75012934915407
 40
6.117456245052107
 40
6.484763354077452
 40
6.852062859929455
 40
7.219550957978736
 40
7.5870479943853
 40
7.962189513197293
 40
8.337337722619685
 40
8.712120371138177
 40
9.086846007181055
 40
9.266090463361705
 40
9.44532498321732
 40
9.624685244528225
 40
9.80405291118566
 40
10.00495934743356
 40
10.20587769746074
 40
10.40654651345049
 40
10.60716157667252
 40
10.6989497678081
 40
10.79073109771799
 40
10.88254797670398
 40
10.97436921931842
 40
11.07953039294992
 40
11.18469662957471
 40
11.28980742295976
 40
11.39490150421157
 40
11.46652500871466
 40
11.53814496267812
 40
11.6097614421894
 40
11.68137662278554
 40
11.74780258737558
 40
11.81422776762703
 40
11.88061155903433
 40
11.94699653509872
 40
12.09095229732366
 40
12.23490805557747
 40
12.23490805557747
 40
12.23490805557747
 40
12.23490805557747
 10
89.6519439515982
 20
33.9096326206548
 30
0.0
 10
89.65372227575568
 20
33.86161735302744
 30
0.0
 10
89.65727892411961
 20
33.76558681645091
 30
0.0
 10
89.68066937682005
 20
33.64930536498828
 30
0.0
 10
89.70597721290812
 20
33.56059994496816
 30
0.0
 10
89.72770347484365
 20
33.49781509403206
 30
0.0
 10
89.75261370472663
 20
33.4362243055557
 30
0.0
 10
89.78129988253409
 20
33.37436789394737
 30
0.0
 10
89.81384607093695
 20
33.31248708224172
 30
0.0
 10
89.85027285799868
 20
33.2507929416678
 30
0.0
 10
89.88953285790278
 20
33.19086361527613
 30
0.0
 10
89.93532755055205
 20
33.12726361047032
 30
0.0
 10
89.98829160204528
 20
33.06062825449614
 30
0.0
 10
90.0489580429605
 20
32.99165510005708
 30
0.0
 10
90.11276543592632
 20
32.92556469164963
 30
0.0
 10
90.18257150015879
 20
32.85923808382587
 30
0.0
 10
90.25848630858488
 20
32.79304717885854
 30
0.0
 10
90.34059162262105
 20
32.72737959819156
 30
0.0
 10
90.42521717698544
 20
32.66499443857752
 30
0.0
 10
90.52647588823861
 20
32.59587409992084
 30
0.0
 10
90.64537382731531
 20
32.52175719395609
 30
0.0
 10
90.78276559054493
 20
32.44456141873243
 30
0.0
 10
90.92325128250359
 20
32.37310068065455
 30
0.0
 10
91.08594873234851
 20
32.29783720110438
 30
0.0
 10
91.2715464662503
 20
32.22084627092016
 30
0.0
 10
91.48056180125698
 20
32.14436471181747
 30
0.0
 10
91.6923502543539
 20
32.07589532618489
 30
0.0
 10
91.95513573633653
 20
32.00063780867216
 30
0.0
 10
92.27010432360001
 20
31.92376126265778
 30
0.0
 10
92.63802272608916
 20
31.85110919032256
 30
0.0
 10
93.00856817677325
 20
31.7930021820609
 30
0.0
 10
93.3784220451198
 20
31.74798135836163
 30
0.0
 10
93.74690108884771
 20
31.7139845450027
 30
0.0
 10
94.11360948634608
 20
31.69037994338289
 30
0.0
 10
94.4807619825881
 20
31.67654688621231
 30
0.0
 10
94.84808978101049
 20
31.67207330703904
 30
0.0
 10
95.21541101380531
 20
31.67654768221017
 30
0.0
 10
95.58255700976352
 20
31.6903815470251
 30
0.0
 10
95.9492717444976
 20
31.71398891842168
 30
0.0
 10
96.31779669304143
 20
31.74798600728101
 30
0.0
 10
96.68772521097269
 20
31.79299845667963
 30
0.0
 10
97.05830976854239
 20
31.8510934317088
 30
0.0
 10
97.42619895977036
 20
31.92372748345582
 30
0.0
 10
97.72707055863381
 20
31.99719861113026
 30
0.0
 10
97.96221764517148
 20
32.0638969747958
 30
0.0
 10
98.13335987329214
 20
32.11737665652632
 30
0.0
 10
98.30291445980791
 20
32.17583327999512
 30
0.0
 10
98.47728813464502
 20
32.24220193408846
 30
0.0
 10
98.65577863976644
 20
32.31766059154016
 30
0.0
 10
98.83718129083749
 20
32.40401243439303
 30
0.0
 10
99.01394424296346
 20
32.49933078851009
 30
0.0
 10
99.1540647640962
 20
32.58544459513742
 30
0.0
 10
99.25998531855923
 20
32.65744967136123
 30
0.0
 10
99.33426592765142
 20
32.71141118960355
 30
0.0
 10
99.40670204998632
 20
32.76784562027505
 30
0.0
 10
99.4804828516636
 20
32.82971420252947
 30
0.0
 10
99.55495881316043
 20
32.89756916427019
 30
0.0
 10
99.62922935243424
 20
32.97205962292523
 30
0.0
 10
99.69950954692558
 20
33.05030463515835
 30
0.0
 10
99.75827730625403
 20
33.12366980875713
 30
0.0
 10
99.80665956067179
 20
33.19086694467374
 30
0.0
 10
99.84592000640123
 20
33.25079698195734
 30
0.0
 10
99.8823469589071
 20
33.31248968686181
 30
0.0
 10
99.9148932206408
 20
33.37436837848644
 30
0.0
 10
99.94357913378647
 20
33.43622363405357
 30
0.0
 10
99.9684891788958
 20
33.49781429256005
 30
0.0
 10
99.99021542793763
 20
33.56059935203382
 30
0.0
 10
100.0155232928872
 20
33.64930517700326
 30
0.0
 10
100.0389138373307
 20
33.76558681295366
 30
0.0
 10
100.0424704771346
 20
33.86161735186259
 30
0.0
 10
100.044248797012
 20
33.9096326206548
 30
0.0
 11
89.6519439515982
 21
33.9096326206548
 31
0.0
 11
89.66114170860182
 21
33.76597099878461
 31
0.0
 11
89.68829660945106
 21
33.62459959844806
 31
0.0
 11
89.70656203313459
 21
33.56077751015827
 31
0.0
 11
89.72822832594447
 21
33.49802959246998
 31
0.0
 11
89.75312065143589
 21
33.43644421754951
 31
0.0
 11
89.78104900746943
 21
33.37617408677307
 31
0.0
 11
89.8143582524372
 21
33.31277405534059
 31
0.0
 11
89.85074513908522
 21
33.25108694914535
 31
0.0
 11
89.88996600506597
 21
33.19116287738645
 31
0.0
 11
89.9317922089026
 21
33.13302464903187
 31
0.0
 11
89.98887430840306
 21
33.06112035302143
 31
0.0
 11
90.04947323601293
 21
32.99214457549341
 31
0.0
 11
90.11322977512413
 21
32.92603418057023
 31
0.0
 11
90.17977818653286
 21
32.86273443909499
 31
0.0
 11
90.25896189399876
 21
32.79361929467707
 31
0.0
 11
90.3410107126871
 21
32.72792739540016
 31
0.0
 11
90.42558322308022
 21
32.66551441206842
 31
0.0
 11
90.51236840113016
 21
32.60620937434366
 31
0.0
 11
90.64597644101006
 21
32.52278943943689
 31
0.0
 11
90.78325598769709
 21
32.44553078579696
 31
0.0
 11
90.92367646302014
 21
32.37398290594909
 31
0.0
 11
91.06666875495604
 21
32.30771757483811
 31
0.0
 11
91.2721109556918
 21
32.22231579913274
 31
0.0
 11
91.48100686054366
 21
32.1457059819796
 31
0.0
 11
91.692710474937
 21
32.07709506602609
 31
0.0
 11
91.90661710711161
 21
32.01566909853101
 31
0.0
 11
92.2706815684769
 21
31.92647759943757
 31
0.0
 11
92.63839242431467
 21
31.8535454850134
 31
0.0
 11
93.00886182500952
 21
31.79513375043772
 31
0.0
 11
93.38111913060823
 21
31.74950586460441
 31
0.0
 11
93.74703660123093
 21
31.71567713343302
 31
0.0
 11
94.1137414593522
 21
31.6920055646439
 31
0.0
 11
94.48079755925234
 21
31.67810654926261
 31
0.0
 11
94.84809637430487
 21
31.67356464315502
 31
0.0
 11
95.2153753918149
 21
31.67810728967707
 31
0.0
 11
95.58241181107249
 21
31.69200671188428
 31
0.0
 11
95.94913657215996
 21
31.71568057538853
 31
0.0
 11
96.31507361807972
 21
31.74950586461307
 31
0.0
 11
96.68743038876586
 21
31.79513035870077
 31
0.0
 11
97.05800327621756
 21
31.85354195103085
 31
0.0
 11
97.42562537367671
 21
31.9264530413414
 31
0.0
 11
97.78957564149809
 21
32.01566909853115
 31
0.0
 11
97.96199604435525
 21
32.06465664541883
 31
0.0
 11
98.13304894619347
 21
32.11819091370183
 31
0.0
 11
98.3025898022621
 21
32.17672296868908
 31
0.0
 11
98.47019844482102
 21
32.24059865092958
 31
0.0
 11
98.6551698275648
 21
32.31901410662349
 31
0.0
 11
98.83649659211225
 21
32.4055518893337
 31
0.0
 11
99.01302187073662
 21
32.50098144302289
 31
0.0
 11
99.18382434747951
 21
32.60620937434378
 31
0.0
 11
99.2597132148355
 21
32.65784223058247
 31
0.0
 11
99.33394758304499
 21
32.71181510429296
 31
0.0
 11
99.40635528358042
 21
32.76827273592853
 31
0.0
 11
99.47669020647095
 21
32.82729933346933
 31
0.0
 11
99.55437730671575
 21
32.89817659988889
 31
0.0
 11
99.62857953928136
 21
32.97270153536756
 31
0.0
 11
99.698760304351
 21
33.05095074686695
 31
0.0
 11
99.76440053970693
 21
33.13302464903188
 31
0.0
 11
99.80622696211918
 21
33.1911665167822
 31
0.0
 11
99.84544861633256
 21
33.25109213439683
 31
0.0
 11
99.88183477961695
 21
33.31277655105963
 31
0.0
 11
99.91514374000323
 21
33.37617408452746
 31
0.0
 11
99.94307214446022
 21
33.43644358756344
 31
0.0
 11
99.96796419295065
 21
33.49802841112727
 31
0.0
 11
99.98963060394806
 21
33.5607769122735
 31
0.0
 11
100.0078961391583
 21
33.62459959844819
 31
0.0
 11
100.0350510401915
 21
33.76597099876536
 31
0.0
 11
100.044248797012
 21
33.9096326206548
 31
0.0
  0
LEADER
  5
212
330
1F
100
AcDbEntity
  8
1
  6
Continuous
 62
     4
100
AcDbLeader
  3
Standard
 71
     0
 76
     3
 10
237.963191303994
 20
-64.5656111406782
 30
0.0
 10
246.0
 20
-55.0
 30
0.0
 10
259.0
 20
-55.0
 30
0.0
  0
ENDSEC
  0
SECTION
  2
OBJECTS
  0
DICTIONARY
  5
C
330
0
100
AcDbDictionary
281
     1
  3
ACAD_GROUP
350
D
  3
ACAD_LAYOUT
350
1A
  3
ACAD_MATERIAL
350
3B
  3
ACAD_MLEADERSTYLE
350
215
  3
ACAD_MLINESTYLE
350
17
  3
ACAD_PLOTSETTINGS
350
19
  3
ACAD_PLOTSTYLENAME
350
E
  3
ACAD_VISUALSTYLE
350
2A
  3
AcDbVariableDictionary
350
213
  0
DICTIONARY
  5
D
102
{ACAD_REACTORS
330
C
102
}
330
C
100
AcDbDictionary
281
     1
  0
DICTIONARY
  5
1A
102
{ACAD_REACTORS
330
C
102
}
330
C
100
AcDbDictionary
281
     1
  3
Layout1
350
1E
  3
Layout2
350
26
  3
Model
350
22
  0
DICTIONARY
  5
3B
102
{ACAD_REACTORS
330
C
102
}
330
C
100
AcDbDictionary
281
     1
  3
ByBlock
350
3D
  3
ByLayer
350
3C
  3
Global
350
3E
  0
DICTIONARY
  5
215
102
{ACAD_REACTORS
330
C
102
}
330
C
100
AcDbDictionary
281
     1
  0
DICTIONARY
  5
17
102
{ACAD_REACTORS
330
C
102
}
330
C
100
AcDbDictionary
281
     1
  3
Standard
350
18
  0
DICTIONARY
  5
19
102
{ACAD_REACTORS
330
C
102
}
330
C
100
AcDbDictionary
281
     1
  0
ACDBDICTIONARYWDFLT
  5
E
102
{ACAD_REACTORS
330
C
102
}
330
C
100
AcDbDictionary
281
     1
  3
Normal
350
F
100
AcDbDictionaryWithDefault
340
F
  0
DICTIONARY
  5
2A
102
{ACAD_REACTORS
330
C
102
}
330
C
100
AcDbDictionary
281
     1
  3
2dWireframe
350
2F
  3
3D Hidden
350
31
  3
3dWireframe
350
30
  3
Basic
350
32
  3
Brighten
350
36
  3
ColorChange
350
3A
  3
Conceptual
350
34
  3
Dim
350
35
  3
Facepattern
350
39
  3
Flat
350
2B
  3
FlatWithEdges
350
2C
  3
Gouraud
350
2D
  3
GouraudWithEdges
350
2E
  3
Linepattern
350
38
  3
Realistic
350
33
  3
Thicken
350
37
  0
DICTIONARY
  5
213
102
{ACAD_REACTORS
330
C
102
}
330
C
100
AcDbDictionary
281
     1
  3
DIMASSOC
350
216
  3
HIDETEXT
350
217
  0
LAYOUT
  5
1E
102
{ACAD_REACTORS
330
1A
102
}
330
1A
100
AcDbPlotSettings
  1

  2
none_device
  4

  6

 40
0.0
 41
0.0
 42
0.0
 43
0.0
 44
0.0
 45
0.0
 46
0.0
 47
0.0
 48
0.0
 49
0.0
140
0.0
141
0.0
142
1.0
143
1.0
 70
   688
 72
     0
 73
     0
 74
     5
  7

 75
    16
147
1.0
148
0.0
149
0.0
100
AcDbLayout
  1
Layout1
 70
     1
 71
     1
 10
0.0
 20
0.0
 11
12.0
 21
9.0
 12
0.0
 22
0.0
 32
0.0
 14
1.00000000000000E+20
 24
1.00000000000000E+20
 34
1.00000000000000E+20
 15
-1.00000000000000E+20
 25
-1.00000000000000E+20
 35
-1.00000000000000E+20
146
0.0
 13
0.0
 23
0.0
 33
0.0
 16
1.0
 26
0.0
 36
0.0
 17
0.0
 27
1.0
 37
0.0
 76
     0
330
1B
  0
LAYOUT
  5
26
102
{ACAD_REACTORS
330
1A
102
}
330
1A
100
AcDbPlotSettings
  1

  2
none_device
  4

  6

 40
0.0
 41
0.0
 42
0.0
 43
0.0
 44
0.0
 45
0.0
 46
0.0
 47
0.0
 48
0.0
 49
0.0
140
0.0
141
0.0
142
1.0
143
1.0
 70
   688
 72
     0
 73
     0
 74
     5
  7

 75
    16
147
1.0
148
0.0
149
0.0
100
AcDbLayout
  1
Layout2
 70
     1
 71
     2
 10
0.0
 20
0.0
 11
0.0
 21
0.0
 12
0.0
 22
0.0
 32
0.0
 14
0.0
 24
0.0
 34
0.0
 15
0.0
 25
0.0
 35
0.0
146
0.0
 13
0.0
 23
0.0
 33
0.0
 16
1.0
 26
0.0
 36
0.0
 17
0.0
 27
1.0
 37
0.0
 76
     0
330
23
  0
LAYOUT
  5
22
102
{ACAD_REACTORS
330
1A
102
}
330
1A
100
AcDbPlotSettings
  1

  2
none_device
  4

  6

 40
0.0
 41
0.0
 42
0.0
 43
0.0
 44
0.0
 45
0.0
 46
0.0
 47
0.0
 48
0.0
 49
0.0
140
0.0
141
0.0
142
1.0
143
1.0
 70
  1712
 72
     0
 73
     0
 74
     0
  7

 75
     0
147
1.0
148
0.0
149
0.0
100
AcDbLayout
  1
Model
 70
     1
 71
     0
 10
0.0
 20
0.0
 11
12.0
 21
9.0
 12
0.0
 22
0.0
 32
0.0
 14
64.5980963743049
 24
-127.815611140842
 34
0.0
 15
259.0
 25
61.2096326204652
 35
0.0
146
0.0
 13
0.0
 23
0.0
 33
0.0
 16
1.0
 26
0.0
 36
0.0
 17
0.0
 27
1.0
 37
0.0
 76
     0
330
1F
331
29
  0
MATERIAL
  5
3D
102
{ACAD_REACTORS
330
3B
102
}
102
{ACAD_XDICTIONARY
360
23A
102
}
330
3B
100
AcDbMaterial
  1
ByBlock
  0
MATERIAL
  5
3C
102
{ACAD_REACTORS
330
3B
102
}
102
{ACAD_XDICTIONARY
360
238
102
}
330
3B
100
AcDbMaterial
  1
ByLayer
  0
MATERIAL
  5
3E
102
{ACAD_REACTORS
330
3B
102
}
102
{ACAD_XDICTIONARY
360
23C
102
}
330
3B
100
AcDbMaterial
  1
Global
  0
MLINESTYLE
  5
18
102
{ACAD_REACTORS
330
17
102
}
330
17
100
AcDbMlineStyle
  2
Standard
 70
     0
  3

 62
   256
 51
90.0
 52
90.0
 71
     2
 49
0.5
 62
   256
  6
BYLAYER
 49
-0.5
 62
   256
  6
BYLAYER
  0
ACDBPLACEHOLDER
  5
F
102
{ACAD_REACTORS
330
E
102
}
330
E
  0
VISUALSTYLE
  5
2F
102
{ACAD_REACTORS
330
2A
102
}
102
{ACAD_XDICTIONARY
360
220
102
}
330
2A
100
AcDbVisualStyle
  2
2dWireframe
 70
     4
 71
     0
 72
     2
 73
     0
 90
        0
 40
-0.6
 41
-30.0
 62
     5
 63
     7
 74
     1
 91
        4
 64
     7
 65
   257
 75
     1
175
     1
 42
1.0
 92
        0
 66
   257
 43
1.0
 76
     1
 77
     6
 78
     2
 67
     7
 79
     5
170
     0
171
     0
290
     0
174
     0
 93
        1
 44
0.0
173
     0
291
     0
 45
0.0
1001
ACAD
1000
AcDbSavedByObjectVersion
1070
     0
  0
VISUALSTYLE
  5
31
102
{ACAD_REACTORS
330
2A
102
}
102
{ACAD_XDICTIONARY
360
224
102
}
330
2A
100
AcDbVisualStyle
  2
3D Hidden
 70
     6
 71
     1
 72
     2
 73
     2
 90
        0
 40
-0.6
 41
-30.0
 62
     5
 63
     7
 74
     2
 91
        2
 64
     7
 65
   257
 75
     2
175
     1
 42
40.0
 92
        0
 66
   257
 43
1.0
 76
     1
 77
     6
 78
     2
 67
     7
 79
     3
170
     0
171
     0
290
     0
174
     0
 93
        1
 44
0.0
173
     0
291
     0
 45
0.0
1001
ACAD
1000
AcDbSavedByObjectVersion
1070
     0
  0
VISUALSTYLE
  5
30
102
{ACAD_REACTORS
330
2A
102
}
102
{ACAD_XDICTIONARY
360
222
102
}
330
2A
100
AcDbVisualStyle
  2
3dWireframe
 70
     5
 71
     0
 72
     2
 73
     0
 90
        0
 40
-0.6
 41
-30.0
 62
     5
 63
     7
 74
     1
 91
        4
 64
     7
 65
   257
 75
     1
175
     1
 42
1.0
 92
        0
 66
   257
 43
1.0
 76
     1
 77
     6
 78
     2
 67
     7
 79
     5
170
     0
171
     0
290
     0
174
     0
 93
        1
 44
0.0
173
     0
291
     0
 45
0.0
1001
ACAD
1000
AcDbSavedByObjectVersion
1070
     0
  0
VISUALSTYLE
  5
32
102
{ACAD_REACTORS
330
2A
102
}
102
{ACAD_XDICTIONARY
360
226
102
}
330
2A
100
AcDbVisualStyle
  2
Basic
 70
     7
 71
     1
 72
     0
 73
     1
 90
        0
 40
-0.6
 41
-30.0
 62
     5
 63
     7
 74
     0
 91
        4
 64
     7
 65
   257
 75
     1
175
     1
 42
1.0
 92
        8
 66
     7
 43
1.0
 76
     1
 77
     6
 78
     2
 67
     7
 79
     5
170
     0
171
     0
290
     0
174
     0
 93
        1
 44
0.0
173
     0
291
     1
 45
0.0
1001
ACAD
1000
AcDbSavedByObjectVersion
1070
     0
  0
VISUALSTYLE
  5
36
102
{ACAD_REACTORS
330
2A
102
}
102
{ACAD_XDICTIONARY
360
22E
102
}
330
2A
100
AcDbVisualStyle
  2
Brighten
 70
    12
 71
     2
 72
     2
 73
     0
 90
        0
 40
-0.6
 41
-30.0
 62
     5
 63
     7
 74
     1
 91
        4
 64
     7
 65
   257
 75
     1
175
     1
 42
1.0
 92
        8
 66
     7
 43
1.0
 76
     1
 77
     6
 78
     2
 67
     7
 79
     5
170
     0
171
     0
290
     0
174
     0
 93
        1
 44
50.0
173
     0
291
     1
 45
0.0
1001
ACAD
1000
AcDbSavedByObjectVersion
1070
     0
  0
VISUALSTYLE
  5
3A
102
{ACAD_REACTORS
330
2A
102
}
102
{ACAD_XDICTIONARY
360
236
102
}
330
2A
100
AcDbVisualStyle
  2
ColorChange
 70
    16
 71
     2
 72
     2
 73
     3
 90
        0
 40
-0.6
 41
-30.0
 62
     5
 63
     8
 74
     1
 91
        4
 64
     7
 65
   257
 75
     1
175
     1
 42
1.0
 92
        8
 66
     8
 43
1.0
 76
     1
 77
     6
 78
     2
 67
     7
 79
     5
170
     0
171
     0
290
     0
174
     0
 93
        1
 44
0.0
173
     0
291
     1
 45
0.0
1001
ACAD
1000
AcDbSavedByObjectVersion
1070
     0
  0
VISUALSTYLE
  5
34
102
{ACAD_REACTORS
330
2A
102
}
102
{ACAD_XDICTIONARY
360
22A
102
}
330
2A
100
AcDbVisualStyle
  2
Conceptual
 70
     9
 71
     3
 72
     2
 73
     0
 90
        0
 40
-0.6
 41
-30.0
 62
     5
 63
     7
 74
     2
 91
        2
 64
     7
 65
   257
 75
     1
175
     1
 42
40.0
 92
        8
 66
     7
 43
1.0
 76
     1
 77
     6
 78
     2
 67
     7
 79
     3
170
     0
171
     0
290
     0
174
     0
 93
        1
 44
0.0
173
     0
291
     0
 45
0.0
1001
ACAD
1000
AcDbSavedByObjectVersion
1070
     0
  0
VISUALSTYLE
  5
35
102
{ACAD_REACTORS
330
2A
102
}
102
{ACAD_XDICTIONARY
360
22C
102
}
330
2A
100
AcDbVisualStyle
  2
Dim
 70
    11
 71
     2
 72
     2
 73
     0
 90
        0
 40
-0.6
 41
-30.0
 62
     5
 63
     7
 74
     1
 91
        4
 64
     7
 65
   257
 75
     1
175
     1
 42
1.0
 92
        8
 66
     7
 43
1.0
 76
     1
 77
     6
 78
     2
 67
     7
 79
     5
170
     0
171
     0
290
     0
174
     0
 93
        1
 44
-50.0
173
     0
291
     1
 45
0.0
1001
ACAD
1000
AcDbSavedByObjectVersion
1070
     0
  0
VISUALSTYLE
  5
39
102
{ACAD_REACTORS
330
2A
102
}
102
{ACAD_XDICTIONARY
360
234
102
}
330
2A
100
AcDbVisualStyle
  2
Facepattern
 70
    15
 71
     2
 72
     2
 73
     0
 90
        0
 40
-0.6
 41
-30.0
 62
     5
 63
     7
 74
     1
 91
        4
 64
     7
 65
   257
 75
     1
175
     1
 42
1.0
 92
        8
 66
     7
 43
1.0
 76
     1
 77
     6
 78
     2
 67
     7
 79
     5
170
     0
171
     0
290
     0
174
     0
 93
        1
 44
0.0
173
     0
291
     1
 45
0.0
1001
ACAD
1000
AcDbSavedByObjectVersion
1070
     0
  0
VISUALSTYLE
  5
2B
102
{ACAD_REACTORS
330
2A
102
}
102
{ACAD_XDICTIONARY
360
218
102
}
330
2A
100
AcDbVisualStyle
  2
Flat
 70
     0
 71
     2
 72
     1
 73
     1
 90
        2
 40
-0.6
 41
30.0
 62
     5
 63
     7
 74
     0
 91
        4
 64
     7
 65
   257
 75
     1
175
     1
 42
1.0
 92
        8
 66
     7
 43
1.0
 76
     1
 77
     6
 78
     2
 67
     7
 79
     5
170
     0
171
     0
290
     0
174
     0
 93
       13
 44
0.0
173
     0
291
     1
 45
0.0
1001
ACAD
1000
AcDbSavedByObjectVersion
1070
     0
  0
VISUALSTYLE
  5
2C
102
{ACAD_REACTORS
330
2A
102
}
102
{ACAD_XDICTIONARY
360
21A
102
}
330
2A
100
AcDbVisualStyle
  2
FlatWithEdges
 70
     1
 71
     2
 72
     1
 73
     1
 90
        2
 40
-0.6
 41
30.0
 62
     5
 63
     7
 74
     1
 91
        4
 64
     7
 65
   257
 75
     1
175
     1
 42
1.0
 92
        0
 66
   257
 43
1.0
 76
     1
 77
     6
 78
     2
 67
     7
 79
     5
170
     0
171
     0
290
     0
174
     0
 93
       13
 44
0.0
173
     0
291
     1
 45
0.0
1001
ACAD
1000
AcDbSavedByObjectVersion
1070
     0
  0
VISUALSTYLE
  5
2D
102
{ACAD_REACTORS
330
2A
102
}
102
{ACAD_XDICTIONARY
360
21C
102
}
330
2A
100
AcDbVisualStyle
  2
Gouraud
 70
     2
 71
     2
 72
     2
 73
     1
 90
        2
 40
-0.6
 41
30.0
 62
     5
 63
     7
 74
     0
 91
        4
 64
     7
 65
   257
 75
     1
175
     1
 42
1.0
 92
        0
 66
     7
 43
1.0
 76
     1
 77
     6
 78
     2
 67
     7
 79
     5
170
     0
171
     0
290
     0
174
     0
 93
       13
 44
0.0
173
     0
291
     1
 45
0.0
1001
ACAD
1000
AcDbSavedByObjectVersion
1070
     0
  0
VISUALSTYLE
  5
2E
102
{ACAD_REACTORS
330
2A
102
}
102
{ACAD_XDICTIONARY
360
21E
102
}
330
2A
100
AcDbVisualStyle
  2
GouraudWithEdges
 70
     3
 71
     2
 72
     2
 73
     1
 90
        2
 40
-0.6
 41
30.0
 62
     5
 63
     7
 74
     1
 91
        4
 64
     7
 65
   257
 75
     1
175
     1
 42
1.0
 92
        0
 66
   257
 43
1.0
 76
     1
 77
     6
 78
     2
 67
     7
 79
     5
170
     0
171
     0
290
     0
174
     0
 93
       13
 44
0.0
173
     0
291
     1
 45
0.0
1001
ACAD
1000
AcDbSavedByObjectVersion
1070
     0
  0
VISUALSTYLE
  5
38
102
{ACAD_REACTORS
330
2A
102
}
102
{ACAD_XDICTIONARY
360
232
102
}
330
2A
100
AcDbVisualStyle
  2
Linepattern
 70
    14
 71
     2
 72
     2
 73
     0
 90
        0
 40
-0.6
 41
-30.0
 62
     5
 63
     7
 74
     1
 91
        4
 64
     7
 65
   257
 75
     7
175
     7
 42
1.0
 92
        8
 66
     7
 43
1.0
 76
     1
 77
     6
 78
     2
 67
     7
 79
     5
170
     0
171
     0
290
     0
174
     0
 93
        1
 44
0.0
173
     0
291
     1
 45
0.0
1001
ACAD
1000
AcDbSavedByObjectVersion
1070
     0
  0
VISUALSTYLE
  5
33
102
{ACAD_REACTORS
330
2A
102
}
102
{ACAD_XDICTIONARY
360
228
102
}
330
2A
100
AcDbVisualStyle
  2
Realistic
 70
     8
 71
     2
 72
     2
 73
     0
 90
        0
 40
-0.6
 41
-30.0
 62
     5
 63
     7
 74
     1
 91
        0
 64
     7
 65
   257
 75
     1
175
     1
 42
1.0
 92
        8
 66
     8
 43
1.0
 76
     1
 77
     6
 78
     2
 67
     7
 79
     5
170
     0
171
     0
290
     0
174
     0
 93
       13
 44
0.0
173
     0
291
     0
 45
0.0
1001
ACAD
1000
AcDbSavedByObjectVersion
1070
     0
  0
VISUALSTYLE
  5
37
102
{ACAD_REACTORS
330
2A
102
}
102
{ACAD_XDICTIONARY
360
230
102
}
330
2A
100
AcDbVisualStyle
  2
Thicken
 70
    13
 71
     2
 72
     2
 73
     0
 90
        0
 40
-0.6
 41
-30.0
 62
     5
 63
     7
 74
     1
 91
        4
 64
     7
 65
   257
 75
     1
175
     1
 42
1.0
 92
       12
 66
     7
 43
1.0
 76
     1
 77
     6
 78
     2
 67
     7
 79
     5
170
     0
171
     0
290
     0
174
     0
 93
        1
 44
0.0
173
     0
291
     1
 45
0.0
1001
ACAD
1000
AcDbSavedByObjectVersion
1070
     0
  0
DICTIONARYVAR
  5
216
102
{ACAD_REACTORS
330
213
102
}
330
213
100
DictionaryVariables
280
     0
  1
2
  0
DICTIONARYVAR
  5
217
102
{ACAD_REACTORS
330
213
102
}
330
213
100
DictionaryVariables
280
     0
  1
1
  0
DICTIONARY
  5
23A
330
3D
100
AcDbDictionary
280
     1
281
     1
  3
ACAD_XREC_ROUNDTRIP
360
23B
  0
DICTIONARY
  5
238
330
3C
100
AcDbDictionary
280
     1
281
     1
  3
ACAD_XREC_ROUNDTRIP
360
239
  0
DICTIONARY
  5
23C
330
3E
100
AcDbDictionary
280
     1
281
     1
  3
ACAD_XREC_ROUNDTRIP
360
23D
  0
DICTIONARY
  5
220
330
2F
100
AcDbDictionary
280
     1
281
     1
  3
ACAD_XREC_ROUNDTRIP
360
221
  0
DICTIONARY
  5
224
330
31
100
AcDbDictionary
280
     1
281
     1
  3
ACAD_XREC_ROUNDTRIP
360
225
  0
DICTIONARY
  5
222
330
30
100
AcDbDictionary
280
     1
281
     1
  3
ACAD_XREC_ROUNDTRIP
360
223
  0
DICTIONARY
  5
226
330
32
100
AcDbDictionary
280
     1
281
     1
  3
ACAD_XREC_ROUNDTRIP
360
227
  0
DICTIONARY
  5
22E
330
36
100
AcDbDictionary
280
     1
281
     1
  3
ACAD_XREC_ROUNDTRIP
360
22F
  0
DICTIONARY
  5
236
330
3A
100
AcDbDictionary
280
     1
281
     1
  3
ACAD_XREC_ROUNDTRIP
360
237
  0
DICTIONARY
  5
22A
330
34
100
AcDbDictionary
280
     1
281
     1
  3
ACAD_XREC_ROUNDTRIP
360
22B
  0
DICTIONARY
  5
22C
330
35
100
AcDbDictionary
280
     1
281
     1
  3
ACAD_XREC_ROUNDTRIP
360
22D
  0
DICTIONARY
  5
234
330
39
100
AcDbDictionary
280
     1
281
     1
  3
ACAD_XREC_ROUNDTRIP
360
235
  0
DICTIONARY
  5
218
330
2B
100
AcDbDictionary
280
     1
281
     1
  3
ACAD_XREC_ROUNDTRIP
360
219
  0
DICTIONARY
  5
21A
330
2C
100
AcDbDictionary
280
     1
281
     1
  3
ACAD_XREC_ROUNDTRIP
360
21B
  0
DICTIONARY
  5
21C
330
2D
100
AcDbDictionary
280
     1
281
     1
  3
ACAD_XREC_ROUNDTRIP
360
21D
  0
DICTIONARY
  5
21E
330
2E
100
AcDbDictionary
280
     1
281
     1
  3
ACAD_XREC_ROUNDTRIP
360
21F
  0
DICTIONARY
  5
232
330
38
100
AcDbDictionary
280
     1
281
     1
  3
ACAD_XREC_ROUNDTRIP
360
233
  0
DICTIONARY
  5
228
330
33
100
AcDbDictionary
280
     1
281
     1
  3
ACAD_XREC_ROUNDTRIP
360
229
  0
DICTIONARY
  5
230
330
37
100
AcDbDictionary
280
     1
281
     1
  3
ACAD_XREC_ROUNDTRIP
360
231
  0
XRECORD
  5
23B
102
{ACAD_REACTORS
330
23A
102
}
330
23A
100
AcDbXrecord
280
     1
102
MATERIAL
148
0.0
149
0.0
149
0.0
 93
        0
 94
      127
282
     0
 72
     1
 77
     1
171
     1
175
     1
179
     1
273
     0
  0
XRECORD
  5
239
102
{ACAD_REACTORS
330
238
102
}
330
238
100
AcDbXrecord
280
     1
102
MATERIAL
148
0.0
149
0.0
149
0.0
 93
        0
 94
      127
282
     0
 72
     1
 77
     1
171
     1
175
     1
179
     1
273
     0
  0
XRECORD
  5
23D
102
{ACAD_REACTORS
330
23C
102
}
330
23C
100
AcDbXrecord
280
     1
102
MATERIAL
148
0.0
149
0.0
149
0.0
 93
        0
 94
      127
282
     0
 72
     1
 77
     1
171
     1
175
     1
179
     1
273
     0
  0
XRECORD
  5
221
102
{ACAD_REACTORS
330
220
102
}
330
220
100
AcDbXrecord
280
     1
102
RTVSPropertyOp0
 70
     1
102
RTVSPropertyOp1
 70
     1
102
RTVSPropertyOp2
 70
     1
102
RTVSPropertyOp3
 70
     1
102
RTVSPropertyOp4
 70
     1
102
RTVSPropertyOp5
 70
     1
102
RTVSPropertyOp6
 70
     1
102
RTVSPropertyOp7
 70
     1
102
RTVSPropertyOp8
 70
     1
102
RTVSPropertyOp9
 70
     1
102
RTVSPropertyOp10
 70
     1
102
RTVSPropertyOp11
 70
     1
102
RTVSPropertyOp12
 70
     1
102
RTVSPropertyOp13
 70
     1
102
RTVSPropertyOp14
 70
     1
102
RTVSPropertyOp15
 70
     1
102
RTVSPropertyOp16
 70
     1
102
RTVSPropertyOp17
 70
     1
102
RTVSPropertyOp18
 70
     1
102
RTVSPropertyOp19
 70
     1
102
RTVSPropertyOp20
 70
     1
102
RTVSPropertyOp21
 70
     1
102
RTVSPropertyOp22
 70
     1
102
RTVSPropertyOp23
 70
     1
102
RTVSPropertyOp24
 70
     1
102
RTVSPropertyOp25
 70
     1
102
RTVSPropertyOp26
 70
     1
102
RTVSPropertyOp27
 70
     1
  0
XRECORD
  5
225
102
{ACAD_REACTORS
330
224
102
}
330
224
100
AcDbXrecord
280
     1
102
RTVSPropertyOp0
 70
     1
102
RTVSPropertyOp1
 70
     1
102
RTVSPropertyOp2
 70
     1
102
RTVSPropertyOp3
 70
     1
102
RTVSPropertyOp4
 70
     1
102
RTVSPropertyOp5
 70
     1
102
RTVSPropertyOp6
 70
     1
102
RTVSPropertyOp7
 70
     1
102
RTVSPropertyOp8
 70
     1
102
RTVSPropertyOp9
 70
     1
102
RTVSPropertyOp10
 70
     1
102
RTVSPropertyOp11
 70
     1
102
RTVSPropertyOp12
 70
     1
102
RTVSPropertyOp13
 70
     1
102
RTVSPropertyOp14
 70
     1
102
RTVSPropertyOp15
 70
     1
102
RTVSPropertyOp16
 70
     1
102
RTVSPropertyOp17
 70
     1
102
RTVSPropertyOp18
 70
     1
102
RTVSPropertyOp19
 70
     1
102
RTVSPropertyOp20
 70
     1
102
RTVSPropertyOp21
 70
     1
102
RTVSPropertyOp22
 70
     1
102
RTVSPropertyOp23
 70
     1
102
RTVSPropertyOp24
 70
     1
102
RTVSPropertyOp25
 70
     1
102
RTVSPropertyOp26
 70
     1
102
RTVSPropertyOp27
 70
     1
  0
XRECORD
  5
223
102
{ACAD_REACTORS
330
222
102
}
330
222
100
AcDbXrecord
280
     1
102
RTVSPropertyOp0
 70
     1
102
RTVSPropertyOp1
 70
     1
102
RTVSPropertyOp2
 70
     1
102
RTVSPropertyOp3
 70
     1
102
RTVSPropertyOp4
 70
     1
102
RTVSPropertyOp5
 70
     1
102
RTVSPropertyOp6
 70
     1
102
RTVSPropertyOp7
 70
     1
102
RTVSPropertyOp8
 70
     1
102
RTVSPropertyOp9
 70
     1
102
RTVSPropertyOp10
 70
     1
102
RTVSPropertyOp11
 70
     1
102
RTVSPropertyOp12
 70
     1
102
RTVSPropertyOp13
 70
     1
102
RTVSPropertyOp14
 70
     1
102
RTVSPropertyOp15
 70
     1
102
RTVSPropertyOp16
 70
     1
102
RTVSPropertyOp17
 70
     1
102
RTVSPropertyOp18
 70
     1
102
RTVSPropertyOp19
 70
     1
102
RTVSPropertyOp20
 70
     1
102
RTVSPropertyOp21
 70
     1
102
RTVSPropertyOp22
 70
     1
102
RTVSPropertyOp23
 70
     1
102
RTVSPropertyOp24
 70
     1
102
RTVSPropertyOp25
 70
     1
102
RTVSPropertyOp26
 70
     1
102
RTVSPropertyOp27
 70
     1
  0
XRECORD
  5
227
102
{ACAD_REACTORS
330
226
102
}
330
226
100
AcDbXrecord
280
     1
102
RTVSPropertyOp0
 70
     1
102
RTVSPropertyOp1
 70
     1
102
RTVSPropertyOp2
 70
     1
102
RTVSPropertyOp3
 70
     1
102
RTVSPropertyOp4
 70
     1
102
RTVSPropertyOp5
 70
     1
102
RTVSPropertyOp6
 70
     1
102
RTVSPropertyOp7
 70
     1
102
RTVSPropertyOp8
 70
     1
102
RTVSPropertyOp9
 70
     1
102
RTVSPropertyOp10
 70
     1
102
RTVSPropertyOp11
 70
     1
102
RTVSPropertyOp12
 70
     1
102
RTVSPropertyOp13
 70
     1
102
RTVSPropertyOp14
 70
     1
102
RTVSPropertyOp15
 70
     1
102
RTVSPropertyOp16
 70
     1
102
RTVSPropertyOp17
 70
     1
102
RTVSPropertyOp18
 70
     1
102
RTVSPropertyOp19
 70
     1
102
RTVSPropertyOp20
 70
     1
102
RTVSPropertyOp21
 70
     1
102
RTVSPropertyOp22
 70
     1
102
RTVSPropertyOp23
 70
     1
102
RTVSPropertyOp24
 70
     1
102
RTVSPropertyOp25
 70
     1
102
RTVSPropertyOp26
 70
     1
102
RTVSPropertyOp27
 70
     1
  0
XRECORD
  5
22F
102
{ACAD_REACTORS
330
22E
102
}
330
22E
100
AcDbXrecord
280
     1
102
RTVSPropertyOp0
 70
     1
102
RTVSPropertyOp1
 70
     1
102
RTVSPropertyOp2
 70
     1
102
RTVSPropertyOp3
 70
     1
102
RTVSPropertyOp4
 70
     1
102
RTVSPropertyOp5
 70
     1
102
RTVSPropertyOp6
 70
     1
102
RTVSPropertyOp7
 70
     1
102
RTVSPropertyOp8
 70
     1
102
RTVSPropertyOp9
 70
     1
102
RTVSPropertyOp10
 70
     1
102
RTVSPropertyOp11
 70
     1
102
RTVSPropertyOp12
 70
     1
102
RTVSPropertyOp13
 70
     1
102
RTVSPropertyOp14
 70
     1
102
RTVSPropertyOp15
 70
     1
102
RTVSPropertyOp16
 70
     1
102
RTVSPropertyOp17
 70
     1
102
RTVSPropertyOp18
 70
     1
102
RTVSPropertyOp19
 70
     1
102
RTVSPropertyOp20
 70
     1
102
RTVSPropertyOp21
 70
     1
102
RTVSPropertyOp22
 70
     1
102
RTVSPropertyOp23
 70
     1
102
RTVSPropertyOp24
 70
     1
102
RTVSPropertyOp25
 70
     1
102
RTVSPropertyOp26
 70
     1
102
RTVSPropertyOp27
 70
     1
  0
XRECORD
  5
237
102
{ACAD_REACTORS
330
236
102
}
330
236
100
AcDbXrecord
280
     1
102
RTVSPropertyOp0
 70
     1
102
RTVSPropertyOp1
 70
     1
102
RTVSPropertyOp2
 70
     1
102
RTVSPropertyOp3
 70
     1
102
RTVSPropertyOp4
 70
     1
102
RTVSPropertyOp5
 70
     1
102
RTVSPropertyOp6
 70
     1
102
RTVSPropertyOp7
 70
     1
102
RTVSPropertyOp8
 70
     1
102
RTVSPropertyOp9
 70
     1
102
RTVSPropertyOp10
 70
     1
102
RTVSPropertyOp11
 70
     1
102
RTVSPropertyOp12
 70
     1
102
RTVSPropertyOp13
 70
     1
102
RTVSPropertyOp14
 70
     1
102
RTVSPropertyOp15
 70
     1
102
RTVSPropertyOp16
 70
     1
102
RTVSPropertyOp17
 70
     1
102
RTVSPropertyOp18
 70
     1
102
RTVSPropertyOp19
 70
     1
102
RTVSPropertyOp20
 70
     1
102
RTVSPropertyOp21
 70
     1
102
RTVSPropertyOp22
 70
     1
102
RTVSPropertyOp23
 70
     1
102
RTVSPropertyOp24
 70
     1
102
RTVSPropertyOp25
 70
     1
102
RTVSPropertyOp26
 70
     1
102
RTVSPropertyOp27
 70
     1
  0
XRECORD
  5
22B
102
{ACAD_REACTORS
330
22A
102
}
330
22A
100
AcDbXrecord
280
     1
102
RTVSPropertyOp0
 70
     1
102
RTVSPropertyOp1
 70
     1
102
RTVSPropertyOp2
 70
     1
102
RTVSPropertyOp3
 70
     1
102
RTVSPropertyOp4
 70
     1
102
RTVSPropertyOp5
 70
     1
102
RTVSPropertyOp6
 70
     1
102
RTVSPropertyOp7
 70
     1
102
RTVSPropertyOp8
 70
     1
102
RTVSPropertyOp9
 70
     1
102
RTVSPropertyOp10
 70
     1
102
RTVSPropertyOp11
 70
     1
102
RTVSPropertyOp12
 70
     1
102
RTVSPropertyOp13
 70
     1
102
RTVSPropertyOp14
 70
     1
102
RTVSPropertyOp15
 70
     1
102
RTVSPropertyOp16
 70
     1
102
RTVSPropertyOp17
 70
     1
102
RTVSPropertyOp18
 70
     1
102
RTVSPropertyOp19
 70
     1
102
RTVSPropertyOp20
 70
     1
102
RTVSPropertyOp21
 70
     1
102
RTVSPropertyOp22
 70
     1
102
RTVSPropertyOp23
 70
     1
102
RTVSPropertyOp24
 70
     1
102
RTVSPropertyOp25
 70
     1
102
RTVSPropertyOp26
 70
     1
102
RTVSPropertyOp27
 70
     1
  0
XRECORD
  5
22D
102
{ACAD_REACTORS
330
22C
102
}
330
22C
100
AcDbXrecord
280
     1
102
RTVSPropertyOp0
 70
     1
102
RTVSPropertyOp1
 70
     1
102
RTVSPropertyOp2
 70
     1
102
RTVSPropertyOp3
 70
     1
102
RTVSPropertyOp4
 70
     1
102
RTVSPropertyOp5
 70
     1
102
RTVSPropertyOp6
 70
     1
102
RTVSPropertyOp7
 70
     1
102
RTVSPropertyOp8
 70
     1
102
RTVSPropertyOp9
 70
     1
102
RTVSPropertyOp10
 70
     1
102
RTVSPropertyOp11
 70
     1
102
RTVSPropertyOp12
 70
     1
102
RTVSPropertyOp13
 70
     1
102
RTVSPropertyOp14
 70
     1
102
RTVSPropertyOp15
 70
     1
102
RTVSPropertyOp16
 70
     1
102
RTVSPropertyOp17
 70
     1
102
RTVSPropertyOp18
 70
     1
102
RTVSPropertyOp19
 70
     1
102
RTVSPropertyOp20
 70
     1
102
RTVSPropertyOp21
 70
     1
102
RTVSPropertyOp22
 70
     1
102
RTVSPropertyOp23
 70
     1
102
RTVSPropertyOp24
 70
     1
102
RTVSPropertyOp25
 70
     1
102
RTVSPropertyOp26
 70
     1
102
RTVSPropertyOp27
 70
     1
  0
XRECORD
  5
235
102
{ACAD_REACTORS
330
234
102
}
330
234
100
AcDbXrecord
280
     1
102
RTVSPropertyOp0
 70
     1
102
RTVSPropertyOp1
 70
     1
102
RTVSPropertyOp2
 70
     1
102
RTVSPropertyOp3
 70
     1
102
RTVSPropertyOp4
 70
     1
102
RTVSPropertyOp5
 70
     1
102
RTVSPropertyOp6
 70
     1
102
RTVSPropertyOp7
 70
     1
102
RTVSPropertyOp8
 70
     1
102
RTVSPropertyOp9
 70
     1
102
RTVSPropertyOp10
 70
     1
102
RTVSPropertyOp11
 70
     1
102
RTVSPropertyOp12
 70
     1
102
RTVSPropertyOp13
 70
     1
102
RTVSPropertyOp14
 70
     1
102
RTVSPropertyOp15
 70
     1
102
RTVSPropertyOp16
 70
     1
102
RTVSPropertyOp17
 70
     1
102
RTVSPropertyOp18
 70
     1
102
RTVSPropertyOp19
 70
     1
102
RTVSPropertyOp20
 70
     1
102
RTVSPropertyOp21
 70
     1
102
RTVSPropertyOp22
 70
     1
102
RTVSPropertyOp23
 70
     1
102
RTVSPropertyOp24
 70
     1
102
RTVSPropertyOp25
 70
     1
102
RTVSPropertyOp26
 70
     1
102
RTVSPropertyOp27
 70
     1
  0
XRECORD
  5
219
102
{ACAD_REACTORS
330
218
102
}
330
218
100
AcDbXrecord
280
     1
102
RTVSPropertyOp0
 70
     1
102
RTVSPropertyOp1
 70
     1
102
RTVSPropertyOp2
 70
     1
102
RTVSPropertyOp3
 70
     1
102
RTVSPropertyOp4
 70
     1
102
RTVSPropertyOp5
 70
     1
102
RTVSPropertyOp6
 70
     1
102
RTVSPropertyOp7
 70
     1
102
RTVSPropertyOp8
 70
     1
102
RTVSPropertyOp9
 70
     1
102
RTVSPropertyOp10
 70
     1
102
RTVSPropertyOp11
 70
     1
102
RTVSPropertyOp12
 70
     1
102
RTVSPropertyOp13
 70
     1
102
RTVSPropertyOp14
 70
     1
102
RTVSPropertyOp15
 70
     1
102
RTVSPropertyOp16
 70
     1
102
RTVSPropertyOp17
 70
     1
102
RTVSPropertyOp18
 70
     1
102
RTVSPropertyOp19
 70
     1
102
RTVSPropertyOp20
 70
     1
102
RTVSPropertyOp21
 70
     1
102
RTVSPropertyOp22
 70
     1
102
RTVSPropertyOp23
 70
     1
102
RTVSPropertyOp24
 70
     1
102
RTVSPropertyOp25
 70
     1
102
RTVSPropertyOp26
 70
     1
102
RTVSPropertyOp27
 70
     1
  0
XRECORD
  5
21B
102
{ACAD_REACTORS
330
21A
102
}
330
21A
100
AcDbXrecord
280
     1
102
RTVSPropertyOp0
 70
     1
102
RTVSPropertyOp1
 70
     1
102
RTVSPropertyOp2
 70
     1
102
RTVSPropertyOp3
 70
     1
102
RTVSPropertyOp4
 70
     1
102
RTVSPropertyOp5
 70
     1
102
RTVSPropertyOp6
 70
     1
102
RTVSPropertyOp7
 70
     1
102
RTVSPropertyOp8
 70
     1
102
RTVSPropertyOp9
 70
     1
102
RTVSPropertyOp10
 70
     1
102
RTVSPropertyOp11
 70
     1
102
RTVSPropertyOp12
 70
     1
102
RTVSPropertyOp13
 70
     1
102
RTVSPropertyOp14
 70
     1
102
RTVSPropertyOp15
 70
     1
102
RTVSPropertyOp16
 70
     1
102
RTVSPropertyOp17
 70
     1
102
RTVSPropertyOp18
 70
     1
102
RTVSPropertyOp19
 70
     1
102
RTVSPropertyOp20
 70
     1
102
RTVSPropertyOp21
 70
     1
102
RTVSPropertyOp22
 70
     1
102
RTVSPropertyOp23
 70
     1
102
RTVSPropertyOp24
 70
     1
102
RTVSPropertyOp25
 70
     1
102
RTVSPropertyOp26
 70
     1
102
RTVSPropertyOp27
 70
     1
  0
XRECORD
  5
21D
102
{ACAD_REACTORS
330
21C
102
}
330
21C
100
AcDbXrecord
280
     1
102
RTVSPropertyOp0
 70
     1
102
RTVSPropertyOp1
 70
     1
102
RTVSPropertyOp2
 70
     1
102
RTVSPropertyOp3
 70
     1
102
RTVSPropertyOp4
 70
     1
102
RTVSPropertyOp5
 70
     1
102
RTVSPropertyOp6
 70
     1
102
RTVSPropertyOp7
 70
     1
102
RTVSPropertyOp8
 70
     1
102
RTVSPropertyOp9
 70
     1
102
RTVSPropertyOp10
 70
     1
102
RTVSPropertyOp11
 70
     1
102
RTVSPropertyOp12
 70
     1
102
RTVSPropertyOp13
 70
     1
102
RTVSPropertyOp14
 70
     1
102
RTVSPropertyOp15
 70
     1
102
RTVSPropertyOp16
 70
     1
102
RTVSPropertyOp17
 70
     1
102
RTVSPropertyOp18
 70
     1
102
RTVSPropertyOp19
 70
     1
102
RTVSPropertyOp20
 70
     1
102
RTVSPropertyOp21
 70
     1
102
RTVSPropertyOp22
 70
     1
102
RTVSPropertyOp23
 70
     1
102
RTVSPropertyOp24
 70
     1
102
RTVSPropertyOp25
 70
     1
102
RTVSPropertyOp26
 70
     1
102
RTVSPropertyOp27
 70
     1
  0
XRECORD
  5
21F
102
{ACAD_REACTORS
330
21E
102
}
330
21E
100
AcDbXrecord
280
     1
102
RTVSPropertyOp0
 70
     1
102
RTVSPropertyOp1
 70
     1
102
RTVSPropertyOp2
 70
     1
102
RTVSPropertyOp3
 70
     1
102
RTVSPropertyOp4
 70
     1
102
RTVSPropertyOp5
 70
     1
102
RTVSPropertyOp6
 70
     1
102
RTVSPropertyOp7
 70
     1
102
RTVSPropertyOp8
 70
     1
102
RTVSPropertyOp9
 70
     1
102
RTVSPropertyOp10
 70
     1
102
RTVSPropertyOp11
 70
     1
102
RTVSPropertyOp12
 70
     1
102
RTVSPropertyOp13
 70
     1
102
RTVSPropertyOp14
 70
     1
102
RTVSPropertyOp15
 70
     1
102
RTVSPropertyOp16
 70
     1
102
RTVSPropertyOp17
 70
     1
102
RTVSPropertyOp18
 70
     1
102
RTVSPropertyOp19
 70
     1
102
RTVSPropertyOp20
 70
     1
102
RTVSPropertyOp21
 70
     1
102
RTVSPropertyOp22
 70
     1
102
RTVSPropertyOp23
 70
     1
102
RTVSPropertyOp24
 70
     1
102
RTVSPropertyOp25
 70
     1
102
RTVSPropertyOp26
 70
     1
102
RTVSPropertyOp27
 70
     1
  0
XRECORD
  5
233
102
{ACAD_REACTORS
330
232
102
}
330
232
100
AcDbXrecord
280
     1
102
RTVSPropertyOp0
 70
     1
102
RTVSPropertyOp1
 70
     1
102
RTVSPropertyOp2
 70
     1
102
RTVSPropertyOp3
 70
     1
102
RTVSPropertyOp4
 70
     1
102
RTVSPropertyOp5
 70
     1
102
RTVSPropertyOp6
 70
     1
102
RTVSPropertyOp7
 70
     1
102
RTVSPropertyOp8
 70
     1
102
RTVSPropertyOp9
 70
     1
102
RTVSPropertyOp10
 70
     1
102
RTVSPropertyOp11
 70
     1
102
RTVSPropertyOp12
 70
     1
102
RTVSPropertyOp13
 70
     1
102
RTVSPropertyOp14
 70
     1
102
RTVSPropertyOp15
 70
     1
102
RTVSPropertyOp16
 70
     1
102
RTVSPropertyOp17
 70
     1
102
RTVSPropertyOp18
 70
     1
102
RTVSPropertyOp19
 70
     1
102
RTVSPropertyOp20
 70
     1
102
RTVSPropertyOp21
 70
     1
102
RTVSPropertyOp22
 70
     1
102
RTVSPropertyOp23
 70
     1
102
RTVSPropertyOp24
 70
     1
102
RTVSPropertyOp25
 70
     1
102
RTVSPropertyOp26
 70
     1
102
RTVSPropertyOp27
 70
     1
  0
XRECORD
  5
229
102
{ACAD_REACTORS
330
228
102
}
330
228
100
AcDbXrecord
280
     1
102
RTVSPropertyOp0
 70
     1
102
RTVSPropertyOp1
 70
     1
102
RTVSPropertyOp2
 70
     1
102
RTVSPropertyOp3
 70
     1
102
RTVSPropertyOp4
 70
     1
102
RTVSPropertyOp5
 70
     1
102
RTVSPropertyOp6
 70
     1
102
RTVSPropertyOp7
 70
     1
102
RTVSPropertyOp8
 70
     1
102
RTVSPropertyOp9
 70
     1
102
RTVSPropertyOp10
 70
     1
102
RTVSPropertyOp11
 70
     1
102
RTVSPropertyOp12
 70
     1
102
RTVSPropertyOp13
 70
     1
102
RTVSPropertyOp14
 70
     1
102
RTVSPropertyOp15
 70
     1
102
RTVSPropertyOp16
 70
     1
102
RTVSPropertyOp17
 70
     1
102
RTVSPropertyOp18
 70
     1
102
RTVSPropertyOp19
 70
     1
102
RTVSPropertyOp20
 70
     1
102
RTVSPropertyOp21
 70
     1
102
RTVSPropertyOp22
 70
     1
102
RTVSPropertyOp23
 70
     1
102
RTVSPropertyOp24
 70
     1
102
RTVSPropertyOp25
 70
     1
102
RTVSPropertyOp26
 70
     1
102
RTVSPropertyOp27
 70
     1
  0
XRECORD
  5
231
102
{ACAD_REACTORS
330
230
102
}
330
230
100
AcDbXrecord
280
     1
102
RTVSPropertyOp0
 70
     1
102
RTVSPropertyOp1
 70
     1
102
RTVSPropertyOp2
 70
     1
102
RTVSPropertyOp3
 70
     1
102
RTVSPropertyOp4
 70
     1
102
RTVSPropertyOp5
 70
     1
102
RTVSPropertyOp6
 70
     1
102
RTVSPropertyOp7
 70
     1
102
RTVSPropertyOp8
 70
     1
102
RTVSPropertyOp9
 70
     1
102
RTVSPropertyOp10
 70
     1
102
RTVSPropertyOp11
 70
     1
102
RTVSPropertyOp12
 70
     1
102
RTVSPropertyOp13
 70
     1
102
RTVSPropertyOp14
 70
     1
102
RTVSPropertyOp15
 70
     1
102
RTVSPropertyOp16
 70
     1
102
RTVSPropertyOp17
 70
     1
102
RTVSPropertyOp18
 70
     1
102
RTVSPropertyOp19
 70
     1
102
RTVSPropertyOp20
 70
     1
102
RTVSPropertyOp21
 70
     1
102
RTVSPropertyOp22
 70
     1
102
RTVSPropertyOp23
 70
     1
102
RTVSPropertyOp24
 70
     1
102
RTVSPropertyOp25
 70
     1
102
RTVSPropertyOp26
 70
     1
102
RTVSPropertyOp27
 70
     1
  0
ENDSEC
  0
EOF
