  0
SECTION
  2
HEADER
  9
$ACADVER
  1
AC1015
  9
$ACADMAINTVER
 70
     6
  9
$DWGCODEPAGE
  3
ANSI_932
  9
$INSBASE
 10
0.0
 20
0.0
 30
0.0
  9
$EXTMIN
 10
75.72485672407208
 20
154.0
 30
0.0
  9
$EXTMAX
 10
317.9999873064534
 20
566.0
 30
0.0
  9
$LIMMIN
 10
0.0
 20
0.0
  9
$LIMMAX
 10
12.0
 20
9.0
  9
$ORTHOMODE
 70
     0
  9
$REGENMODE
 70
     1
  9
$FILLMODE
 70
     1
  9
$QTEXTMODE
 70
     0
  9
$MIRRTEXT
 70
     1
  9
$LTSCALE
 40
1.0
  9
$ATTMODE
 70
     1
  9
$TEXTSIZE
 40
0.2
  9
$TRACEWID
 40
0.05
  9
$TEXTSTYLE
  7
Standard
  9
$CLAYER
  8
0
  9
$CELTYPE
  6
ByLayer
  9
$CECOLOR
 62
   256
  9
$CELTSCALE
 40
1.0
  9
$DISPSILH
 70
     0
  9
$DIMSCALE
 40
1.0
  9
$DIMASZ
 40
0.18
  9
$DIMEXO
 40
0.0625
  9
$DIMDLI
 40
0.38
  9
$DIMRND
 40
0.0
  9
$DIMDLE
 40
0.0
  9
$DIMEXE
 40
0.18
  9
$DIMTP
 40
0.0
  9
$DIMTM
 40
0.0
  9
$DIMTXT
 40
0.18
  9
$DIMCEN
 40
0.09
  9
$DIMTSZ
 40
0.0
  9
$DIMTOL
 70
     0
  9
$DIMLIM
 70
     0
  9
$DIMTIH
 70
     1
  9
$DIMTOH
 70
     1
  9
$DIMSE1
 70
     0
  9
$DIMSE2
 70
     0
  9
$DIMTAD
 70
     0
  9
$DIMZIN
 70
     0
  9
$DIMBLK
  1

  9
$DIMASO
 70
     1
  9
$DIMSHO
 70
     1
  9
$DIMPOST
  1

  9
$DIMAPOST
  1

  9
$DIMALT
 70
     0
  9
$DIMALTD
 70
     2
  9
$DIMALTF
 40
25.4
  9
$DIMLFAC
 40
1.0
  9
$DIMTOFL
 70
     0
  9
$DIMTVP
 40
0.0
  9
$DIMTIX
 70
     0
  9
$DIMSOXD
 70
     0
  9
$DIMSAH
 70
     0
  9
$DIMBLK1
  1

  9
$DIMBLK2
  1

  9
$DIMSTYLE
  2
Standard
  9
$DIMCLRD
 70
     0
  9
$DIMCLRE
 70
     0
  9
$DIMCLRT
 70
     0
  9
$DIMTFAC
 40
1.0
  9
$DIMGAP
 40
0.09
  9
$DIMJUST
 70
     0
  9
$DIMSD1
 70
     0
  9
$DIMSD2
 70
     0
  9
$DIMTOLJ
 70
     1
  9
$DIMTZIN
 70
     0
  9
$DIMALTZ
 70
     0
  9
$DIMALTTZ
 70
     0
  9
$DIMUPT
 70
     0
  9
$DIMDEC
 70
     4
  9
$DIMTDEC
 70
     4
  9
$DIMALTU
 70
     2
  9
$DIMALTTD
 70
     2
  9
$DIMTXSTY
  7
Standard
  9
$DIMAUNIT
 70
     0
  9
$DIMADEC
 70
     0
  9
$DIMALTRND
 40
0.0
  9
$DIMAZIN
 70
     0
  9
$DIMDSEP
 70
    46
  9
$DIMATFIT
 70
     3
  9
$DIMFRAC
 70
     0
  9
$DIMLDRBLK
  1

  9
$DIMLUNIT
 70
     2
  9
$DIMLWD
 70
    -2
  9
$DIMLWE
 70
    -2
  9
$DIMTMOVE
 70
     0
  9
$LUNITS
 70
     2
  9
$LUPREC
 70
     4
  9
$SKETCHINC
 40
0.1
  9
$FILLETRAD
 40
0.5
  9
$AUNITS
 70
     0
  9
$AUPREC
 70
     0
  9
$MENU
  1
.
  9
$ELEVATION
 40
0.0
  9
$PELEVATION
 40
0.0
  9
$THICKNESS
 40
0.0
  9
$LIMCHECK
 70
     0
  9
$CHAMFERA
 40
0.5
  9
$CHAMFERB
 40
0.5
  9
$CHAMFERC
 40
1.0
  9
$CHAMFERD
 40
0.0
  9
$SKPOLY
 70
     0
  9
$TDCREATE
 40
2458527.327573704
  9
$TDUCREATE
 40
2458526.952573704
  9
$TDUPDATE
 40
2458527.327573715
  9
$TDUUPDATE
 40
2458526.952573715
  9
$TDINDWG
 40
0.0000000116
  9
$TDUSRTIMER
 40
0.0000000116
  9
$USRTIMER
 70
     1
  9
$ANGBASE
 50
0.0
  9
$ANGDIR
 70
     0
  9
$PDMODE
 70
     0
  9
$PDSIZE
 40
0.0
  9
$PLINEWID
 40
0.0
  9
$SPLFRAME
 70
     0
  9
$SPLINETYPE
 70
     6
  9
$SPLINESEGS
 70
     8
  9
$HANDSEED
  5
500
  9
$SURFTAB1
 70
     6
  9
$SURFTAB2
 70
     6
  9
$SURFTYPE
 70
     6
  9
$SURFU
 70
     6
  9
$SURFV
 70
     6
  9
$UCSBASE
  2

  9
$UCSNAME
  2

  9
$UCSORG
 10
0.0
 20
0.0
 30
0.0
  9
$UCSXDIR
 10
1.0
 20
0.0
 30
0.0
  9
$UCSYDIR
 10
0.0
 20
1.0
 30
0.0
  9
$UCSORTHOREF
  2

  9
$UCSORTHOVIEW
 70
     0
  9
$UCSORGTOP
 10
0.0
 20
0.0
 30
0.0
  9
$UCSORGBOTTOM
 10
0.0
 20
0.0
 30
0.0
  9
$UCSORGLEFT
 10
0.0
 20
0.0
 30
0.0
  9
$UCSORGRIGHT
 10
0.0
 20
0.0
 30
0.0
  9
$UCSORGFRONT
 10
0.0
 20
0.0
 30
0.0
  9
$UCSORGBACK
 10
0.0
 20
0.0
 30
0.0
  9
$PUCSBASE
  2

  9
$PUCSNAME
  2

  9
$PUCSORG
 10
0.0
 20
0.0
 30
0.0
  9
$PUCSXDIR
 10
1.0
 20
0.0
 30
0.0
  9
$PUCSYDIR
 10
0.0
 20
1.0
 30
0.0
  9
$PUCSORTHOREF
  2

  9
$PUCSORTHOVIEW
 70
     0
  9
$PUCSORGTOP
 10
0.0
 20
0.0
 30
0.0
  9
$PUCSORGBOTTOM
 10
0.0
 20
0.0
 30
0.0
  9
$PUCSORGLEFT
 10
0.0
 20
0.0
 30
0.0
  9
$PUCSORGRIGHT
 10
0.0
 20
0.0
 30
0.0
  9
$PUCSORGFRONT
 10
0.0
 20
0.0
 30
0.0
  9
$PUCSORGBACK
 10
0.0
 20
0.0
 30
0.0
  9
$USERI1
 70
     0
  9
$USERI2
 70
     0
  9
$USERI3
 70
     0
  9
$USERI4
 70
     0
  9
$USERI5
 70
     0
  9
$USERR1
 40
18.0
  9
$USERR2
 40
0.0
  9
$USERR3
 40
0.0
  9
$USERR4
 40
0.0
  9
$USERR5
 40
0.0
  9
$WORLDVIEW
 70
     1
  9
$SHADEDGE
 70
     3
  9
$SHADEDIF
 70
    70
  9
$TILEMODE
 70
     1
  9
$MAXACTVP
 70
    64
  9
$PINSBASE
 10
0.0
 20
0.0
 30
0.0
  9
$PLIMCHECK
 70
     0
  9
$PEXTMIN
 10
1.00000000000000E+20
 20
1.00000000000000E+20
 30
1.00000000000000E+20
  9
$PEXTMAX
 10
-1.00000000000000E+20
 20
-1.00000000000000E+20
 30
-1.00000000000000E+20
  9
$PLIMMIN
 10
0.0
 20
0.0
  9
$PLIMMAX
 10
12.0
 20
9.0
  9
$UNITMODE
 70
     0
  9
$VISRETAIN
 70
     1
  9
$PLINEGEN
 70
     0
  9
$PSLTSCALE
 70
     1
  9
$TREEDEPTH
 70
  3020
  9
$CMLSTYLE
  2
Standard
  9
$CMLJUST
 70
     0
  9
$CMLSCALE
 40
1.0
  9
$PROXYGRAPHICS
 70
     1
  9
$MEASUREMENT
 70
     1
  9
$CELWEIGHT
370
    -1
  9
$ENDCAPS
280
     0
  9
$JOINSTYLE
280
     0
  9
$LWDISPLAY
290
     0
  9
$INSUNITS
 70
     1
  9
$HYPERLINKBASE
  1

  9
$STYLESHEET
  1

  9
$XEDIT
290
     1
  9
$CEPSNTYPE
380
     0
  9
$PSTYLEMODE
290
     1
  9
$FINGERPRINTGUID
  2
{3F041587-F8AA-41B4-A27C-DCC60F633D63}
  9
$VERSIONGUID
  2
{FAEB1C32-E019-11D5-929B-00C0DF256EC4}
  9
$EXTNAMES
290
     1
  9
$PSVPSCALE
 40
0.0
  9
$OLESTARTUP
290
     0
  0
ENDSEC
  0
SECTION
  2
CLASSES
  0
CLASS
  1
ACDBDICTIONARYWDFLT
  2
AcDbDictionaryWithDefault
  3
ObjectDBX Classes
 90
        0
280
     0
281
     0
  0
CLASS
  1
VISUALSTYLE
  2
AcDbVisualStyle
  3
ObjectDBX Classes
 90
     4095
280
     0
281
     0
  0
CLASS
  1
MATERIAL
  2
AcDbMaterial
  3
ObjectDBX Classes
 90
     1153
280
     0
281
     0
  0
CLASS
  1

  2
exOdDbCircle
  3

 90
        0
280
     0
281
     1
  0
CLASS
  1

  2
exOdDbSpline
  3

 90
        0
280
     0
281
     1
  0
CLASS
  1

  2
exOdDbPolyline
  3

 90
        0
280
     0
281
     1
  0
CLASS
  1
DICTIONARYVAR
  2
AcDbDictionaryVar
  3
ObjectDBX Classes
 90
        0
280
     0
281
     0
  0
CLASS
  1
ACDBPLACEHOLDER
  2
AcDbPlaceHolder
  3
ObjectDBX Classes
 90
        0
280
     0
281
     0
  0
CLASS
  1
LAYOUT
  2
AcDbLayout
  3
ObjectDBX Classes
 90
        0
280
     0
281
     0
  0
ENDSEC
  0
SECTION
  2
TABLES
  0
TABLE
  2
VPORT
  5
8
330
0
100
AcDbSymbolTable
 70
     1
  0
VPORT
  5
29
330
8
100
AcDbSymbolTableRecord
100
AcDbViewportTableRecord
  2
*Active
 70
     0
 10
0.0
 20
0.0
 11
1.0
 21
1.0
 12
196.8624220152628
 22
360.0
 13
0.0
 23
0.0
 14
0.5
 24
0.5
 15
0.5
 25
0.5
 16
0.0
 26
0.0
 36
1.0
 17
0.0
 27
0.0
 37
0.0
 40
453.2
 41
1.60267857142857
 42
50.0
 43
0.0
 44
0.0
 50
0.0
 51
0.0
 71
     0
 72
   100
 73
     1
 74
     3
 75
     0
 76
     0
 77
     0
 78
     0
281
     0
 65
     1
110
0.0
120
0.0
130
0.0
111
1.0
121
0.0
131
0.0
112
0.0
122
1.0
132
0.0
 79
     0
146
0.0
  0
ENDTAB
  0
TABLE
  2
LTYPE
  5
5
330
0
100
AcDbSymbolTable
 70
     9
  0
LTYPE
  5
14
330
5
100
AcDbSymbolTableRecord
100
AcDbLinetypeTableRecord
  2
ByBlock
 70
     0
  3

 72
    65
 73
     0
 40
0.0
  0
LTYPE
  5
15
330
5
100
AcDbSymbolTableRecord
100
AcDbLinetypeTableRecord
  2
ByLayer
 70
     0
  3

 72
    65
 73
     0
 40
0.0
  0
LTYPE
  5
16
330
5
100
AcDbSymbolTableRecord
100
AcDbLinetypeTableRecord
  2
Continuous
 70
     0
  3
Solid line
 72
    65
 73
     0
 40
0.0
  0
LTYPE
  5
3F
330
5
100
AcDbSymbolTableRecord
100
AcDbLinetypeTableRecord
  2
DASHED
 70
     0
  3
Dashed
 72
    65
 73
     2
 40
15.0
 49
7.0
 74
     0
 49
-8.0
 74
     0
  0
LTYPE
  5
40
330
5
100
AcDbSymbolTableRecord
100
AcDbLinetypeTableRecord
  2
DOTTED
 70
     0
  3
Dotted
 72
    65
 73
     2
 40
1.0
 49
0.0
 74
     0
 49
-1.0
 74
     0
  0
LTYPE
  5
41
330
5
100
AcDbSymbolTableRecord
100
AcDbLinetypeTableRecord
  2
DOT_CENTER
 70
     0
  3
Dot_Center
 72
    65
 73
     4
 40
14.0
 49
12.0
 74
     0
 49
-1.0
 74
     0
 49
0.0
 74
     0
 49
-1.0
 74
     0
  0
LTYPE
  5
42
330
5
100
AcDbSymbolTableRecord
100
AcDbLinetypeTableRecord
  2
LONG_DASHED
 70
     0
  3
Long_Dashed
 72
    65
 73
     2
 40
15.0
 49
10.0
 74
     0
 49
-5.0
 74
     0
  0
LTYPE
  5
43
330
5
100
AcDbSymbolTableRecord
100
AcDbLinetypeTableRecord
  2
DASH_CENTER
 70
     0
  3
Dash_Center
 72
    65
 73
     4
 40
14.0
 49
11.0
 74
     0
 49
-1.0
 74
     0
 49
1.0
 74
     0
 49
-1.0
 74
     0
  0
LTYPE
  5
44
330
5
100
AcDbSymbolTableRecord
100
AcDbLinetypeTableRecord
  2
PHANTOM
 70
     0
  3
Phantom
 72
    65
 73
     6
 40
13.0
 49
10.0
 74
     0
 49
-1.0
 74
     0
 49
0.0
 74
     0
 49
-1.0
 74
     0
 49
0.0
 74
     0
 49
-1.0
 74
     0
  0
LTYPE
  5
45
330
5
100
AcDbSymbolTableRecord
100
AcDbLinetypeTableRecord
  2
CENTER_DASH_DASH
 70
     0
  3
Center_Dash_Dash
 72
    65
 73
     6
 40
14.0
 49
9.0
 74
     0
 49
-1.0
 74
     0
 49
1.0
 74
     0
 49
-1.0
 74
     0
 49
1.0
 74
     0
 49
-1.0
 74
     0
  0
LTYPE
  5
46
330
5
100
AcDbSymbolTableRecord
100
AcDbLinetypeTableRecord
  2
CENTER
 70
     0
  3
CENTER
 72
    65
 73
     4
 40
6.0
 49
3.0
 74
     0
 49
-1.0
 74
     0
 49
1.0
 74
     0
 49
-1.0
 74
     0
  0
ENDTAB
  0
TABLE
  2
LAYER
  5
2
330
0
100
AcDbSymbolTable
 70
     5
  0
LAYER
  5
10
330
2
100
AcDbSymbolTableRecord
100
AcDbLayerTableRecord
  2
0
 70
     0
 62
     7
  6
Continuous
370
    -3
390
F
  0
LAYER
  5
47
330
2
100
AcDbSymbolTableRecord
100
AcDbLayerTableRecord
  2
1
 70
     0
 62
     7
  6
Continuous
370
    -3
390
F
  0
LAYER
  5
48
330
2
100
AcDbSymbolTableRecord
100
AcDbLayerTableRecord
  2
2
 70
     0
 62
     7
  6
Continuous
370
    -3
390
F
  0
LAYER
  5
49
330
2
100
AcDbSymbolTableRecord
100
AcDbLayerTableRecord
  2
3
 70
     0
 62
     7
  6
Continuous
370
    -3
390
F
  0
LAYER
  5
4A
330
2
100
AcDbSymbolTableRecord
100
AcDbLayerTableRecord
  2
5
 70
     0
 62
     7
  6
Continuous
370
    -3
390
F
  0
ENDTAB
  0
TABLE
  2
STYLE
  5
3
330
0
100
AcDbSymbolTable
 70
     1
  0
STYLE
  5
11
330
3
100
AcDbSymbolTableRecord
100
AcDbTextStyleTableRecord
  2
Standard
 70
     0
 40
0.0
 41
1.0
 50
0.0
 71
     0
 42
0.2
  3
txt
  4

  0
ENDTAB
  0
TABLE
  2
VIEW
  5
6
330
0
100
AcDbSymbolTable
 70
     0
  0
ENDTAB
  0
TABLE
  2
UCS
  5
7
330
0
100
AcDbSymbolTable
 70
     0
  0
ENDTAB
  0
TABLE
  2
APPID
  5
9
330
0
100
AcDbSymbolTable
 70
     1
  0
APPID
  5
12
330
9
100
AcDbSymbolTableRecord
100
AcDbRegAppTableRecord
  2
ACAD
 70
     0
  0
ENDTAB
  0
TABLE
  2
DIMSTYLE
  5
A
330
0
100
AcDbSymbolTable
 70
     1
100
AcDbDimStyleTable
  0
DIMSTYLE
105
27
330
A
100
AcDbSymbolTableRecord
100
AcDbDimStyleTableRecord
  2
Standard
 70
     0
340
11
  0
ENDTAB
  0
TABLE
  2
BLOCK_RECORD
  5
1
330
0
100
AcDbSymbolTable
 70
     1
  0
BLOCK_RECORD
  5
1F
330
1
100
AcDbSymbolTableRecord
100
AcDbBlockTableRecord
  2
*Model_Space
340
22
  0
BLOCK_RECORD
  5
1B
330
1
100
AcDbSymbolTableRecord
100
AcDbBlockTableRecord
  2
*Paper_Space
340
1E
  0
BLOCK_RECORD
  5
23
330
1
100
AcDbSymbolTableRecord
100
AcDbBlockTableRecord
  2
*Paper_Space0
340
26
  0
ENDTAB
  0
ENDSEC
  0
SECTION
  2
BLOCKS
  0
BLOCK
  5
20
330
1F
100
AcDbEntity
  8
0
100
AcDbBlockBegin
  2
*Model_Space
 70
     0
 10
0.0
 20
0.0
 30
0.0
  3
*Model_Space
  1

  0
ENDBLK
  5
21
330
1F
100
AcDbEntity
  8
0
100
AcDbBlockEnd
  0
BLOCK
  5
1C
330
1B
100
AcDbEntity
 67
     1
  8
0
100
AcDbBlockBegin
  2
*Paper_Space
 70
     0
 10
0.0
 20
0.0
 30
0.0
  3
*Paper_Space
  1

  0
ENDBLK
  5
1D
330
1B
100
AcDbEntity
 67
     1
  8
0
100
AcDbBlockEnd
  0
BLOCK
  5
24
330
23
100
AcDbEntity
  8
0
100
AcDbBlockBegin
  2
*Paper_Space0
 70
     0
 10
0.0
 20
0.0
 30
0.0
  3
*Paper_Space0
  1

  0
ENDBLK
  5
25
330
23
100
AcDbEntity
  8
0
100
AcDbBlockEnd
  0
ENDSEC
  0
SECTION
  2
ENTITIES
  0
LINE
  5
4B
330
1F
100
AcDbEntity
  8
1
  6
Continuous
 62
     4
100
AcDbLine
 10
170.1764705882353
 20
168.0
 30
0.0
 11
172.1176470588235
 21
168.0
 31
0.0
  0
LINE
  5
4C
330
1F
100
AcDbEntity
  8
1
  6
Continuous
 62
     4
100
AcDbLine
 10
170.3529411764706
 20
168.5
 30
0.0
 11
170.1764705882353
 21
168.0
 31
0.0
  0
LINE
  5
4D
330
1F
100
AcDbEntity
  8
1
  6
Continuous
 62
     4
100
AcDbLine
 10
170.5294117647059
 20
168.8
 30
0.0
 11
170.3529411764706
 21
168.5
 31
0.0
  0
LINE
  5
4E
330
1F
100
AcDbEntity
  8
1
  6
Continuous
 62
     4
100
AcDbLine
 10
170.8823529411765
 20
169.1
 30
0.0
 11
170.5294117647059
 21
168.8
 31
0.0
  0
LINE
  5
4F
330
1F
100
AcDbEntity
  8
1
  6
Continuous
 62
     4
100
AcDbLine
 10
171.2352941176471
 20
169.3
 30
0.0
 11
170.8823529411765
 21
169.1
 31
0.0
  0
LINE
  5
50
330
1F
100
AcDbEntity
  8
1
  6
Continuous
 62
     4
100
AcDbLine
 10
171.6764705882353
 20
169.6
 30
0.0
 11
171.2352941176471
 21
169.3
 31
0.0
  0
LINE
  5
51
330
1F
100
AcDbEntity
  8
1
  6
Continuous
 62
     4
100
AcDbLine
 10
171.9411764705882
 20
170.0
 30
0.0
 11
171.6764705882353
 21
169.6
 31
0.0
  0
LINE
  5
52
330
1F
100
AcDbEntity
  8
1
  6
Continuous
 62
     4
100
AcDbLine
 10
172.0294117647059
 20
170.4
 30
0.0
 11
171.9411764705882
 21
170.0
 31
0.0
  0
LINE
  5
53
330
1F
100
AcDbEntity
  8
1
  6
Continuous
 62
     4
100
AcDbLine
 10
171.6764705882353
 20
170.8
 30
0.0
 11
172.0294117647059
 21
170.4
 31
0.0
  0
LINE
  5
54
330
1F
100
AcDbEntity
  8
1
  6
Continuous
 62
     4
100
AcDbLine
 10
171.1470588235294
 20
171.0
 30
0.0
 11
171.6764705882353
 21
170.8
 31
0.0
  0
LINE
  5
55
330
1F
100
AcDbEntity
  8
1
  6
Continuous
 62
     4
100
AcDbLine
 10
170.6176470588235
 20
170.8
 30
0.0
 11
171.1470588235294
 21
171.0
 31
0.0
  0
LINE
  5
56
330
1F
100
AcDbEntity
  8
1
  6
Continuous
 62
     4
100
AcDbLine
 10
170.264705882353
 20
170.4
 30
0.0
 11
170.6176470588235
 21
170.8
 31
0.0
  0
LINE
  5
57
330
1F
100
AcDbEntity
  8
1
  6
Continuous
 62
     4
100
AcDbLine
 10
169.2941176470588
 20
170.7
 30
0.0
 11
167.4411764705882
 21
168.5
 31
0.0
  0
LINE
  5
58
330
1F
100
AcDbEntity
  8
1
  6
Continuous
 62
     4
100
AcDbLine
 10
166.5588235294118
 20
171.0
 30
0.0
 11
166.5588235294118
 21
168.0
 31
0.0
  0
LINE
  5
59
330
1F
100
AcDbEntity
  8
1
  6
Continuous
 62
     4
100
AcDbLine
 10
166.1176470588235
 20
170.7
 30
0.0
 11
166.5588235294118
 21
171.0
 31
0.0
  0
LINE
  5
5A
330
1F
100
AcDbEntity
  8
1
  6
Continuous
 62
     4
100
AcDbLine
 10
165.0588235294118
 20
168.3
 30
0.0
 11
165.2352941176471
 21
168.6
 31
0.0
  0
LINE
  5
5B
330
1F
100
AcDbEntity
  8
1
  6
Continuous
 62
     4
100
AcDbLine
 10
164.7941176470588
 20
168.1
 30
0.0
 11
165.0588235294118
 21
168.3
 31
0.0
  0
LINE
  5
5C
330
1F
100
AcDbEntity
  8
1
  6
Continuous
 62
     4
100
AcDbLine
 10
164.4411764705883
 20
168.0
 30
0.0
 11
164.7941176470588
 21
168.1
 31
0.0
  0
LINE
  5
5D
330
1F
100
AcDbEntity
  8
1
  6
Continuous
 62
     4
100
AcDbLine
 10
164.1764705882353
 20
168.0
 30
0.0
 11
164.4411764705883
 21
168.0
 31
0.0
  0
LINE
  5
5E
330
1F
100
AcDbEntity
  8
1
  6
Continuous
 62
     4
100
AcDbLine
 10
164.0
 20
168.1
 30
0.0
 11
164.1764705882353
 21
168.0
 31
0.0
  0
LINE
  5
5F
330
1F
100
AcDbEntity
  8
1
  6
Continuous
 62
     4
100
AcDbLine
 10
163.9117647058824
 20
168.3
 30
0.0
 11
164.0
 21
168.1
 31
0.0
  0
LINE
  5
60
330
1F
100
AcDbEntity
  8
1
  6
Continuous
 62
     4
100
AcDbLine
 10
163.8235294117647
 20
168.6
 30
0.0
 11
163.9117647058824
 21
168.3
 31
0.0
  0
LINE
  5
61
330
1F
100
AcDbEntity
  8
1
  6
Continuous
 62
     4
100
AcDbLine
 10
163.7352941176471
 20
169.0
 30
0.0
 11
163.8235294117647
 21
168.6
 31
0.0
  0
LINE
  5
62
330
1F
100
AcDbEntity
  8
1
  6
Continuous
 62
     4
100
AcDbLine
 10
163.8235294117647
 20
169.5
 30
0.0
 11
163.7352941176471
 21
169.0
 31
0.0
  0
LINE
  5
63
330
1F
100
AcDbEntity
  8
1
  6
Continuous
 62
     4
100
AcDbLine
 10
163.9117647058824
 20
169.8
 30
0.0
 11
163.8235294117647
 21
169.5
 31
0.0
  0
LINE
  5
64
330
1F
100
AcDbEntity
  8
1
  6
Continuous
 62
     4
100
AcDbLine
 10
164.0882352941177
 20
170.1
 30
0.0
 11
163.9117647058824
 21
169.8
 31
0.0
  0
LINE
  5
65
330
1F
100
AcDbEntity
  8
1
  6
Continuous
 62
     4
100
AcDbLine
 10
164.4411764705883
 20
170.2
 30
0.0
 11
164.0882352941177
 21
170.1
 31
0.0
  0
LINE
  5
66
330
1F
100
AcDbEntity
  8
1
  6
Continuous
 62
     4
100
AcDbLine
 10
164.7941176470588
 20
170.1
 30
0.0
 11
164.4411764705883
 21
170.2
 31
0.0
  0
LINE
  5
67
330
1F
100
AcDbEntity
  8
1
  6
Continuous
 62
     4
100
AcDbLine
 10
165.0588235294118
 20
169.9
 30
0.0
 11
164.7941176470588
 21
170.1
 31
0.0
  0
LINE
  5
68
330
1F
100
AcDbEntity
  8
1
  6
Continuous
 62
     4
100
AcDbLine
 10
165.2352941176471
 20
169.7
 30
0.0
 11
165.0588235294118
 21
169.9
 31
0.0
  0
LINE
  5
69
330
1F
100
AcDbEntity
  8
1
  6
Continuous
 62
     4
100
AcDbLine
 10
161.0
 20
169.4
 30
0.0
 11
161.0
 21
171.0
 31
0.0
  0
LINE
  5
6A
330
1F
100
AcDbEntity
  8
1
  6
Continuous
 62
     4
100
AcDbLine
 10
162.1470588235294
 20
169.4
 30
0.0
 11
162.8529411764706
 21
168.0
 31
0.0
  0
LINE
  5
6B
330
1F
100
AcDbEntity
  8
1
  6
Continuous
 62
     4
100
AcDbLine
 10
162.1470588235294
 20
169.4
 30
0.0
 11
161.0
 21
169.4
 31
0.0
  0
LINE
  5
6C
330
1F
100
AcDbEntity
  8
1
  6
Continuous
 62
     4
100
AcDbLine
 10
162.5
 20
169.6
 30
0.0
 11
162.1470588235294
 21
169.4
 31
0.0
  0
LINE
  5
6D
330
1F
100
AcDbEntity
  8
1
  6
Continuous
 62
     4
100
AcDbLine
 10
162.6764705882353
 20
169.8
 30
0.0
 11
162.5
 21
169.6
 31
0.0
  0
LINE
  5
6E
330
1F
100
AcDbEntity
  8
1
  6
Continuous
 62
     4
100
AcDbLine
 10
162.7647058823529
 20
170.2
 30
0.0
 11
162.6764705882353
 21
169.8
 31
0.0
  0
LINE
  5
6F
330
1F
100
AcDbEntity
  8
1
  6
Continuous
 62
     4
100
AcDbLine
 10
162.6764705882353
 20
170.5
 30
0.0
 11
162.7647058823529
 21
170.2
 31
0.0
  0
LINE
  5
70
330
1F
100
AcDbEntity
  8
1
  6
Continuous
 62
     4
100
AcDbLine
 10
162.5
 20
170.8
 30
0.0
 11
162.6764705882353
 21
170.5
 31
0.0
  0
LINE
  5
71
330
1F
100
AcDbEntity
  8
1
  6
Continuous
 62
     4
100
AcDbLine
 10
162.1470588235294
 20
171.0
 30
0.0
 11
162.5
 21
170.8
 31
0.0
  0
LINE
  5
72
330
1F
100
AcDbEntity
  8
1
  6
Continuous
 62
     4
100
AcDbLine
 10
161.0
 20
171.0
 30
0.0
 11
162.1470588235294
 21
171.0
 31
0.0
  0
LINE
  5
73
330
1F
100
AcDbEntity
  8
1
  6
Continuous
 62
     4
100
AcDbLine
 10
161.0
 20
168.0
 30
0.0
 11
161.0
 21
169.4
 31
0.0
  0
LINE
  5
74
330
1F
100
AcDbEntity
  8
1
  6
Continuous
 62
     4
100
AcDbLine
 10
107.9117647058824
 20
220.6
 30
0.0
 11
109.2352941176471
 21
220.6
 31
0.0
  0
LINE
  5
75
330
1F
100
AcDbEntity
  8
1
  6
Continuous
 62
     4
100
AcDbLine
 10
107.2941176470588
 20
218.7
 30
0.0
 11
107.2941176470588
 21
220.1
 31
0.0
  0
LINE
  5
76
330
1F
100
AcDbEntity
  8
1
  6
Continuous
 62
     4
100
AcDbLine
 10
108.7941176470588
 20
218.7
 30
0.0
 11
107.2941176470588
 21
218.7
 31
0.0
  0
LINE
  5
77
330
1F
100
AcDbEntity
  8
1
  6
Continuous
 62
     4
100
AcDbLine
 10
108.7941176470588
 20
220.1
 30
0.0
 11
108.7941176470588
 21
218.7
 31
0.0
  0
LINE
  5
78
330
1F
100
AcDbEntity
  8
1
  6
Continuous
 62
     4
100
AcDbLine
 10
107.2941176470588
 20
220.1
 30
0.0
 11
108.7941176470588
 21
220.1
 31
0.0
  0
LINE
  5
79
330
1F
100
AcDbEntity
  8
1
  6
Continuous
 62
     4
100
AcDbLine
 10
108.9705882352941
 20
218.0
 30
0.0
 11
108.5294117647059
 21
218.1
 31
0.0
  0
LINE
  5
7A
330
1F
100
AcDbEntity
  8
1
  6
Continuous
 62
     4
100
AcDbLine
 10
109.2352941176471
 20
218.3
 30
0.0
 11
108.9705882352941
 21
218.0
 31
0.0
  0
LINE
  5
7B
330
1F
100
AcDbEntity
  8
1
  6
Continuous
 62
     4
100
AcDbLine
 10
109.2352941176471
 20
220.6
 30
0.0
 11
109.2352941176471
 21
218.3
 31
0.0
  0
LINE
  5
7C
330
1F
100
AcDbEntity
  8
1
  6
Continuous
 62
     4
100
AcDbLine
 10
106.8529411764706
 20
220.6
 30
0.0
 11
107.9117647058824
 21
220.6
 31
0.0
  0
LINE
  5
7D
330
1F
100
AcDbEntity
  8
1
  6
Continuous
 62
     4
100
AcDbLine
 10
106.8529411764706
 20
218.0
 30
0.0
 11
106.8529411764706
 21
220.6
 31
0.0
  0
LINE
  5
7E
330
1F
100
AcDbEntity
  8
1
  6
Continuous
 62
     4
100
AcDbLine
 10
108.0882352941177
 20
221.0
 30
0.0
 11
107.9117647058824
 21
220.6
 31
0.0
  0
LINE
  5
7F
330
1F
100
AcDbEntity
  8
1
  6
Continuous
 62
     4
100
AcDbLine
 10
103.9411764705883
 20
220.6
 30
0.0
 11
105.7941176470588
 21
220.6
 31
0.0
  0
LINE
  5
80
330
1F
100
AcDbEntity
  8
1
  6
Continuous
 62
     4
100
AcDbLine
 10
103.9411764705883
 20
219.9
 30
0.0
 11
103.9411764705883
 21
219.6
 31
0.0
  0
LINE
  5
81
330
1F
100
AcDbEntity
  8
1
  6
Continuous
 62
     4
100
AcDbLine
 10
105.0882352941177
 20
218.0
 30
0.0
 11
104.2941176470588
 21
218.1
 31
0.0
  0
LINE
  5
82
330
1F
100
AcDbEntity
  8
1
  6
Continuous
 62
     4
100
AcDbLine
 10
105.6176470588236
 20
218.7
 30
0.0
 11
105.0882352941177
 21
218.0
 31
0.0
  0
LINE
  5
83
330
1F
100
AcDbEntity
  8
1
  6
Continuous
 62
     4
100
AcDbLine
 10
105.6176470588236
 20
219.9
 30
0.0
 11
105.6176470588236
 21
218.7
 31
0.0
  0
LINE
  5
84
330
1F
100
AcDbEntity
  8
1
  6
Continuous
 62
     4
100
AcDbLine
 10
103.9411764705883
 20
219.9
 30
0.0
 11
105.6176470588236
 21
219.9
 31
0.0
  0
LINE
  5
85
330
1F
100
AcDbEntity
  8
1
  6
Continuous
 62
     4
100
AcDbLine
 10
103.6764705882353
 20
218.7
 30
0.0
 11
103.1470588235294
 21
218.0
 31
0.0
  0
LINE
  5
86
330
1F
100
AcDbEntity
  8
1
  6
Continuous
 62
     4
100
AcDbLine
 10
103.9411764705883
 20
219.6
 30
0.0
 11
103.6764705882353
 21
218.7
 31
0.0
  0
LINE
  5
87
330
1F
100
AcDbEntity
  8
1
  6
Continuous
 62
     4
100
AcDbLine
 10
103.9411764705883
 20
220.6
 30
0.0
 11
103.9411764705883
 21
219.9
 31
0.0
  0
LINE
  5
88
330
1F
100
AcDbEntity
  8
1
  6
Continuous
 62
     4
100
AcDbLine
 10
103.1470588235294
 20
220.6
 30
0.0
 11
103.9411764705883
 21
220.6
 31
0.0
  0
LINE
  5
89
330
1F
100
AcDbEntity
  8
1
  6
Continuous
 62
     4
100
AcDbLine
 10
104.5588235294118
 20
221.0
 30
0.0
 11
104.5588235294118
 21
220.6
 31
0.0
  0
LINE
  5
8A
330
1F
100
AcDbEntity
  8
1
  6
Continuous
 62
     4
100
AcDbLine
 10
100.9411764705883
 20
220.7
 30
0.0
 11
100.9411764705883
 21
217.9
 31
0.0
  0
LINE
  5
8B
330
1F
100
AcDbEntity
  8
1
  6
Continuous
 62
     4
100
AcDbLine
 10
101.7352941176471
 20
218.8
 30
0.0
 11
102.3529411764706
 21
218.1
 31
0.0
  0
LINE
  5
8C
330
1F
100
AcDbEntity
  8
1
  6
Continuous
 62
     4
100
AcDbLine
 10
101.2941176470588
 20
219.6
 30
0.0
 11
101.7352941176471
 21
218.8
 31
0.0
  0
LINE
  5
8D
330
1F
100
AcDbEntity
  8
1
  6
Continuous
 62
     4
100
AcDbLine
 10
100.9411764705883
 20
220.7
 30
0.0
 11
101.2941176470588
 21
219.6
 31
0.0
  0
LINE
  5
8E
330
1F
100
AcDbEntity
  8
1
  6
Continuous
 62
     4
100
AcDbLine
 10
102.1764705882353
 20
220.7
 30
0.0
 11
101.4705882352941
 21
219.7
 31
0.0
  0
LINE
  5
8F
330
1F
100
AcDbEntity
  8
1
  6
Continuous
 62
     4
100
AcDbLine
 10
100.1470588235294
 20
218.9
 30
0.0
 11
99.61764705882355
 21
218.2
 31
0.0
  0
LINE
  5
90
330
1F
100
AcDbEntity
  8
1
  6
Continuous
 62
     4
100
AcDbLine
 10
100.4117647058824
 20
219.6
 30
0.0
 11
100.1470588235294
 21
218.9
 31
0.0
  0
LINE
  5
91
330
1F
100
AcDbEntity
  8
1
  6
Continuous
 62
     4
100
AcDbLine
 10
100.5
 20
220.4
 30
0.0
 11
100.4117647058824
 21
219.6
 31
0.0
  0
LINE
  5
92
330
1F
100
AcDbEntity
  8
1
  6
Continuous
 62
     4
100
AcDbLine
 10
99.61764705882355
 20
220.4
 30
0.0
 11
100.5
 21
220.4
 31
0.0
  0
LINE
  5
93
330
1F
100
AcDbEntity
  8
1
  6
Continuous
 62
     4
100
AcDbLine
 10
100.9411764705883
 20
217.9
 30
0.0
 11
100.3235294117647
 21
218.3
 31
0.0
  0
LINE
  5
94
330
1F
100
AcDbEntity
  8
1
  6
Continuous
 62
     4
100
AcDbLine
 10
100.9411764705883
 20
221.0
 30
0.0
 11
100.9411764705883
 21
220.7
 31
0.0
  0
LINE
  5
95
330
1F
100
AcDbEntity
  8
1
  6
Continuous
 62
     4
100
AcDbLine
 10
97.6764705882353
 20
220.7
 30
0.0
 11
98.64705882352942
 21
220.7
 31
0.0
  0
LINE
  5
96
330
1F
100
AcDbEntity
  8
1
  6
Continuous
 62
     4
100
AcDbLine
 10
98.73529411764707
 20
218.0
 30
0.0
 11
98.73529411764707
 21
218.7
 31
0.0
  0
LINE
  5
97
330
1F
100
AcDbEntity
  8
1
  6
Continuous
 62
     4
100
AcDbLine
 10
98.29411764705884
 20
218.0
 30
0.0
 11
98.73529411764707
 21
218.0
 31
0.0
  0
LINE
  5
98
330
1F
100
AcDbEntity
  8
1
  6
Continuous
 62
     4
100
AcDbLine
 10
98.29411764705884
 20
219.6
 30
0.0
 11
98.29411764705884
 21
218.0
 31
0.0
  0
LINE
  5
99
330
1F
100
AcDbEntity
  8
1
  6
Continuous
 62
     4
100
AcDbLine
 10
97.6764705882353
 20
219.6
 30
0.0
 11
97.6764705882353
 21
218.0
 31
0.0
  0
LINE
  5
9A
330
1F
100
AcDbEntity
  8
1
  6
Continuous
 62
     4
100
AcDbLine
 10
96.88235294117648
 20
218.5
 30
0.0
 11
96.5294117647059
 21
218.0
 31
0.0
  0
LINE
  5
9B
330
1F
100
AcDbEntity
  8
1
  6
Continuous
 62
     4
100
AcDbLine
 10
97.05882352941178
 20
219.0
 30
0.0
 11
96.88235294117648
 21
218.5
 31
0.0
  0
LINE
  5
9C
330
1F
100
AcDbEntity
  8
1
  6
Continuous
 62
     4
100
AcDbLine
 10
97.14705882352942
 20
219.6
 30
0.0
 11
97.05882352941178
 21
219.0
 31
0.0
  0
LINE
  5
9D
330
1F
100
AcDbEntity
  8
1
  6
Continuous
 62
     4
100
AcDbLine
 10
98.55882352941178
 20
219.7
 30
0.0
 11
98.73529411764707
 21
219.3
 31
0.0
  0
LINE
  5
9E
330
1F
100
AcDbEntity
  8
1
  6
Continuous
 62
     4
100
AcDbLine
 10
98.20588235294119
 20
220.3
 30
0.0
 11
98.55882352941178
 21
219.7
 31
0.0
  0
LINE
  5
9F
330
1F
100
AcDbEntity
  8
1
  6
Continuous
 62
     4
100
AcDbLine
 10
96.97058823529413
 20
219.6
 30
0.0
 11
98.55882352941178
 21
219.7
 31
0.0
  0
LINE
  5
A0
330
1F
100
AcDbEntity
  8
1
  6
Continuous
 62
     4
100
AcDbLine
 10
96.70588235294119
 20
219.6
 30
0.0
 11
96.97058823529413
 21
219.6
 31
0.0
  0
LINE
  5
A1
330
1F
100
AcDbEntity
  8
1
  6
Continuous
 62
     4
100
AcDbLine
 10
97.6764705882353
 20
220.7
 30
0.0
 11
96.97058823529413
 21
219.6
 31
0.0
  0
LINE
  5
A2
330
1F
100
AcDbEntity
  8
1
  6
Continuous
 62
     4
100
AcDbLine
 10
97.6764705882353
 20
221.1
 30
0.0
 11
97.6764705882353
 21
220.7
 31
0.0
  0
LINE
  5
A3
330
1F
100
AcDbEntity
  8
1
  6
Continuous
 62
     4
100
AcDbLine
 10
96.70588235294119
 20
220.7
 30
0.0
 11
97.6764705882353
 21
220.7
 31
0.0
  0
LINE
  5
A4
330
1F
100
AcDbEntity
  8
1
  6
Continuous
 62
     4
100
AcDbLine
 10
96.1764705882353
 20
218.0
 30
0.0
 11
96.61764705882355
 21
219.2
 31
0.0
  0
LINE
  5
A5
330
1F
100
AcDbEntity
  8
1
  6
Continuous
 62
     4
100
AcDbLine
 10
96.1764705882353
 20
219.9
 30
0.0
 11
96.61764705882355
 21
219.5
 31
0.0
  0
LINE
  5
A6
330
1F
100
AcDbEntity
  8
1
  6
Continuous
 62
     4
100
AcDbLine
 10
96.26470588235296
 20
220.8
 30
0.0
 11
96.70588235294119
 21
220.4
 31
0.0
  0
LINE
  5
A7
330
1F
100
AcDbEntity
  8
1
  6
Continuous
 62
     4
100
AcDbLine
 10
201.6470588235294
 20
156.8
 30
0.0
 11
201.1176470588235
 21
157.0
 31
0.0
  0
LINE
  5
A8
330
1F
100
AcDbEntity
  8
1
  6
Continuous
 62
     4
100
AcDbLine
 10
202.0
 20
156.3
 30
0.0
 11
201.6470588235294
 21
156.8
 31
0.0
  0
LINE
  5
A9
330
1F
100
AcDbEntity
  8
1
  6
Continuous
 62
     4
100
AcDbLine
 10
202.0882352941177
 20
155.5
 30
0.0
 11
202.0
 21
156.3
 31
0.0
  0
LINE
  5
AA
330
1F
100
AcDbEntity
  8
1
  6
Continuous
 62
     4
100
AcDbLine
 10
202.0
 20
154.7
 30
0.0
 11
202.0882352941177
 21
155.5
 31
0.0
  0
LINE
  5
AB
330
1F
100
AcDbEntity
  8
1
  6
Continuous
 62
     4
100
AcDbLine
 10
201.6470588235294
 20
154.2
 30
0.0
 11
202.0
 21
154.7
 31
0.0
  0
LINE
  5
AC
330
1F
100
AcDbEntity
  8
1
  6
Continuous
 62
     4
100
AcDbLine
 10
201.1176470588235
 20
154.0
 30
0.0
 11
201.6470588235294
 21
154.2
 31
0.0
  0
LINE
  5
AD
330
1F
100
AcDbEntity
  8
1
  6
Continuous
 62
     4
100
AcDbLine
 10
200.5882352941177
 20
154.2
 30
0.0
 11
201.1176470588235
 21
154.0
 31
0.0
  0
LINE
  5
AE
330
1F
100
AcDbEntity
  8
1
  6
Continuous
 62
     4
100
AcDbLine
 10
200.3235294117647
 20
154.7
 30
0.0
 11
200.5882352941177
 21
154.2
 31
0.0
  0
LINE
  5
AF
330
1F
100
AcDbEntity
  8
1
  6
Continuous
 62
     4
100
AcDbLine
 10
200.1470588235294
 20
155.5
 30
0.0
 11
200.3235294117647
 21
154.7
 31
0.0
  0
LINE
  5
B0
330
1F
100
AcDbEntity
  8
1
  6
Continuous
 62
     4
100
AcDbLine
 10
200.3235294117647
 20
156.3
 30
0.0
 11
200.1470588235294
 21
155.5
 31
0.0
  0
LINE
  5
B1
330
1F
100
AcDbEntity
  8
1
  6
Continuous
 62
     4
100
AcDbLine
 10
200.5882352941177
 20
156.8
 30
0.0
 11
200.3235294117647
 21
156.3
 31
0.0
  0
LINE
  5
B2
330
1F
100
AcDbEntity
  8
1
  6
Continuous
 62
     4
100
AcDbLine
 10
201.1176470588235
 20
157.0
 30
0.0
 11
200.5882352941177
 21
156.8
 31
0.0
  0
LINE
  5
B3
330
1F
100
AcDbEntity
  8
1
  6
Continuous
 62
     4
100
AcDbLine
 10
197.6764705882353
 20
155.5
 30
0.0
 11
199.264705882353
 21
155.5
 31
0.0
  0
LINE
  5
B4
330
1F
100
AcDbEntity
  8
1
  6
Continuous
 62
     4
100
AcDbLine
 10
196.7941176470588
 20
157.0
 30
0.0
 11
196.7941176470588
 21
154.0
 31
0.0
  0
LINE
  5
B5
330
1F
100
AcDbEntity
  8
1
  6
Continuous
 62
     4
100
AcDbLine
 10
196.3529411764706
 20
156.7
 30
0.0
 11
196.7941176470588
 21
157.0
 31
0.0
  0
LINE
  5
B6
330
1F
100
AcDbEntity
  8
1
  6
Continuous
 62
     4
100
AcDbLine
 10
195.0294117647059
 20
156.8
 30
0.0
 11
194.5
 21
157.0
 31
0.0
  0
LINE
  5
B7
330
1F
100
AcDbEntity
  8
1
  6
Continuous
 62
     4
100
AcDbLine
 10
195.3823529411765
 20
156.3
 30
0.0
 11
195.0294117647059
 21
156.8
 31
0.0
  0
LINE
  5
B8
330
1F
100
AcDbEntity
  8
1
  6
Continuous
 62
     4
100
AcDbLine
 10
195.4705882352941
 20
155.5
 30
0.0
 11
195.3823529411765
 21
156.3
 31
0.0
  0
LINE
  5
B9
330
1F
100
AcDbEntity
  8
1
  6
Continuous
 62
     4
100
AcDbLine
 10
195.3823529411765
 20
154.7
 30
0.0
 11
195.4705882352941
 21
155.5
 31
0.0
  0
LINE
  5
BA
330
1F
100
AcDbEntity
  8
1
  6
Continuous
 62
     4
100
AcDbLine
 10
195.0294117647059
 20
154.2
 30
0.0
 11
195.3823529411765
 21
154.7
 31
0.0
  0
LINE
  5
BB
330
1F
100
AcDbEntity
  8
1
  6
Continuous
 62
     4
100
AcDbLine
 10
194.5
 20
154.0
 30
0.0
 11
195.0294117647059
 21
154.2
 31
0.0
  0
LINE
  5
BC
330
1F
100
AcDbEntity
  8
1
  6
Continuous
 62
     4
100
AcDbLine
 10
193.9705882352941
 20
154.2
 30
0.0
 11
194.5
 21
154.0
 31
0.0
  0
LINE
  5
BD
330
1F
100
AcDbEntity
  8
1
  6
Continuous
 62
     4
100
AcDbLine
 10
193.7058823529412
 20
154.7
 30
0.0
 11
193.9705882352941
 21
154.2
 31
0.0
  0
LINE
  5
BE
330
1F
100
AcDbEntity
  8
1
  6
Continuous
 62
     4
100
AcDbLine
 10
193.5294117647059
 20
155.5
 30
0.0
 11
193.7058823529412
 21
154.7
 31
0.0
  0
LINE
  5
BF
330
1F
100
AcDbEntity
  8
1
  6
Continuous
 62
     4
100
AcDbLine
 10
193.7058823529412
 20
156.3
 30
0.0
 11
193.5294117647059
 21
155.5
 31
0.0
  0
LINE
  5
C0
330
1F
100
AcDbEntity
  8
1
  6
Continuous
 62
     4
100
AcDbLine
 10
193.9705882352941
 20
156.8
 30
0.0
 11
193.7058823529412
 21
156.3
 31
0.0
  0
LINE
  5
C1
330
1F
100
AcDbEntity
  8
1
  6
Continuous
 62
     4
100
AcDbLine
 10
194.5
 20
157.0
 30
0.0
 11
193.9705882352941
 21
156.8
 31
0.0
  0
LINE
  5
C2
330
1F
100
AcDbEntity
  8
1
  6
Continuous
 62
     4
100
AcDbLine
 10
190.9705882352941
 20
155.5
 30
0.0
 11
190.9705882352941
 21
154.0
 31
0.0
  0
LINE
  5
C3
330
1F
100
AcDbEntity
  8
1
  6
Continuous
 62
     4
100
AcDbLine
 10
190.9705882352941
 20
155.5
 30
0.0
 11
192.4705882352941
 21
155.5
 31
0.0
  0
LINE
  5
C4
330
1F
100
AcDbEntity
  8
1
  6
Continuous
 62
     4
100
AcDbLine
 10
190.9705882352941
 20
157.0
 30
0.0
 11
190.9705882352941
 21
155.5
 31
0.0
  0
LINE
  5
C5
330
1F
100
AcDbEntity
  8
1
  6
Continuous
 62
     4
100
AcDbLine
 10
192.6470588235295
 20
157.0
 30
0.0
 11
190.9705882352941
 21
157.0
 31
0.0
  0
LINE
  5
C6
330
1F
100
AcDbEntity
  8
1
  6
Continuous
 62
     4
100
AcDbLine
 10
188.4117647058824
 20
155.4
 30
0.0
 11
188.4117647058824
 21
154.0
 31
0.0
  0
LINE
  5
C7
330
1F
100
AcDbEntity
  8
1
  6
Continuous
 62
     4
100
AcDbLine
 10
190.0882352941177
 20
155.4
 30
0.0
 11
190.0882352941177
 21
154.0
 31
0.0
  0
LINE
  5
C8
330
1F
100
AcDbEntity
  8
1
  6
Continuous
 62
     4
100
AcDbLine
 10
190.0882352941177
 20
157.0
 30
0.0
 11
190.0882352941177
 21
155.4
 31
0.0
  0
LINE
  5
C9
330
1F
100
AcDbEntity
  8
1
  6
Continuous
 62
     4
100
AcDbLine
 10
188.4117647058824
 20
155.4
 30
0.0
 11
190.0882352941177
 21
155.4
 31
0.0
  0
LINE
  5
CA
330
1F
100
AcDbEntity
  8
1
  6
Continuous
 62
     4
100
AcDbLine
 10
188.4117647058824
 20
157.0
 30
0.0
 11
188.4117647058824
 21
155.4
 31
0.0
  0
LINE
  5
CB
330
1F
100
AcDbEntity
  8
1
  6
Continuous
 62
     4
100
AcDbLine
 10
186.9117647058824
 20
156.9
 30
0.0
 11
186.4705882352941
 21
157.0
 31
0.0
  0
LINE
  5
CC
330
1F
100
AcDbEntity
  8
1
  6
Continuous
 62
     4
100
AcDbLine
 10
187.1764705882353
 20
156.8
 30
0.0
 11
186.9117647058824
 21
156.9
 31
0.0
  0
LINE
  5
CD
330
1F
100
AcDbEntity
  8
1
  6
Continuous
 62
     4
100
AcDbLine
 10
187.2647058823529
 20
156.6
 30
0.0
 11
187.1764705882353
 21
156.8
 31
0.0
  0
LINE
  5
CE
330
1F
100
AcDbEntity
  8
1
  6
Continuous
 62
     4
100
AcDbLine
 10
187.3529411764706
 20
156.3
 30
0.0
 11
187.2647058823529
 21
156.6
 31
0.0
  0
LINE
  5
CF
330
1F
100
AcDbEntity
  8
1
  6
Continuous
 62
     4
100
AcDbLine
 10
187.2647058823529
 20
156.0
 30
0.0
 11
187.3529411764706
 21
156.3
 31
0.0
  0
LINE
  5
D0
330
1F
100
AcDbEntity
  8
1
  6
Continuous
 62
     4
100
AcDbLine
 10
187.0
 20
155.7
 30
0.0
 11
187.2647058823529
 21
156.0
 31
0.0
  0
LINE
  5
D1
330
1F
100
AcDbEntity
  8
1
  6
Continuous
 62
     4
100
AcDbLine
 10
186.6470588235294
 20
155.6
 30
0.0
 11
187.0
 21
155.7
 31
0.0
  0
LINE
  5
D2
330
1F
100
AcDbEntity
  8
1
  6
Continuous
 62
     4
100
AcDbLine
 10
186.3823529411765
 20
155.6
 30
0.0
 11
186.6470588235294
 21
155.6
 31
0.0
  0
LINE
  5
D3
330
1F
100
AcDbEntity
  8
1
  6
Continuous
 62
     4
100
AcDbLine
 10
186.0294117647059
 20
155.5
 30
0.0
 11
186.3823529411765
 21
155.6
 31
0.0
  0
LINE
  5
D4
330
1F
100
AcDbEntity
  8
1
  6
Continuous
 62
     4
100
AcDbLine
 10
185.8529411764706
 20
155.4
 30
0.0
 11
186.0294117647059
 21
155.5
 31
0.0
  0
LINE
  5
D5
330
1F
100
AcDbEntity
  8
1
  6
Continuous
 62
     4
100
AcDbLine
 10
185.5882352941177
 20
155.2
 30
0.0
 11
185.8529411764706
 21
155.4
 31
0.0
  0
LINE
  5
D6
330
1F
100
AcDbEntity
  8
1
  6
Continuous
 62
     4
100
AcDbLine
 10
185.5
 20
154.8
 30
0.0
 11
185.5882352941177
 21
155.2
 31
0.0
  0
LINE
  5
D7
330
1F
100
AcDbEntity
  8
1
  6
Continuous
 62
     4
100
AcDbLine
 10
185.6764705882353
 20
154.3
 30
0.0
 11
185.5
 21
154.8
 31
0.0
  0
LINE
  5
D8
330
1F
100
AcDbEntity
  8
1
  6
Continuous
 62
     4
100
AcDbLine
 10
185.9411764705882
 20
154.1
 30
0.0
 11
185.6764705882353
 21
154.3
 31
0.0
  0
LINE
  5
D9
330
1F
100
AcDbEntity
  8
1
  6
Continuous
 62
     4
100
AcDbLine
 10
186.4705882352941
 20
154.0
 30
0.0
 11
185.9411764705882
 21
154.1
 31
0.0
  0
LINE
  5
DA
330
1F
100
AcDbEntity
  8
1
  6
Continuous
 62
     4
100
AcDbLine
 10
187.0
 20
154.1
 30
0.0
 11
186.4705882352941
 21
154.0
 31
0.0
  0
LINE
  5
DB
330
1F
100
AcDbEntity
  8
1
  6
Continuous
 62
     4
100
AcDbLine
 10
187.3529411764706
 20
154.3
 30
0.0
 11
187.0
 21
154.1
 31
0.0
  0
LINE
  5
DC
330
1F
100
AcDbEntity
  8
1
  6
Continuous
 62
     4
100
AcDbLine
 10
187.5294117647059
 20
154.8
 30
0.0
 11
187.3529411764706
 21
154.3
 31
0.0
  0
LINE
  5
DD
330
1F
100
AcDbEntity
  8
1
  6
Continuous
 62
     4
100
AcDbLine
 10
187.3529411764706
 20
155.2
 30
0.0
 11
187.5294117647059
 21
154.8
 31
0.0
  0
LINE
  5
DE
330
1F
100
AcDbEntity
  8
1
  6
Continuous
 62
     4
100
AcDbLine
 10
187.0
 20
155.5
 30
0.0
 11
187.3529411764706
 21
155.2
 31
0.0
  0
LINE
  5
DF
330
1F
100
AcDbEntity
  8
1
  6
Continuous
 62
     4
100
AcDbLine
 10
186.6470588235294
 20
155.6
 30
0.0
 11
187.0
 21
155.5
 31
0.0
  0
LINE
  5
E0
330
1F
100
AcDbEntity
  8
1
  6
Continuous
 62
     4
100
AcDbLine
 10
186.3823529411765
 20
155.6
 30
0.0
 11
186.6470588235294
 21
155.6
 31
0.0
  0
LINE
  5
E1
330
1F
100
AcDbEntity
  8
1
  6
Continuous
 62
     4
100
AcDbLine
 10
186.0294117647059
 20
155.7
 30
0.0
 11
186.3823529411765
 21
155.6
 31
0.0
  0
LINE
  5
E2
330
1F
100
AcDbEntity
  8
1
  6
Continuous
 62
     4
100
AcDbLine
 10
185.7647058823529
 20
156.0
 30
0.0
 11
186.0294117647059
 21
155.7
 31
0.0
  0
LINE
  5
E3
330
1F
100
AcDbEntity
  8
1
  6
Continuous
 62
     4
100
AcDbLine
 10
185.6764705882353
 20
156.3
 30
0.0
 11
185.7647058823529
 21
156.0
 31
0.0
  0
LINE
  5
E4
330
1F
100
AcDbEntity
  8
1
  6
Continuous
 62
     4
100
AcDbLine
 10
185.7647058823529
 20
156.6
 30
0.0
 11
185.6764705882353
 21
156.3
 31
0.0
  0
LINE
  5
E5
330
1F
100
AcDbEntity
  8
1
  6
Continuous
 62
     4
100
AcDbLine
 10
186.0294117647059
 20
156.9
 30
0.0
 11
185.7647058823529
 21
156.6
 31
0.0
  0
LINE
  5
E6
330
1F
100
AcDbEntity
  8
1
  6
Continuous
 62
     4
100
AcDbLine
 10
186.4705882352941
 20
157.0
 30
0.0
 11
186.0294117647059
 21
156.9
 31
0.0
  0
LINE
  5
E7
330
1F
100
AcDbEntity
  8
1
  6
Continuous
 62
     4
100
AcDbLine
 10
184.6176470588235
 20
157.0
 30
0.0
 11
184.6176470588235
 21
154.0
 31
0.0
  0
LINE
  5
E8
330
1F
100
AcDbEntity
  8
1
  6
Continuous
 62
     4
100
AcDbLine
 10
184.1764705882353
 20
156.7
 30
0.0
 11
184.6176470588235
 21
157.0
 31
0.0
  0
LINE
  5
E9
330
1F
100
AcDbEntity
  8
1
  6
Continuous
 62
     4
100
AcDbLine
 10
183.2941176470588
 20
157.0
 30
0.0
 11
183.2941176470588
 21
154.0
 31
0.0
  0
LINE
  5
EA
330
1F
100
AcDbEntity
  8
1
  6
Continuous
 62
     4
100
AcDbLine
 10
182.8529411764706
 20
156.7
 30
0.0
 11
183.2941176470588
 21
157.0
 31
0.0
  0
LINE
  5
EB
330
1F
100
AcDbEntity
  8
1
  6
Continuous
 62
     4
100
AcDbLine
 10
181.5294117647059
 20
156.8
 30
0.0
 11
181.0
 21
157.0
 31
0.0
  0
LINE
  5
EC
330
1F
100
AcDbEntity
  8
1
  6
Continuous
 62
     4
100
AcDbLine
 10
181.8823529411765
 20
156.3
 30
0.0
 11
181.5294117647059
 21
156.8
 31
0.0
  0
LINE
  5
ED
330
1F
100
AcDbEntity
  8
1
  6
Continuous
 62
     4
100
AcDbLine
 10
181.9705882352941
 20
155.5
 30
0.0
 11
181.8823529411765
 21
156.3
 31
0.0
  0
LINE
  5
EE
330
1F
100
AcDbEntity
  8
1
  6
Continuous
 62
     4
100
AcDbLine
 10
181.8823529411765
 20
154.7
 30
0.0
 11
181.9705882352941
 21
155.5
 31
0.0
  0
LINE
  5
EF
330
1F
100
AcDbEntity
  8
1
  6
Continuous
 62
     4
100
AcDbLine
 10
181.5294117647059
 20
154.2
 30
0.0
 11
181.8823529411765
 21
154.7
 31
0.0
  0
LINE
  5
F0
330
1F
100
AcDbEntity
  8
1
  6
Continuous
 62
     4
100
AcDbLine
 10
181.0
 20
154.0
 30
0.0
 11
181.5294117647059
 21
154.2
 31
0.0
  0
LINE
  5
F1
330
1F
100
AcDbEntity
  8
1
  6
Continuous
 62
     4
100
AcDbLine
 10
180.4705882352941
 20
154.2
 30
0.0
 11
181.0
 21
154.0
 31
0.0
  0
LINE
  5
F2
330
1F
100
AcDbEntity
  8
1
  6
Continuous
 62
     4
100
AcDbLine
 10
180.2058823529412
 20
154.7
 30
0.0
 11
180.4705882352941
 21
154.2
 31
0.0
  0
LINE
  5
F3
330
1F
100
AcDbEntity
  8
1
  6
Continuous
 62
     4
100
AcDbLine
 10
180.0294117647059
 20
155.5
 30
0.0
 11
180.2058823529412
 21
154.7
 31
0.0
  0
LINE
  5
F4
330
1F
100
AcDbEntity
  8
1
  6
Continuous
 62
     4
100
AcDbLine
 10
180.2058823529412
 20
156.3
 30
0.0
 11
180.0294117647059
 21
155.5
 31
0.0
  0
LINE
  5
F5
330
1F
100
AcDbEntity
  8
1
  6
Continuous
 62
     4
100
AcDbLine
 10
180.4705882352941
 20
156.8
 30
0.0
 11
180.2058823529412
 21
156.3
 31
0.0
  0
LINE
  5
F6
330
1F
100
AcDbEntity
  8
1
  6
Continuous
 62
     4
100
AcDbLine
 10
181.0
 20
157.0
 30
0.0
 11
180.4705882352941
 21
156.8
 31
0.0
  0
LINE
  5
F7
330
1F
100
AcDbEntity
  8
1
  6
Continuous
 62
     4
100
AcDbLine
 10
176.3235294117647
 20
154.0
 30
0.0
 11
179.1470588235294
 21
154.0
 31
0.0
  0
LINE
  5
F8
330
1F
100
AcDbEntity
  8
1
  6
Continuous
 62
     4
100
AcDbLine
 10
173.9411764705882
 20
154.2
 30
0.0
 11
173.6764705882353
 21
154.4
 31
0.0
  0
LINE
  5
F9
330
1F
100
AcDbEntity
  8
1
  6
Continuous
 62
     4
100
AcDbLine
 10
174.2941176470588
 20
154.0
 30
0.0
 11
173.9411764705882
 21
154.2
 31
0.0
  0
LINE
  5
FA
330
1F
100
AcDbEntity
  8
1
  6
Continuous
 62
     4
100
AcDbLine
 10
174.6470588235294
 20
154.0
 30
0.0
 11
174.2941176470588
 21
154.0
 31
0.0
  0
LINE
  5
FB
330
1F
100
AcDbEntity
  8
1
  6
Continuous
 62
     4
100
AcDbLine
 10
174.9117647058824
 20
154.0
 30
0.0
 11
174.6470588235294
 21
154.0
 31
0.0
  0
LINE
  5
FC
330
1F
100
AcDbEntity
  8
1
  6
Continuous
 62
     4
100
AcDbLine
 10
175.1764705882353
 20
154.2
 30
0.0
 11
174.9117647058824
 21
154.0
 31
0.0
  0
LINE
  5
FD
330
1F
100
AcDbEntity
  8
1
  6
Continuous
 62
     4
100
AcDbLine
 10
175.3529411764706
 20
154.4
 30
0.0
 11
175.1764705882353
 21
154.2
 31
0.0
  0
LINE
  5
FE
330
1F
100
AcDbEntity
  8
1
  6
Continuous
 62
     4
100
AcDbLine
 10
175.4411764705882
 20
154.9
 30
0.0
 11
175.3529411764706
 21
154.4
 31
0.0
  0
LINE
  5
FF
330
1F
100
AcDbEntity
  8
1
  6
Continuous
 62
     4
100
AcDbLine
 10
175.3529411764706
 20
155.4
 30
0.0
 11
175.4411764705882
 21
154.9
 31
0.0
  0
LINE
  5
100
330
1F
100
AcDbEntity
  8
1
  6
Continuous
 62
     4
100
AcDbLine
 10
175.1764705882353
 20
155.6
 30
0.0
 11
175.3529411764706
 21
155.4
 31
0.0
  0
LINE
  5
101
330
1F
100
AcDbEntity
  8
1
  6
Continuous
 62
     4
100
AcDbLine
 10
174.9117647058824
 20
155.8
 30
0.0
 11
175.1764705882353
 21
155.6
 31
0.0
  0
LINE
  5
102
330
1F
100
AcDbEntity
  8
1
  6
Continuous
 62
     4
100
AcDbLine
 10
174.5588235294118
 20
155.9
 30
0.0
 11
174.9117647058824
 21
155.8
 31
0.0
  0
LINE
  5
103
330
1F
100
AcDbEntity
  8
1
  6
Continuous
 62
     4
100
AcDbLine
 10
174.2058823529412
 20
155.8
 30
0.0
 11
174.5588235294118
 21
155.9
 31
0.0
  0
LINE
  5
104
330
1F
100
AcDbEntity
  8
1
  6
Continuous
 62
     4
100
AcDbLine
 10
173.764705882353
 20
155.5
 30
0.0
 11
174.2058823529412
 21
155.8
 31
0.0
  0
LINE
  5
105
330
1F
100
AcDbEntity
  8
1
  6
Continuous
 62
     4
100
AcDbLine
 10
173.8529411764706
 20
157.0
 30
0.0
 11
173.764705882353
 21
155.5
 31
0.0
  0
LINE
  5
106
330
1F
100
AcDbEntity
  8
1
  6
Continuous
 62
     4
100
AcDbLine
 10
175.3529411764706
 20
157.0
 30
0.0
 11
173.8529411764706
 21
157.0
 31
0.0
  0
LINE
  5
107
330
1F
100
AcDbEntity
  8
1
  6
Continuous
 62
     4
100
AcDbLine
 10
170.8529411764706
 20
154.0
 30
0.0
 11
172.7941176470588
 21
154.0
 31
0.0
  0
LINE
  5
108
330
1F
100
AcDbEntity
  8
1
  6
Continuous
 62
     4
100
AcDbLine
 10
171.0294117647059
 20
154.5
 30
0.0
 11
170.8529411764706
 21
154.0
 31
0.0
  0
LINE
  5
109
330
1F
100
AcDbEntity
  8
1
  6
Continuous
 62
     4
100
AcDbLine
 10
171.2058823529412
 20
154.8
 30
0.0
 11
171.0294117647059
 21
154.5
 31
0.0
  0
LINE
  5
10A
330
1F
100
AcDbEntity
  8
1
  6
Continuous
 62
     4
100
AcDbLine
 10
171.5588235294118
 20
155.1
 30
0.0
 11
171.2058823529412
 21
154.8
 31
0.0
  0
LINE
  5
10B
330
1F
100
AcDbEntity
  8
1
  6
Continuous
 62
     4
100
AcDbLine
 10
171.9117647058824
 20
155.3
 30
0.0
 11
171.5588235294118
 21
155.1
 31
0.0
  0
LINE
  5
10C
330
1F
100
AcDbEntity
  8
1
  6
Continuous
 62
     4
100
AcDbLine
 10
172.3529411764706
 20
155.6
 30
0.0
 11
171.9117647058824
 21
155.3
 31
0.0
  0
LINE
  5
10D
330
1F
100
AcDbEntity
  8
1
  6
Continuous
 62
     4
100
AcDbLine
 10
172.6176470588235
 20
156.0
 30
0.0
 11
172.3529411764706
 21
155.6
 31
0.0
  0
LINE
  5
10E
330
1F
100
AcDbEntity
  8
1
  6
Continuous
 62
     4
100
AcDbLine
 10
172.7058823529412
 20
156.4
 30
0.0
 11
172.6176470588235
 21
156.0
 31
0.0
  0
LINE
  5
10F
330
1F
100
AcDbEntity
  8
1
  6
Continuous
 62
     4
100
AcDbLine
 10
172.3529411764706
 20
156.8
 30
0.0
 11
172.7058823529412
 21
156.4
 31
0.0
  0
LINE
  5
110
330
1F
100
AcDbEntity
  8
1
  6
Continuous
 62
     4
100
AcDbLine
 10
171.8235294117647
 20
157.0
 30
0.0
 11
172.3529411764706
 21
156.8
 31
0.0
  0
LINE
  5
111
330
1F
100
AcDbEntity
  8
1
  6
Continuous
 62
     4
100
AcDbLine
 10
171.2941176470588
 20
156.8
 30
0.0
 11
171.8235294117647
 21
157.0
 31
0.0
  0
LINE
  5
112
330
1F
100
AcDbEntity
  8
1
  6
Continuous
 62
     4
100
AcDbLine
 10
170.9411764705882
 20
156.4
 30
0.0
 11
171.2941176470588
 21
156.8
 31
0.0
  0
LINE
  5
113
330
1F
100
AcDbEntity
  8
1
  6
Continuous
 62
     4
100
AcDbLine
 10
167.1470588235294
 20
154.0
 30
0.0
 11
169.9705882352941
 21
154.0
 31
0.0
  0
LINE
  5
114
330
1F
100
AcDbEntity
  8
1
  6
Continuous
 62
     4
100
AcDbLine
 10
166.0882352941177
 20
154.4
 30
0.0
 11
166.2647058823529
 21
154.7
 31
0.0
  0
LINE
  5
115
330
1F
100
AcDbEntity
  8
1
  6
Continuous
 62
     4
100
AcDbLine
 10
165.735294117647
 20
154.1
 30
0.0
 11
166.0882352941177
 21
154.4
 31
0.0
  0
LINE
  5
116
330
1F
100
AcDbEntity
  8
1
  6
Continuous
 62
     4
100
AcDbLine
 10
165.2941176470588
 20
154.0
 30
0.0
 11
165.735294117647
 21
154.1
 31
0.0
  0
LINE
  5
117
330
1F
100
AcDbEntity
  8
1
  6
Continuous
 62
     4
100
AcDbLine
 10
164.7647058823529
 20
154.2
 30
0.0
 11
165.2941176470588
 21
154.0
 31
0.0
  0
LINE
  5
118
330
1F
100
AcDbEntity
  8
1
  6
Continuous
 62
     4
100
AcDbLine
 10
164.5
 20
154.8
 30
0.0
 11
164.7647058823529
 21
154.2
 31
0.0
  0
LINE
  5
119
330
1F
100
AcDbEntity
  8
1
  6
Continuous
 62
     4
100
AcDbLine
 10
164.4117647058824
 20
155.5
 30
0.0
 11
164.5
 21
154.8
 31
0.0
  0
LINE
  5
11A
330
1F
100
AcDbEntity
  8
1
  6
Continuous
 62
     4
100
AcDbLine
 10
164.5
 20
156.2
 30
0.0
 11
164.4117647058824
 21
155.5
 31
0.0
  0
LINE
  5
11B
330
1F
100
AcDbEntity
  8
1
  6
Continuous
 62
     4
100
AcDbLine
 10
164.7647058823529
 20
156.7
 30
0.0
 11
164.5
 21
156.2
 31
0.0
  0
LINE
  5
11C
330
1F
100
AcDbEntity
  8
1
  6
Continuous
 62
     4
100
AcDbLine
 10
165.2941176470588
 20
157.0
 30
0.0
 11
164.7647058823529
 21
156.7
 31
0.0
  0
LINE
  5
11D
330
1F
100
AcDbEntity
  8
1
  6
Continuous
 62
     4
100
AcDbLine
 10
165.735294117647
 20
156.9
 30
0.0
 11
165.2941176470588
 21
157.0
 31
0.0
  0
LINE
  5
11E
330
1F
100
AcDbEntity
  8
1
  6
Continuous
 62
     4
100
AcDbLine
 10
166.0
 20
156.7
 30
0.0
 11
165.735294117647
 21
156.9
 31
0.0
  0
LINE
  5
11F
330
1F
100
AcDbEntity
  8
1
  6
Continuous
 62
     4
100
AcDbLine
 10
166.2647058823529
 20
156.4
 30
0.0
 11
166.0
 21
156.7
 31
0.0
  0
LINE
  5
120
330
1F
100
AcDbEntity
  8
1
  6
Continuous
 62
     4
100
AcDbLine
 10
161.9411764705882
 20
155.5
 30
0.0
 11
163.5294117647059
 21
155.5
 31
0.0
  0
LINE
  5
121
330
1F
100
AcDbEntity
  8
1
  6
Continuous
 62
     4
100
AcDbLine
 10
159.8235294117647
 20
157.0
 30
0.0
 11
160.5294117647059
 21
157.0
 31
0.0
  0
LINE
  5
122
330
1F
100
AcDbEntity
  8
1
  6
Continuous
 62
     4
100
AcDbLine
 10
160.5294117647059
 20
157.0
 30
0.0
 11
161.0588235294117
 21
157.0
 31
0.0
  0
LINE
  5
123
330
1F
100
AcDbEntity
  8
1
  6
Continuous
 62
     4
100
AcDbLine
 10
160.5294117647059
 20
154.0
 30
0.0
 11
159.2941176470588
 21
154.0
 31
0.0
  0
LINE
  5
124
330
1F
100
AcDbEntity
  8
1
  6
Continuous
 62
     4
100
AcDbLine
 10
160.5294117647059
 20
157.0
 30
0.0
 11
160.5294117647059
 21
154.0
 31
0.0
  0
LINE
  5
125
330
1F
100
AcDbEntity
  8
1
  6
Continuous
 62
     4
100
AcDbLine
 10
159.2941176470588
 20
157.0
 30
0.0
 11
159.8235294117647
 21
157.0
 31
0.0
  0
LINE
  5
126
330
1F
100
AcDbEntity
  8
1
  6
Continuous
 62
     4
100
AcDbLine
 10
159.8235294117647
 20
157.0
 30
0.0
 11
159.8235294117647
 21
154.0
 31
0.0
  0
LINE
  5
127
330
1F
100
AcDbEntity
  8
1
  6
Continuous
 62
     4
100
AcDbLine
 10
161.0588235294117
 20
154.0
 30
0.0
 11
160.5294117647059
 21
154.0
 31
0.0
  0
LINE
  5
128
330
1F
100
AcDbEntity
  8
1
  6
Continuous
 62
     4
100
AcDbLine
 10
157.6176470588235
 20
154.1
 30
0.0
 11
156.6470588235294
 21
154.1
 31
0.0
  0
LINE
  5
129
330
1F
100
AcDbEntity
  8
1
  6
Continuous
 62
     4
100
AcDbLine
 10
158.0588235294118
 20
154.3
 30
0.0
 11
157.6176470588235
 21
154.1
 31
0.0
  0
LINE
  5
12A
330
1F
100
AcDbEntity
  8
1
  6
Continuous
 62
     4
100
AcDbLine
 10
158.3235294117647
 20
154.9
 30
0.0
 11
158.0588235294118
 21
154.3
 31
0.0
  0
LINE
  5
12B
330
1F
100
AcDbEntity
  8
1
  6
Continuous
 62
     4
100
AcDbLine
 10
158.4117647058824
 20
155.5
 30
0.0
 11
158.3235294117647
 21
154.9
 31
0.0
  0
LINE
  5
12C
330
1F
100
AcDbEntity
  8
1
  6
Continuous
 62
     4
100
AcDbLine
 10
158.3235294117647
 20
156.2
 30
0.0
 11
158.4117647058824
 21
155.5
 31
0.0
  0
LINE
  5
12D
330
1F
100
AcDbEntity
  8
1
  6
Continuous
 62
     4
100
AcDbLine
 10
158.0588235294118
 20
156.7
 30
0.0
 11
158.3235294117647
 21
156.2
 31
0.0
  0
LINE
  5
12E
330
1F
100
AcDbEntity
  8
1
  6
Continuous
 62
     4
100
AcDbLine
 10
157.6176470588235
 20
156.9
 30
0.0
 11
158.0588235294118
 21
156.7
 31
0.0
  0
LINE
  5
12F
330
1F
100
AcDbEntity
  8
1
  6
Continuous
 62
     4
100
AcDbLine
 10
156.6470588235294
 20
156.9
 30
0.0
 11
157.6176470588235
 21
156.9
 31
0.0
  0
LINE
  5
130
330
1F
100
AcDbEntity
  8
1
  6
Continuous
 62
     4
100
AcDbLine
 10
156.6470588235294
 20
154.1
 30
0.0
 11
156.6470588235294
 21
156.9
 31
0.0
  0
LINE
  5
131
330
1F
100
AcDbEntity
  8
1
  6
Continuous
 62
     4
100
AcDbLine
 10
155.0588235294118
 20
154.0
 30
0.0
 11
154.0
 21
154.0
 31
0.0
  0
LINE
  5
132
330
1F
100
AcDbEntity
  8
1
  6
Continuous
 62
     4
100
AcDbLine
 10
155.5882352941177
 20
154.2
 30
0.0
 11
155.0588235294118
 21
154.0
 31
0.0
  0
LINE
  5
133
330
1F
100
AcDbEntity
  8
1
  6
Continuous
 62
     4
100
AcDbLine
 10
155.7647058823529
 20
154.7
 30
0.0
 11
155.5882352941177
 21
154.2
 31
0.0
  0
LINE
  5
134
330
1F
100
AcDbEntity
  8
1
  6
Continuous
 62
     4
100
AcDbLine
 10
155.5882352941177
 20
155.2
 30
0.0
 11
155.7647058823529
 21
154.7
 31
0.0
  0
LINE
  5
135
330
1F
100
AcDbEntity
  8
1
  6
Continuous
 62
     4
100
AcDbLine
 10
155.0588235294118
 20
155.4
 30
0.0
 11
155.5882352941177
 21
155.2
 31
0.0
  0
LINE
  5
136
330
1F
100
AcDbEntity
  8
1
  6
Continuous
 62
     4
100
AcDbLine
 10
154.0
 20
155.4
 30
0.0
 11
155.0588235294118
 21
155.4
 31
0.0
  0
LINE
  5
137
330
1F
100
AcDbEntity
  8
1
  6
Continuous
 62
     4
100
AcDbLine
 10
155.0588235294118
 20
155.4
 30
0.0
 11
154.0
 21
155.4
 31
0.0
  0
LINE
  5
138
330
1F
100
AcDbEntity
  8
1
  6
Continuous
 62
     4
100
AcDbLine
 10
155.5
 20
155.7
 30
0.0
 11
155.0588235294118
 21
155.4
 31
0.0
  0
LINE
  5
139
330
1F
100
AcDbEntity
  8
1
  6
Continuous
 62
     4
100
AcDbLine
 10
155.5882352941177
 20
156.1
 30
0.0
 11
155.5
 21
155.7
 31
0.0
  0
LINE
  5
13A
330
1F
100
AcDbEntity
  8
1
  6
Continuous
 62
     4
100
AcDbLine
 10
155.5
 20
156.6
 30
0.0
 11
155.5882352941177
 21
156.1
 31
0.0
  0
LINE
  5
13B
330
1F
100
AcDbEntity
  8
1
  6
Continuous
 62
     4
100
AcDbLine
 10
155.0588235294118
 20
156.8
 30
0.0
 11
155.5
 21
156.6
 31
0.0
  0
LINE
  5
13C
330
1F
100
AcDbEntity
  8
1
  6
Continuous
 62
     4
100
AcDbLine
 10
154.0
 20
156.8
 30
0.0
 11
155.0588235294118
 21
156.8
 31
0.0
  0
LINE
  5
13D
330
1F
100
AcDbEntity
  8
1
  6
Continuous
 62
     4
100
AcDbLine
 10
154.0
 20
154.0
 30
0.0
 11
154.0
 21
156.8
 31
0.0
  0
LINE
  5
13E
330
1F
100
AcDbEntity
  8
1
  6
Continuous
 62
     4
100
AcDbLine
 10
213.1240445489106
 20
294.9946800169282
 30
0.0
 11
215.0652210194988
 21
294.9946800169282
 31
0.0
  0
LINE
  5
13F
330
1F
100
AcDbEntity
  8
1
  6
Continuous
 62
     4
100
AcDbLine
 10
213.3005151371459
 20
295.4946800169282
 30
0.0
 11
213.1240445489106
 21
294.9946800169282
 31
0.0
  0
LINE
  5
140
330
1F
100
AcDbEntity
  8
1
  6
Continuous
 62
     4
100
AcDbLine
 10
213.4769857253812
 20
295.7946800169282
 30
0.0
 11
213.3005151371459
 21
295.4946800169282
 31
0.0
  0
LINE
  5
141
330
1F
100
AcDbEntity
  8
1
  6
Continuous
 62
     4
100
AcDbLine
 10
213.8299269018518
 20
296.0946800169282
 30
0.0
 11
213.4769857253812
 21
295.7946800169282
 31
0.0
  0
LINE
  5
142
330
1F
100
AcDbEntity
  8
1
  6
Continuous
 62
     4
100
AcDbLine
 10
214.1828680783224
 20
296.2946800169282
 30
0.0
 11
213.8299269018518
 21
296.0946800169282
 31
0.0
  0
LINE
  5
143
330
1F
100
AcDbEntity
  8
1
  6
Continuous
 62
     4
100
AcDbLine
 10
214.6240445489106
 20
296.5946800169282
 30
0.0
 11
214.1828680783224
 21
296.2946800169282
 31
0.0
  0
LINE
  5
144
330
1F
100
AcDbEntity
  8
1
  6
Continuous
 62
     4
100
AcDbLine
 10
214.8887504312635
 20
296.9946800169282
 30
0.0
 11
214.6240445489106
 21
296.5946800169282
 31
0.0
  0
LINE
  5
145
330
1F
100
AcDbEntity
  8
1
  6
Continuous
 62
     4
100
AcDbLine
 10
214.9769857253812
 20
297.3946800169282
 30
0.0
 11
214.8887504312635
 21
296.9946800169282
 31
0.0
  0
LINE
  5
146
330
1F
100
AcDbEntity
  8
1
  6
Continuous
 62
     4
100
AcDbLine
 10
214.6240445489106
 20
297.7946800169282
 30
0.0
 11
214.9769857253812
 21
297.3946800169282
 31
0.0
  0
LINE
  5
147
330
1F
100
AcDbEntity
  8
1
  6
Continuous
 62
     4
100
AcDbLine
 10
214.0946327842047
 20
297.9946800169282
 30
0.0
 11
214.6240445489106
 21
297.7946800169282
 31
0.0
  0
LINE
  5
148
330
1F
100
AcDbEntity
  8
1
  6
Continuous
 62
     4
100
AcDbLine
 10
213.5652210194988
 20
297.7946800169282
 30
0.0
 11
214.0946327842047
 21
297.9946800169282
 31
0.0
  0
LINE
  5
149
330
1F
100
AcDbEntity
  8
1
  6
Continuous
 62
     4
100
AcDbLine
 10
213.2122798430283
 20
297.3946800169282
 30
0.0
 11
213.5652210194988
 21
297.7946800169282
 31
0.0
  0
LINE
  5
14A
330
1F
100
AcDbEntity
  8
1
  6
Continuous
 62
     4
100
AcDbLine
 10
212.2416916077341
 20
297.6946800169282
 30
0.0
 11
210.3887504312635
 21
295.4946800169282
 31
0.0
  0
LINE
  5
14B
330
1F
100
AcDbEntity
  8
1
  6
Continuous
 62
     4
100
AcDbLine
 10
209.5063974900871
 20
297.9946800169282
 30
0.0
 11
209.5063974900871
 21
294.9946800169282
 31
0.0
  0
LINE
  5
14C
330
1F
100
AcDbEntity
  8
1
  6
Continuous
 62
     4
100
AcDbLine
 10
209.0652210194988
 20
297.6946800169282
 30
0.0
 11
209.5063974900871
 21
297.9946800169282
 31
0.0
  0
LINE
  5
14D
330
1F
100
AcDbEntity
  8
1
  6
Continuous
 62
     4
100
AcDbLine
 10
208.0063974900871
 20
295.2946800169282
 30
0.0
 11
208.1828680783224
 21
295.5946800169282
 31
0.0
  0
LINE
  5
14E
330
1F
100
AcDbEntity
  8
1
  6
Continuous
 62
     4
100
AcDbLine
 10
207.7416916077341
 20
295.0946800169282
 30
0.0
 11
208.0063974900871
 21
295.2946800169282
 31
0.0
  0
LINE
  5
14F
330
1F
100
AcDbEntity
  8
1
  6
Continuous
 62
     4
100
AcDbLine
 10
207.3887504312636
 20
294.9946800169282
 30
0.0
 11
207.7416916077341
 21
295.0946800169282
 31
0.0
  0
LINE
  5
150
330
1F
100
AcDbEntity
  8
1
  6
Continuous
 62
     4
100
AcDbLine
 10
207.1240445489106
 20
294.9946800169282
 30
0.0
 11
207.3887504312636
 21
294.9946800169282
 31
0.0
  0
LINE
  5
151
330
1F
100
AcDbEntity
  8
1
  6
Continuous
 62
     4
100
AcDbLine
 10
206.9475739606753
 20
295.0946800169282
 30
0.0
 11
207.1240445489106
 21
294.9946800169282
 31
0.0
  0
LINE
  5
152
330
1F
100
AcDbEntity
  8
1
  6
Continuous
 62
     4
100
AcDbLine
 10
206.8593386665577
 20
295.2946800169282
 30
0.0
 11
206.9475739606753
 21
295.0946800169282
 31
0.0
  0
LINE
  5
153
330
1F
100
AcDbEntity
  8
1
  6
Continuous
 62
     4
100
AcDbLine
 10
206.77110337244
 20
295.5946800169282
 30
0.0
 11
206.8593386665577
 21
295.2946800169282
 31
0.0
  0
LINE
  5
154
330
1F
100
AcDbEntity
  8
1
  6
Continuous
 62
     4
100
AcDbLine
 10
206.6828680783224
 20
295.9946800169282
 30
0.0
 11
206.77110337244
 21
295.5946800169282
 31
0.0
  0
LINE
  5
155
330
1F
100
AcDbEntity
  8
1
  6
Continuous
 62
     4
100
AcDbLine
 10
206.77110337244
 20
296.4946800169282
 30
0.0
 11
206.6828680783224
 21
295.9946800169282
 31
0.0
  0
LINE
  5
156
330
1F
100
AcDbEntity
  8
1
  6
Continuous
 62
     4
100
AcDbLine
 10
206.8593386665577
 20
296.7946800169282
 30
0.0
 11
206.77110337244
 21
296.4946800169282
 31
0.0
  0
LINE
  5
157
330
1F
100
AcDbEntity
  8
1
  6
Continuous
 62
     4
100
AcDbLine
 10
207.035809254793
 20
297.0946800169282
 30
0.0
 11
206.8593386665577
 21
296.7946800169282
 31
0.0
  0
LINE
  5
158
330
1F
100
AcDbEntity
  8
1
  6
Continuous
 62
     4
100
AcDbLine
 10
207.3887504312636
 20
297.1946800169282
 30
0.0
 11
207.035809254793
 21
297.0946800169282
 31
0.0
  0
LINE
  5
159
330
1F
100
AcDbEntity
  8
1
  6
Continuous
 62
     4
100
AcDbLine
 10
207.7416916077341
 20
297.0946800169282
 30
0.0
 11
207.3887504312636
 21
297.1946800169282
 31
0.0
  0
LINE
  5
15A
330
1F
100
AcDbEntity
  8
1
  6
Continuous
 62
     4
100
AcDbLine
 10
208.0063974900871
 20
296.8946800169282
 30
0.0
 11
207.7416916077341
 21
297.0946800169282
 31
0.0
  0
LINE
  5
15B
330
1F
100
AcDbEntity
  8
1
  6
Continuous
 62
     4
100
AcDbLine
 10
208.1828680783224
 20
296.6946800169282
 30
0.0
 11
208.0063974900871
 21
296.8946800169282
 31
0.0
  0
LINE
  5
15C
330
1F
100
AcDbEntity
  8
1
  6
Continuous
 62
     4
100
AcDbLine
 10
203.9475739606753
 20
296.3946800169282
 30
0.0
 11
203.9475739606753
 21
297.9946800169282
 31
0.0
  0
LINE
  5
15D
330
1F
100
AcDbEntity
  8
1
  6
Continuous
 62
     4
100
AcDbLine
 10
205.0946327842047
 20
296.3946800169282
 30
0.0
 11
205.8005151371459
 21
294.9946800169282
 31
0.0
  0
LINE
  5
15E
330
1F
100
AcDbEntity
  8
1
  6
Continuous
 62
     4
100
AcDbLine
 10
205.0946327842047
 20
296.3946800169282
 30
0.0
 11
203.9475739606753
 21
296.3946800169282
 31
0.0
  0
LINE
  5
15F
330
1F
100
AcDbEntity
  8
1
  6
Continuous
 62
     4
100
AcDbLine
 10
205.4475739606753
 20
296.5946800169282
 30
0.0
 11
205.0946327842047
 21
296.3946800169282
 31
0.0
  0
LINE
  5
160
330
1F
100
AcDbEntity
  8
1
  6
Continuous
 62
     4
100
AcDbLine
 10
205.6240445489106
 20
296.7946800169282
 30
0.0
 11
205.4475739606753
 21
296.5946800169282
 31
0.0
  0
LINE
  5
161
330
1F
100
AcDbEntity
  8
1
  6
Continuous
 62
     4
100
AcDbLine
 10
205.7122798430282
 20
297.1946800169282
 30
0.0
 11
205.6240445489106
 21
296.7946800169282
 31
0.0
  0
LINE
  5
162
330
1F
100
AcDbEntity
  8
1
  6
Continuous
 62
     4
100
AcDbLine
 10
205.6240445489106
 20
297.4946800169282
 30
0.0
 11
205.7122798430282
 21
297.1946800169282
 31
0.0
  0
LINE
  5
163
330
1F
100
AcDbEntity
  8
1
  6
Continuous
 62
     4
100
AcDbLine
 10
205.4475739606753
 20
297.7946800169282
 30
0.0
 11
205.6240445489106
 21
297.4946800169282
 31
0.0
  0
LINE
  5
164
330
1F
100
AcDbEntity
  8
1
  6
Continuous
 62
     4
100
AcDbLine
 10
205.0946327842047
 20
297.9946800169282
 30
0.0
 11
205.4475739606753
 21
297.7946800169282
 31
0.0
  0
LINE
  5
165
330
1F
100
AcDbEntity
  8
1
  6
Continuous
 62
     4
100
AcDbLine
 10
203.9475739606753
 20
297.9946800169282
 30
0.0
 11
205.0946327842047
 21
297.9946800169282
 31
0.0
  0
LINE
  5
166
330
1F
100
AcDbEntity
  8
1
  6
Continuous
 62
     4
100
AcDbLine
 10
203.9475739606753
 20
294.9946800169282
 30
0.0
 11
203.9475739606753
 21
296.3946800169282
 31
0.0
  0
LINE
  5
167
330
1F
100
AcDbEntity
  8
1
  6
Continuous
 62
     4
100
AcDbLine
 10
88.11124956873655
 20
325.9946800169282
 30
0.0
 11
90.05242603932479
 21
325.9946800169282
 31
0.0
  0
LINE
  5
168
330
1F
100
AcDbEntity
  8
1
  6
Continuous
 62
     4
100
AcDbLine
 10
88.28772015697184
 20
326.4946800169282
 30
0.0
 11
88.11124956873655
 21
325.9946800169282
 31
0.0
  0
LINE
  5
169
330
1F
100
AcDbEntity
  8
1
  6
Continuous
 62
     4
100
AcDbLine
 10
88.46419074520715
 20
326.7946800169282
 30
0.0
 11
88.28772015697184
 21
326.4946800169282
 31
0.0
  0
LINE
  5
16A
330
1F
100
AcDbEntity
  8
1
  6
Continuous
 62
     4
100
AcDbLine
 10
88.81713192167773
 20
327.0946800169282
 30
0.0
 11
88.46419074520715
 21
326.7946800169282
 31
0.0
  0
LINE
  5
16B
330
1F
100
AcDbEntity
  8
1
  6
Continuous
 62
     4
100
AcDbLine
 10
89.17007309814832
 20
327.2946800169282
 30
0.0
 11
88.81713192167773
 21
327.0946800169282
 31
0.0
  0
LINE
  5
16C
330
1F
100
AcDbEntity
  8
1
  6
Continuous
 62
     4
100
AcDbLine
 10
89.61124956873655
 20
327.5946800169282
 30
0.0
 11
89.17007309814832
 21
327.2946800169282
 31
0.0
  0
LINE
  5
16D
330
1F
100
AcDbEntity
  8
1
  6
Continuous
 62
     4
100
AcDbLine
 10
89.8759554510895
 20
327.9946800169282
 30
0.0
 11
89.61124956873655
 21
327.5946800169282
 31
0.0
  0
LINE
  5
16E
330
1F
100
AcDbEntity
  8
1
  6
Continuous
 62
     4
100
AcDbLine
 10
89.96419074520715
 20
328.3946800169282
 30
0.0
 11
89.8759554510895
 21
327.9946800169282
 31
0.0
  0
LINE
  5
16F
330
1F
100
AcDbEntity
  8
1
  6
Continuous
 62
     4
100
AcDbLine
 10
89.61124956873655
 20
328.7946800169282
 30
0.0
 11
89.96419074520715
 21
328.3946800169282
 31
0.0
  0
LINE
  5
170
330
1F
100
AcDbEntity
  8
1
  6
Continuous
 62
     4
100
AcDbLine
 10
89.08183780403067
 20
328.9946800169282
 30
0.0
 11
89.61124956873655
 21
328.7946800169282
 31
0.0
  0
LINE
  5
171
330
1F
100
AcDbEntity
  8
1
  6
Continuous
 62
     4
100
AcDbLine
 10
88.55242603932479
 20
328.7946800169282
 30
0.0
 11
89.08183780403067
 21
328.9946800169282
 31
0.0
  0
LINE
  5
172
330
1F
100
AcDbEntity
  8
1
  6
Continuous
 62
     4
100
AcDbLine
 10
88.1994848628542
 20
328.3946800169282
 30
0.0
 11
88.55242603932479
 21
328.7946800169282
 31
0.0
  0
LINE
  5
173
330
1F
100
AcDbEntity
  8
1
  6
Continuous
 62
     4
100
AcDbLine
 10
87.22889662756009
 20
328.6946800169282
 30
0.0
 11
85.3759554510895
 21
326.4946800169282
 31
0.0
  0
LINE
  5
174
330
1F
100
AcDbEntity
  8
1
  6
Continuous
 62
     4
100
AcDbLine
 10
84.49360250991302
 20
328.9946800169282
 30
0.0
 11
84.49360250991302
 21
325.9946800169282
 31
0.0
  0
LINE
  5
175
330
1F
100
AcDbEntity
  8
1
  6
Continuous
 62
     4
100
AcDbLine
 10
84.05242603932479
 20
328.6946800169282
 30
0.0
 11
84.49360250991302
 21
328.9946800169282
 31
0.0
  0
LINE
  5
176
330
1F
100
AcDbEntity
  8
1
  6
Continuous
 62
     4
100
AcDbLine
 10
82.99360250991303
 20
326.2946800169282
 30
0.0
 11
83.17007309814832
 21
326.5946800169282
 31
0.0
  0
LINE
  5
177
330
1F
100
AcDbEntity
  8
1
  6
Continuous
 62
     4
100
AcDbLine
 10
82.72889662756009
 20
326.0946800169282
 30
0.0
 11
82.99360250991303
 21
326.2946800169282
 31
0.0
  0
LINE
  5
178
330
1F
100
AcDbEntity
  8
1
  6
Continuous
 62
     4
100
AcDbLine
 10
82.3759554510895
 20
325.9946800169282
 30
0.0
 11
82.72889662756009
 21
326.0946800169282
 31
0.0
  0
LINE
  5
179
330
1F
100
AcDbEntity
  8
1
  6
Continuous
 62
     4
100
AcDbLine
 10
82.11124956873655
 20
325.9946800169282
 30
0.0
 11
82.3759554510895
 21
325.9946800169282
 31
0.0
  0
LINE
  5
17A
330
1F
100
AcDbEntity
  8
1
  6
Continuous
 62
     4
100
AcDbLine
 10
81.93477898050126
 20
326.0946800169282
 30
0.0
 11
82.11124956873655
 21
325.9946800169282
 31
0.0
  0
LINE
  5
17B
330
1F
100
AcDbEntity
  8
1
  6
Continuous
 62
     4
100
AcDbLine
 10
81.84654368638361
 20
326.2946800169282
 30
0.0
 11
81.93477898050126
 21
326.0946800169282
 31
0.0
  0
LINE
  5
17C
330
1F
100
AcDbEntity
  8
1
  6
Continuous
 62
     4
100
AcDbLine
 10
81.75830839226597
 20
326.5946800169282
 30
0.0
 11
81.84654368638361
 21
326.2946800169282
 31
0.0
  0
LINE
  5
17D
330
1F
100
AcDbEntity
  8
1
  6
Continuous
 62
     4
100
AcDbLine
 10
81.67007309814832
 20
326.9946800169282
 30
0.0
 11
81.75830839226597
 21
326.5946800169282
 31
0.0
  0
LINE
  5
17E
330
1F
100
AcDbEntity
  8
1
  6
Continuous
 62
     4
100
AcDbLine
 10
81.75830839226597
 20
327.4946800169282
 30
0.0
 11
81.67007309814832
 21
326.9946800169282
 31
0.0
  0
LINE
  5
17F
330
1F
100
AcDbEntity
  8
1
  6
Continuous
 62
     4
100
AcDbLine
 10
81.84654368638361
 20
327.7946800169282
 30
0.0
 11
81.75830839226597
 21
327.4946800169282
 31
0.0
  0
LINE
  5
180
330
1F
100
AcDbEntity
  8
1
  6
Continuous
 62
     4
100
AcDbLine
 10
82.02301427461892
 20
328.0946800169282
 30
0.0
 11
81.84654368638361
 21
327.7946800169282
 31
0.0
  0
LINE
  5
181
330
1F
100
AcDbEntity
  8
1
  6
Continuous
 62
     4
100
AcDbLine
 10
82.3759554510895
 20
328.1946800169282
 30
0.0
 11
82.02301427461892
 21
328.0946800169282
 31
0.0
  0
LINE
  5
182
330
1F
100
AcDbEntity
  8
1
  6
Continuous
 62
     4
100
AcDbLine
 10
82.72889662756009
 20
328.0946800169282
 30
0.0
 11
82.3759554510895
 21
328.1946800169282
 31
0.0
  0
LINE
  5
183
330
1F
100
AcDbEntity
  8
1
  6
Continuous
 62
     4
100
AcDbLine
 10
82.99360250991303
 20
327.8946800169282
 30
0.0
 11
82.72889662756009
 21
328.0946800169282
 31
0.0
  0
LINE
  5
184
330
1F
100
AcDbEntity
  8
1
  6
Continuous
 62
     4
100
AcDbLine
 10
83.17007309814832
 20
327.6946800169282
 30
0.0
 11
82.99360250991303
 21
327.8946800169282
 31
0.0
  0
LINE
  5
185
330
1F
100
AcDbEntity
  8
1
  6
Continuous
 62
     4
100
AcDbLine
 10
78.93477898050125
 20
327.3946800169282
 30
0.0
 11
78.93477898050125
 21
328.9946800169282
 31
0.0
  0
LINE
  5
186
330
1F
100
AcDbEntity
  8
1
  6
Continuous
 62
     4
100
AcDbLine
 10
80.08183780403066
 20
327.3946800169282
 30
0.0
 11
80.78772015697184
 21
325.9946800169282
 31
0.0
  0
LINE
  5
187
330
1F
100
AcDbEntity
  8
1
  6
Continuous
 62
     4
100
AcDbLine
 10
80.08183780403066
 20
327.3946800169282
 30
0.0
 11
78.93477898050125
 21
327.3946800169282
 31
0.0
  0
LINE
  5
188
330
1F
100
AcDbEntity
  8
1
  6
Continuous
 62
     4
100
AcDbLine
 10
80.43477898050125
 20
327.5946800169282
 30
0.0
 11
80.08183780403066
 21
327.3946800169282
 31
0.0
  0
LINE
  5
189
330
1F
100
AcDbEntity
  8
1
  6
Continuous
 62
     4
100
AcDbLine
 10
80.61124956873654
 20
327.7946800169282
 30
0.0
 11
80.43477898050125
 21
327.5946800169282
 31
0.0
  0
LINE
  5
18A
330
1F
100
AcDbEntity
  8
1
  6
Continuous
 62
     4
100
AcDbLine
 10
80.69948486285419
 20
328.1946800169282
 30
0.0
 11
80.61124956873654
 21
327.7946800169282
 31
0.0
  0
LINE
  5
18B
330
1F
100
AcDbEntity
  8
1
  6
Continuous
 62
     4
100
AcDbLine
 10
80.61124956873654
 20
328.4946800169282
 30
0.0
 11
80.69948486285419
 21
328.1946800169282
 31
0.0
  0
LINE
  5
18C
330
1F
100
AcDbEntity
  8
1
  6
Continuous
 62
     4
100
AcDbLine
 10
80.43477898050125
 20
328.7946800169282
 30
0.0
 11
80.61124956873654
 21
328.4946800169282
 31
0.0
  0
LINE
  5
18D
330
1F
100
AcDbEntity
  8
1
  6
Continuous
 62
     4
100
AcDbLine
 10
80.08183780403066
 20
328.9946800169282
 30
0.0
 11
80.43477898050125
 21
328.7946800169282
 31
0.0
  0
LINE
  5
18E
330
1F
100
AcDbEntity
  8
1
  6
Continuous
 62
     4
100
AcDbLine
 10
78.93477898050125
 20
328.9946800169282
 30
0.0
 11
80.08183780403066
 21
328.9946800169282
 31
0.0
  0
LINE
  5
18F
330
1F
100
AcDbEntity
  8
1
  6
Continuous
 62
     4
100
AcDbLine
 10
78.93477898050125
 20
325.9946800169282
 30
0.0
 11
78.93477898050125
 21
327.3946800169282
 31
0.0
  0
LINE
  5
190
330
1F
100
AcDbEntity
  8
1
  6
Continuous
 62
     4
100
AcDbLine
 10
216.5033090284171
 20
248.8921483462546
 30
0.0
 11
216.5033090284171
 21
245.8921483462546
 31
0.0
  0
LINE
  5
191
330
1F
100
AcDbEntity
  8
1
  6
Continuous
 62
     4
100
AcDbLine
 10
216.0621325578289
 20
248.5921483462546
 30
0.0
 11
216.5033090284171
 21
248.8921483462546
 31
0.0
  0
LINE
  5
192
330
1F
100
AcDbEntity
  8
1
  6
Continuous
 62
     4
100
AcDbLine
 10
215.0033090284171
 20
246.1921483462546
 30
0.0
 11
215.1797796166524
 21
246.4921483462546
 31
0.0
  0
LINE
  5
193
330
1F
100
AcDbEntity
  8
1
  6
Continuous
 62
     4
100
AcDbLine
 10
214.7386031460642
 20
245.9921483462546
 30
0.0
 11
215.0033090284171
 21
246.1921483462546
 31
0.0
  0
LINE
  5
194
330
1F
100
AcDbEntity
  8
1
  6
Continuous
 62
     4
100
AcDbLine
 10
214.3856619695936
 20
245.8921483462546
 30
0.0
 11
214.7386031460642
 21
245.9921483462546
 31
0.0
  0
LINE
  5
195
330
1F
100
AcDbEntity
  8
1
  6
Continuous
 62
     4
100
AcDbLine
 10
214.1209560872406
 20
245.8921483462546
 30
0.0
 11
214.3856619695936
 21
245.8921483462546
 31
0.0
  0
LINE
  5
196
330
1F
100
AcDbEntity
  8
1
  6
Continuous
 62
     4
100
AcDbLine
 10
213.9444854990053
 20
245.9921483462546
 30
0.0
 11
214.1209560872406
 21
245.8921483462546
 31
0.0
  0
LINE
  5
197
330
1F
100
AcDbEntity
  8
1
  6
Continuous
 62
     4
100
AcDbLine
 10
213.8562502048877
 20
246.1921483462546
 30
0.0
 11
213.9444854990053
 21
245.9921483462546
 31
0.0
  0
LINE
  5
198
330
1F
100
AcDbEntity
  8
1
  6
Continuous
 62
     4
100
AcDbLine
 10
213.76801491077
 20
246.4921483462546
 30
0.0
 11
213.8562502048877
 21
246.1921483462546
 31
0.0
  0
LINE
  5
199
330
1F
100
AcDbEntity
  8
1
  6
Continuous
 62
     4
100
AcDbLine
 10
213.6797796166524
 20
246.8921483462546
 30
0.0
 11
213.76801491077
 21
246.4921483462546
 31
0.0
  0
LINE
  5
19A
330
1F
100
AcDbEntity
  8
1
  6
Continuous
 62
     4
100
AcDbLine
 10
213.76801491077
 20
247.3921483462546
 30
0.0
 11
213.6797796166524
 21
246.8921483462546
 31
0.0
  0
LINE
  5
19B
330
1F
100
AcDbEntity
  8
1
  6
Continuous
 62
     4
100
AcDbLine
 10
213.8562502048877
 20
247.6921483462546
 30
0.0
 11
213.76801491077
 21
247.3921483462546
 31
0.0
  0
LINE
  5
19C
330
1F
100
AcDbEntity
  8
1
  6
Continuous
 62
     4
100
AcDbLine
 10
214.032720793123
 20
247.9921483462546
 30
0.0
 11
213.8562502048877
 21
247.6921483462546
 31
0.0
  0
LINE
  5
19D
330
1F
100
AcDbEntity
  8
1
  6
Continuous
 62
     4
100
AcDbLine
 10
214.3856619695936
 20
248.0921483462546
 30
0.0
 11
214.032720793123
 21
247.9921483462546
 31
0.0
  0
LINE
  5
19E
330
1F
100
AcDbEntity
  8
1
  6
Continuous
 62
     4
100
AcDbLine
 10
214.7386031460642
 20
247.9921483462546
 30
0.0
 11
214.3856619695936
 21
248.0921483462546
 31
0.0
  0
LINE
  5
19F
330
1F
100
AcDbEntity
  8
1
  6
Continuous
 62
     4
100
AcDbLine
 10
215.0033090284171
 20
247.7921483462546
 30
0.0
 11
214.7386031460642
 21
247.9921483462546
 31
0.0
  0
LINE
  5
1A0
330
1F
100
AcDbEntity
  8
1
  6
Continuous
 62
     4
100
AcDbLine
 10
215.1797796166524
 20
247.5921483462546
 30
0.0
 11
215.0033090284171
 21
247.7921483462546
 31
0.0
  0
LINE
  5
1A1
330
1F
100
AcDbEntity
  8
1
  6
Continuous
 62
     4
100
AcDbLine
 10
210.9444854990053
 20
247.2921483462546
 30
0.0
 11
210.9444854990053
 21
248.8921483462546
 31
0.0
  0
LINE
  5
1A2
330
1F
100
AcDbEntity
  8
1
  6
Continuous
 62
     4
100
AcDbLine
 10
212.0915443225347
 20
247.2921483462546
 30
0.0
 11
212.7974266754759
 21
245.8921483462546
 31
0.0
  0
LINE
  5
1A3
330
1F
100
AcDbEntity
  8
1
  6
Continuous
 62
     4
100
AcDbLine
 10
212.0915443225347
 20
247.2921483462546
 30
0.0
 11
210.9444854990053
 21
247.2921483462546
 31
0.0
  0
LINE
  5
1A4
330
1F
100
AcDbEntity
  8
1
  6
Continuous
 62
     4
100
AcDbLine
 10
212.4444854990053
 20
247.4921483462546
 30
0.0
 11
212.0915443225347
 21
247.2921483462546
 31
0.0
  0
LINE
  5
1A5
330
1F
100
AcDbEntity
  8
1
  6
Continuous
 62
     4
100
AcDbLine
 10
212.6209560872406
 20
247.6921483462546
 30
0.0
 11
212.4444854990053
 21
247.4921483462546
 31
0.0
  0
LINE
  5
1A6
330
1F
100
AcDbEntity
  8
1
  6
Continuous
 62
     4
100
AcDbLine
 10
212.7091913813582
 20
248.0921483462546
 30
0.0
 11
212.6209560872406
 21
247.6921483462546
 31
0.0
  0
LINE
  5
1A7
330
1F
100
AcDbEntity
  8
1
  6
Continuous
 62
     4
100
AcDbLine
 10
212.6209560872406
 20
248.3921483462546
 30
0.0
 11
212.7091913813582
 21
248.0921483462546
 31
0.0
  0
LINE
  5
1A8
330
1F
100
AcDbEntity
  8
1
  6
Continuous
 62
     4
100
AcDbLine
 10
212.4444854990053
 20
248.6921483462546
 30
0.0
 11
212.6209560872406
 21
248.3921483462546
 31
0.0
  0
LINE
  5
1A9
330
1F
100
AcDbEntity
  8
1
  6
Continuous
 62
     4
100
AcDbLine
 10
212.0915443225347
 20
248.8921483462546
 30
0.0
 11
212.4444854990053
 21
248.6921483462546
 31
0.0
  0
LINE
  5
1AA
330
1F
100
AcDbEntity
  8
1
  6
Continuous
 62
     4
100
AcDbLine
 10
210.9444854990053
 20
248.8921483462546
 30
0.0
 11
212.0915443225347
 21
248.8921483462546
 31
0.0
  0
LINE
  5
1AB
330
1F
100
AcDbEntity
  8
1
  6
Continuous
 62
     4
100
AcDbLine
 10
210.9444854990053
 20
245.8921483462546
 30
0.0
 11
210.9444854990053
 21
247.2921483462546
 31
0.0
  0
LINE
  5
1AC
330
1F
100
AcDbEntity
  8
1
  6
Continuous
 62
     4
100
AcDbLine
 10
81.61433803040649
 20
248.8921483462546
 30
0.0
 11
81.61433803040649
 21
245.8921483462546
 31
0.0
  0
LINE
  5
1AD
330
1F
100
AcDbEntity
  8
1
  6
Continuous
 62
     4
100
AcDbLine
 10
81.17316155981825
 20
248.5921483462546
 30
0.0
 11
81.61433803040649
 21
248.8921483462546
 31
0.0
  0
LINE
  5
1AE
330
1F
100
AcDbEntity
  8
1
  6
Continuous
 62
     4
100
AcDbLine
 10
80.11433803040649
 20
246.1921483462546
 30
0.0
 11
80.29080861864178
 21
246.4921483462546
 31
0.0
  0
LINE
  5
1AF
330
1F
100
AcDbEntity
  8
1
  6
Continuous
 62
     4
100
AcDbLine
 10
79.84963214805354
 20
245.9921483462546
 30
0.0
 11
80.11433803040649
 21
246.1921483462546
 31
0.0
  0
LINE
  5
1B0
330
1F
100
AcDbEntity
  8
1
  6
Continuous
 62
     4
100
AcDbLine
 10
79.49669097158295
 20
245.8921483462546
 30
0.0
 11
79.84963214805354
 21
245.9921483462546
 31
0.0
  0
LINE
  5
1B1
330
1F
100
AcDbEntity
  8
1
  6
Continuous
 62
     4
100
AcDbLine
 10
79.23198508923001
 20
245.8921483462546
 30
0.0
 11
79.49669097158295
 21
245.8921483462546
 31
0.0
  0
LINE
  5
1B2
330
1F
100
AcDbEntity
  8
1
  6
Continuous
 62
     4
100
AcDbLine
 10
79.05551450099472
 20
245.9921483462546
 30
0.0
 11
79.23198508923001
 21
245.8921483462546
 31
0.0
  0
LINE
  5
1B3
330
1F
100
AcDbEntity
  8
1
  6
Continuous
 62
     4
100
AcDbLine
 10
78.96727920687707
 20
246.1921483462546
 30
0.0
 11
79.05551450099472
 21
245.9921483462546
 31
0.0
  0
LINE
  5
1B4
330
1F
100
AcDbEntity
  8
1
  6
Continuous
 62
     4
100
AcDbLine
 10
78.87904391275943
 20
246.4921483462546
 30
0.0
 11
78.96727920687707
 21
246.1921483462546
 31
0.0
  0
LINE
  5
1B5
330
1F
100
AcDbEntity
  8
1
  6
Continuous
 62
     4
100
AcDbLine
 10
78.79080861864178
 20
246.8921483462546
 30
0.0
 11
78.87904391275943
 21
246.4921483462546
 31
0.0
  0
LINE
  5
1B6
330
1F
100
AcDbEntity
  8
1
  6
Continuous
 62
     4
100
AcDbLine
 10
78.87904391275943
 20
247.3921483462546
 30
0.0
 11
78.79080861864178
 21
246.8921483462546
 31
0.0
  0
LINE
  5
1B7
330
1F
100
AcDbEntity
  8
1
  6
Continuous
 62
     4
100
AcDbLine
 10
78.96727920687707
 20
247.6921483462546
 30
0.0
 11
78.87904391275943
 21
247.3921483462546
 31
0.0
  0
LINE
  5
1B8
330
1F
100
AcDbEntity
  8
1
  6
Continuous
 62
     4
100
AcDbLine
 10
79.14374979511237
 20
247.9921483462546
 30
0.0
 11
78.96727920687707
 21
247.6921483462546
 31
0.0
  0
LINE
  5
1B9
330
1F
100
AcDbEntity
  8
1
  6
Continuous
 62
     4
100
AcDbLine
 10
79.49669097158295
 20
248.0921483462546
 30
0.0
 11
79.14374979511237
 21
247.9921483462546
 31
0.0
  0
LINE
  5
1BA
330
1F
100
AcDbEntity
  8
1
  6
Continuous
 62
     4
100
AcDbLine
 10
79.84963214805354
 20
247.9921483462546
 30
0.0
 11
79.49669097158295
 21
248.0921483462546
 31
0.0
  0
LINE
  5
1BB
330
1F
100
AcDbEntity
  8
1
  6
Continuous
 62
     4
100
AcDbLine
 10
80.11433803040649
 20
247.7921483462546
 30
0.0
 11
79.84963214805354
 21
247.9921483462546
 31
0.0
  0
LINE
  5
1BC
330
1F
100
AcDbEntity
  8
1
  6
Continuous
 62
     4
100
AcDbLine
 10
80.29080861864178
 20
247.5921483462546
 30
0.0
 11
80.11433803040649
 21
247.7921483462546
 31
0.0
  0
LINE
  5
1BD
330
1F
100
AcDbEntity
  8
1
  6
Continuous
 62
     4
100
AcDbLine
 10
76.05551450099472
 20
247.2921483462546
 30
0.0
 11
76.05551450099472
 21
248.8921483462546
 31
0.0
  0
LINE
  5
1BE
330
1F
100
AcDbEntity
  8
1
  6
Continuous
 62
     4
100
AcDbLine
 10
77.20257332452412
 20
247.2921483462546
 30
0.0
 11
77.90845567746531
 21
245.8921483462546
 31
0.0
  0
LINE
  5
1BF
330
1F
100
AcDbEntity
  8
1
  6
Continuous
 62
     4
100
AcDbLine
 10
77.20257332452412
 20
247.2921483462546
 30
0.0
 11
76.05551450099472
 21
247.2921483462546
 31
0.0
  0
LINE
  5
1C0
330
1F
100
AcDbEntity
  8
1
  6
Continuous
 62
     4
100
AcDbLine
 10
77.55551450099472
 20
247.4921483462546
 30
0.0
 11
77.20257332452412
 21
247.2921483462546
 31
0.0
  0
LINE
  5
1C1
330
1F
100
AcDbEntity
  8
1
  6
Continuous
 62
     4
100
AcDbLine
 10
77.73198508923001
 20
247.6921483462546
 30
0.0
 11
77.55551450099472
 21
247.4921483462546
 31
0.0
  0
LINE
  5
1C2
330
1F
100
AcDbEntity
  8
1
  6
Continuous
 62
     4
100
AcDbLine
 10
77.82022038334766
 20
248.0921483462546
 30
0.0
 11
77.73198508923001
 21
247.6921483462546
 31
0.0
  0
LINE
  5
1C3
330
1F
100
AcDbEntity
  8
1
  6
Continuous
 62
     4
100
AcDbLine
 10
77.73198508923001
 20
248.3921483462546
 30
0.0
 11
77.82022038334766
 21
248.0921483462546
 31
0.0
  0
LINE
  5
1C4
330
1F
100
AcDbEntity
  8
1
  6
Continuous
 62
     4
100
AcDbLine
 10
77.55551450099472
 20
248.6921483462546
 30
0.0
 11
77.73198508923001
 21
248.3921483462546
 31
0.0
  0
LINE
  5
1C5
330
1F
100
AcDbEntity
  8
1
  6
Continuous
 62
     4
100
AcDbLine
 10
77.20257332452412
 20
248.8921483462546
 30
0.0
 11
77.55551450099472
 21
248.6921483462546
 31
0.0
  0
LINE
  5
1C6
330
1F
100
AcDbEntity
  8
1
  6
Continuous
 62
     4
100
AcDbLine
 10
76.05551450099472
 20
248.8921483462546
 30
0.0
 11
77.20257332452412
 21
248.8921483462546
 31
0.0
  0
LINE
  5
1C7
330
1F
100
AcDbEntity
  8
1
  6
Continuous
 62
     4
100
AcDbLine
 10
76.05551450099472
 20
245.8921483462546
 30
0.0
 11
76.05551450099472
 21
247.2921483462546
 31
0.0
  0
LINE
  5
1C8
330
1F
100
AcDbEntity
  8
1
  6
Continuous
 62
     3
100
AcDbLine
 10
166.5705080756888
 20
363.6339745962146
 30
0.0
 11
167.5
 21
363.6339745962146
 31
0.0
  0
LINE
  5
1C9
330
1F
100
AcDbEntity
  8
1
  6
Continuous
 62
     3
100
AcDbLine
 10
151.5
 20
363.6339745962146
 30
0.0
 11
162.0705080756888
 21
363.6339745962146
 31
0.0
  0
LINE
  5
1CA
330
1F
100
AcDbEntity
  8
1
  6
Continuous
 62
     3
100
AcDbLine
 10
142.5
 20
363.6339745962146
 30
0.0
 11
131.9294919243112
 21
363.6339745962146
 31
0.0
  0
LINE
  5
1CB
330
1F
100
AcDbEntity
  8
1
  6
Continuous
 62
     3
100
AcDbLine
 10
127.4294919243113
 20
363.6339745962146
 30
0.0
 11
126.5
 21
363.6339745962146
 31
0.0
  0
LINE
  5
1CC
330
1F
100
AcDbEntity
  8
1
  6
Continuous
 62
     3
100
AcDbLine
 10
127.4294919243113
 20
363.6339745962146
 30
0.0
 11
127.4294919243113
 21
345.4999999999982
 31
0.0
  0
LINE
  5
1CD
330
1F
100
AcDbEntity
  8
1
  6
Continuous
 62
     3
100
AcDbLine
 10
131.9294919243112
 20
363.6339745962146
 30
0.0
 11
131.9294919243112
 21
345.4999999999982
 31
0.0
  0
LINE
  5
1CE
330
1F
100
AcDbEntity
  8
1
  6
Continuous
 62
     3
100
AcDbLine
 10
142.5
 20
363.6339745962146
 30
0.0
 11
142.5
 21
345.4999999999982
 31
0.0
  0
LINE
  5
1CF
330
1F
100
AcDbEntity
  8
1
  6
Continuous
 62
     3
100
AcDbLine
 10
151.5
 20
363.6339745962146
 30
0.0
 11
151.5
 21
345.4999999999982
 31
0.0
  0
LINE
  5
1D0
330
1F
100
AcDbEntity
  8
1
  6
Continuous
 62
     3
100
AcDbLine
 10
162.0705080756888
 20
363.6339745962146
 30
0.0
 11
162.0705080756887
 21
345.4999999999982
 31
0.0
  0
LINE
  5
1D1
330
1F
100
AcDbEntity
  8
1
  6
Continuous
 62
     3
100
AcDbLine
 10
166.5705080756888
 20
363.6339745962146
 30
0.0
 11
166.5705080756888
 21
345.4999999999982
 31
0.0
  0
LINE
  5
1D2
330
1F
100
AcDbEntity
  8
5
  6
Continuous
 62
     3
100
AcDbLine
 10
126.5
 20
363.6339745962146
 30
0.0
 11
128.0
 21
364.4999999999992
 31
0.0
  0
LINE
  5
1D3
330
1F
100
AcDbEntity
  8
5
  6
Continuous
 62
     3
100
AcDbLine
 10
166.0
 20
364.4999999999992
 30
0.0
 11
167.5
 21
363.6339745962146
 31
0.0
  0
LINE
  5
1D4
330
1F
100
AcDbEntity
  8
1
  6
Continuous
 62
     3
100
AcDbLine
 10
98.15470053837888
 20
339.4317732494131
 30
0.0
 11
113.9999999999998
 21
339.4317732494131
 31
0.0
  0
LINE
  5
1D5
330
1F
100
AcDbEntity
  8
1
  6
Continuous
 62
     3
100
AcDbLine
 10
113.9999999999998
 20
339.4317732494131
 30
0.0
 11
113.9999999999998
 21
335.3851648071327
 31
0.0
  0
LINE
  5
1D6
330
1F
100
AcDbEntity
  8
1
  6
Continuous
 62
     3
100
AcDbLine
 10
98.15470053837888
 20
335.3851648071327
 30
0.0
 11
113.9999999999998
 21
335.3851648071327
 31
0.0
  0
LINE
  5
1D7
330
1F
100
AcDbEntity
  8
1
  6
Continuous
 62
     3
100
AcDbLine
 10
98.15532538610572
 20
344.8169380565475
 30
0.0
 11
113.9993751522727
 21
344.8169380565475
 31
0.0
  0
LINE
  5
1D8
330
1F
100
AcDbEntity
  8
1
  6
Continuous
 62
     3
100
AcDbLine
 10
98.15470053837888
 20
339.4317732494131
 30
0.0
 11
98.15470053837888
 21
335.3851648071327
 31
0.0
  0
LINE
  5
1D9
330
1F
100
AcDbEntity
  8
1
  6
Continuous
 62
     3
100
AcDbLine
 10
98.15470053837888
 20
324.6148351928636
 30
0.0
 11
98.15470053837888
 21
320.5682267505833
 31
0.0
  0
LINE
  5
1DA
330
1F
100
AcDbEntity
  8
1
  6
Continuous
 62
     3
100
AcDbLine
 10
98.15470053837888
 20
324.6148351928636
 30
0.0
 11
113.9999999999998
 21
324.6148351928636
 31
0.0
  0
LINE
  5
1DB
330
1F
100
AcDbEntity
  8
1
  6
Continuous
 62
     3
100
AcDbLine
 10
98.15470053837888
 20
320.5682267505833
 30
0.0
 11
113.9999999999998
 21
320.5682267505833
 31
0.0
  0
LINE
  5
1DC
330
1F
100
AcDbEntity
  8
1
  6
Continuous
 62
     3
100
AcDbLine
 10
113.9999999999998
 20
324.6148351928636
 30
0.0
 11
113.9999999999998
 21
320.5682267505833
 31
0.0
  0
LINE
  5
1DD
330
1F
100
AcDbEntity
  8
1
  6
Continuous
 62
     3
100
AcDbLine
 10
98.15532538610594
 20
315.1830619434487
 30
0.0
 11
113.9999999999998
 21
315.1830619434487
 31
0.0
  0
LINE
  5
1DE
330
1F
100
AcDbEntity
  8
1
  6
Continuous
 62
     3
100
AcDbLine
 10
180.0000000000003
 20
284.1830619434487
 30
0.0
 11
195.8446746138941
 21
284.1830619434487
 31
0.0
  0
LINE
  5
1DF
330
1F
100
AcDbEntity
  8
1
  6
Continuous
 62
     3
100
AcDbLine
 10
180.0000000000003
 20
289.5682267505833
 30
0.0
 11
180.0000000000003
 21
293.6148351928636
 31
0.0
  0
LINE
  5
1E0
330
1F
100
AcDbEntity
  8
1
  6
Continuous
 62
     3
100
AcDbLine
 10
180.0000000000003
 20
289.5682267505833
 30
0.0
 11
195.8452994616212
 21
289.5682267505833
 31
0.0
  0
LINE
  5
1E1
330
1F
100
AcDbEntity
  8
1
  6
Continuous
 62
     3
100
AcDbLine
 10
180.0000000000003
 20
293.6148351928636
 30
0.0
 11
195.8452994616212
 21
293.6148351928636
 31
0.0
  0
LINE
  5
1E2
330
1F
100
AcDbEntity
  8
1
  6
Continuous
 62
     3
100
AcDbLine
 10
195.8452994616212
 20
289.5682267505833
 30
0.0
 11
195.8452994616212
 21
293.6148351928636
 31
0.0
  0
LINE
  5
1E3
330
1F
100
AcDbEntity
  8
1
  6
Continuous
 62
     3
100
AcDbLine
 10
195.8452994616212
 20
304.3851648071327
 30
0.0
 11
195.8452994616212
 21
308.4317732494131
 31
0.0
  0
LINE
  5
1E4
330
1F
100
AcDbEntity
  8
1
  6
Continuous
 62
     3
100
AcDbLine
 10
180.0006248477273
 20
313.8169380565475
 30
0.0
 11
195.8446746138944
 21
313.8169380565475
 31
0.0
  0
LINE
  5
1E5
330
1F
100
AcDbEntity
  8
1
  6
Continuous
 62
     3
100
AcDbLine
 10
180.0000000000003
 20
304.3851648071327
 30
0.0
 11
195.8452994616212
 21
304.3851648071327
 31
0.0
  0
LINE
  5
1E6
330
1F
100
AcDbEntity
  8
1
  6
Continuous
 62
     3
100
AcDbLine
 10
180.0000000000003
 20
304.3851648071327
 30
0.0
 11
180.0000000000003
 21
308.4317732494131
 31
0.0
  0
LINE
  5
1E7
330
1F
100
AcDbEntity
  8
1
  6
Continuous
 62
     3
100
AcDbLine
 10
180.0000000000003
 20
308.4317732494131
 30
0.0
 11
195.8452994616212
 21
308.4317732494131
 31
0.0
  0
LINE
  5
1E8
330
1F
100
AcDbEntity
  8
3
  6
Continuous
 62
     3
100
AcDbLine
 10
118.0
 20
425.4999999999993
 30
0.0
 11
175.9999999999995
 21
425.4999999999993
 31
0.0
  0
LINE
  5
1E9
330
1F
100
AcDbEntity
  8
3
  6
Continuous
 62
     3
100
AcDbLine
 10
177.9999999999995
 20
427.4999999999993
 30
0.0
 11
177.9999999999995
 21
435.5447385184633
 31
0.0
  0
LINE
  5
1EA
330
1F
100
AcDbEntity
  8
3
  6
Continuous
 62
     3
100
AcDbLine
 10
173.7440173077675
 20
441.2856795240994
 30
0.0
 11
160.2266738782375
 21
445.3920587523494
 31
0.0
  0
LINE
  5
1EB
330
1F
100
AcDbEntity
  8
3
  6
Continuous
 62
     3
100
AcDbLine
 10
159.4999999999995
 20
445.4999999999993
 30
0.0
 11
134.1286461819945
 21
445.4999999999993
 31
0.0
  0
LINE
  5
1EC
330
1F
100
AcDbEntity
  8
3
  6
PHANTOM
 62
     4
100
AcDbLine
 10
118.0
 20
412.9999999999993
 30
0.0
 11
175.9999999999995
 21
412.9999999999993
 31
0.0
  0
LINE
  5
1ED
330
1F
100
AcDbEntity
  8
3
  6
PHANTOM
 62
     4
100
AcDbLine
 10
177.9999999999995
 20
414.9999999999993
 30
0.0
 11
177.9999999999995
 21
423.0447385184633
 31
0.0
  0
LINE
  5
1EE
330
1F
100
AcDbEntity
  8
3
  6
PHANTOM
 62
     4
100
AcDbLine
 10
173.7440173077674
 20
428.7856795240994
 30
0.0
 11
160.2266738782375
 21
432.8920587523494
 31
0.0
  0
LINE
  5
1EF
330
1F
100
AcDbEntity
  8
3
  6
PHANTOM
 62
     4
100
AcDbLine
 10
159.4999999999995
 20
432.9999999999993
 30
0.0
 11
134.5
 21
432.9999999999993
 31
0.0
  0
LINE
  5
1F0
330
1F
100
AcDbEntity
  8
3
  6
Continuous
 62
     3
100
AcDbLine
 10
120.2559826922318
 20
441.2856795240994
 30
0.0
 11
133.7733261217633
 21
445.3920587523494
 31
0.0
  0
LINE
  5
1F1
330
1F
100
AcDbEntity
  8
3
  6
Continuous
 62
     3
100
AcDbLine
 10
116.0
 20
427.4999999999993
 30
0.0
 11
116.0
 21
435.5447385184633
 31
0.0
  0
LINE
  5
1F2
330
1F
100
AcDbEntity
  8
3
  6
PHANTOM
 62
     4
100
AcDbLine
 10
120.2559826922316
 20
428.7856795240994
 30
0.0
 11
133.7733261217633
 21
432.8920587523494
 31
0.0
  0
LINE
  5
1F3
330
1F
100
AcDbEntity
  8
3
  6
PHANTOM
 62
     4
100
AcDbLine
 10
116.0
 20
414.9999999999993
 30
0.0
 11
116.0
 21
423.0447385184633
 31
0.0
  0
LINE
  5
1FC
330
1F
100
AcDbEntity
  8
1
  6
Continuous
 62
     3
100
AcDbLine
 10
137.7623958666327
 20
382.4999996615989
 30
0.0
 11
137.7623958666327
 21
369.4999999059993
 31
0.0
  0
LINE
  5
1FD
330
1F
100
AcDbEntity
  8
1
  6
Continuous
 62
     3
100
AcDbLine
 10
156.2376041333669
 20
382.4999996615989
 30
0.0
 11
156.2376041333669
 21
369.4999999059993
 31
0.0
  0
LINE
  5
1FE
330
1F
100
AcDbEntity
  8
1
  6
Continuous
 62
     3
100
AcDbLine
 10
166.9999996239999
 20
365.499999981199
 30
0.0
 11
126.9999996239999
 21
365.499999981199
 31
0.0
  0
LINE
  5
1FF
330
1F
100
AcDbEntity
  8
1
  6
Continuous
 62
     3
100
AcDbLine
 10
165.4752082667338
 20
369.4999999059993
 30
0.0
 11
128.4752082667338
 21
369.4999999059993
 31
0.0
  0
LINE
  5
200
330
1F
100
AcDbEntity
  8
1
  6
Continuous
 62
     3
100
AcDbLine
 10
133.6684273047913
 20
384.3207107988994
 30
0.0
 11
128.5247917332659
 21
382.4999996615989
 31
0.0
  0
LINE
  5
201
330
1F
100
AcDbEntity
  8
1
  6
Continuous
 62
     3
100
AcDbLine
 10
128.0000003571999
 20
364.4999999999992
 30
0.0
 11
147.0
 21
364.4999999999992
 31
0.0
  0
LINE
  5
202
330
1F
100
AcDbEntity
  8
1
  6
Continuous
 62
     3
100
AcDbLine
 10
147.0
 20
364.4999999999992
 30
0.0
 11
165.9999996427996
 21
364.4999999999992
 31
0.0
  0
LINE
  5
203
330
1F
100
AcDbEntity
  8
1
  6
Continuous
 62
     3
100
AcDbLine
 10
165.9999996427996
 20
364.4999999999992
 30
0.0
 11
166.9999996239999
 21
365.499999981199
 31
0.0
  0
LINE
  5
204
330
1F
100
AcDbEntity
  8
1
  6
Continuous
 62
     3
100
AcDbLine
 10
166.9999996239999
 20
365.499999981199
 30
0.0
 11
166.9999996239999
 21
366.8589838042718
 31
0.0
  0
LINE
  5
205
330
1F
100
AcDbEntity
  8
1
  6
Continuous
 62
     3
100
AcDbLine
 10
165.4752082667338
 20
369.4999999059993
 30
0.0
 11
165.4752082667338
 21
382.4999996615989
 31
0.0
  0
LINE
  5
206
330
1F
100
AcDbEntity
  8
1
  6
Continuous
 62
     3
100
AcDbLine
 10
165.4752082667338
 20
382.4999996615989
 30
0.0
 11
160.3315726952083
 21
384.3207107988984
 31
0.0
  0
LINE
  5
207
330
1F
100
AcDbEntity
  8
1
  6
Continuous
 62
     3
100
AcDbLine
 10
156.9999998119998
 20
389.0341331574001
 30
0.0
 11
156.9999998119998
 21
405.4999992291988
 31
0.0
  0
LINE
  5
208
330
1F
100
AcDbEntity
  8
1
  6
Continuous
 62
     3
100
AcDbLine
 10
154.9999998495996
 20
407.4999991915994
 30
0.0
 11
139.0000001504
 21
407.4999991915994
 31
0.0
  0
LINE
  5
209
330
1F
100
AcDbEntity
  8
1
  6
Continuous
 62
     3
100
AcDbLine
 10
137.0000001879999
 20
405.4999992291988
 30
0.0
 11
137.0000001879999
 21
389.0341331574001
 31
0.0
  0
LINE
  5
20A
330
1F
100
AcDbEntity
  8
1
  6
Continuous
 62
     3
100
AcDbLine
 10
128.5247917332659
 20
382.4999996615989
 30
0.0
 11
128.5247917332659
 21
369.4999999059993
 31
0.0
  0
LINE
  5
20B
330
1F
100
AcDbEntity
  8
1
  6
Continuous
 62
     3
100
AcDbLine
 10
127.0000003759997
 20
366.8589838042718
 30
0.0
 11
127.0000003759996
 21
365.499999981199
 31
0.0
  0
LINE
  5
20C
330
1F
100
AcDbEntity
  8
1
  6
Continuous
 62
     3
100
AcDbLine
 10
127.0000003759996
 20
365.499999981199
 30
0.0
 11
128.0000003571999
 21
364.4999999999992
 31
0.0
  0
LINE
  5
20D
330
1F
100
AcDbEntity
  8
2
  6
Continuous
 62
     3
100
AcDbLine
 10
151.75
 20
407.4999991915994
 30
0.0
 11
151.75
 21
425.4999999999993
 31
0.0
  0
LINE
  5
20E
330
1F
100
AcDbEntity
  8
2
  6
Continuous
 62
     3
100
AcDbLine
 10
142.25
 20
425.4999999999993
 30
0.0
 11
142.25
 21
407.4999991915994
 31
0.0
  0
LINE
  5
20F
330
1F
100
AcDbEntity
  8
0
  6
Continuous
 62
     3
100
AcDbLine
 10
165.75
 20
364.4999999999992
 30
0.0
 11
128.25
 21
364.4999999999992
 31
0.0
  0
LINE
  5
210
330
1F
100
AcDbEntity
  8
0
  6
Continuous
 62
     3
100
AcDbLine
 10
165.5
 20
345.4999999999982
 30
0.0
 11
160.1465209778825
 21
345.4999999999982
 31
0.0
  0
LINE
  5
211
330
1F
100
AcDbEntity
  8
0
  6
Continuous
 62
     3
100
AcDbLine
 10
133.8534790221175
 20
345.4999999999982
 30
0.0
 11
128.5
 21
345.4999999999982
 31
0.0
  0
LINE
  5
212
330
1F
100
AcDbEntity
  8
0
  6
Continuous
 62
     3
100
AcDbLine
 10
154.0489360899359
 20
345.4999999999982
 30
0.0
 11
139.9510639100642
 21
345.4999999999982
 31
0.0
  0
LINE
  5
213
330
1F
100
AcDbEntity
  8
0
  6
Continuous
 62
     3
100
AcDbLine
 10
160.1465209778825
 20
345.4999999999982
 30
0.0
 11
154.0489360899359
 21
345.4999999999982
 31
0.0
  0
LINE
  5
214
330
1F
100
AcDbEntity
  8
0
  6
Continuous
 62
     3
100
AcDbLine
 10
139.9510639100642
 20
345.4999999999982
 30
0.0
 11
133.8534790221175
 21
345.4999999999982
 31
0.0
  0
LINE
  5
215
330
1F
100
AcDbEntity
  8
0
  6
Continuous
 62
     3
100
AcDbLine
 10
128.5
 20
345.4999999999982
 30
0.0
 11
126.8045429321817
 21
345.4999999999982
 31
0.0
  0
LINE
  5
216
330
1F
100
AcDbEntity
  8
0
  6
Continuous
 62
     3
100
AcDbLine
 10
167.1954570678184
 20
345.4999999999982
 30
0.0
 11
165.5
 21
345.4999999999982
 31
0.0
  0
LINE
  5
217
330
1F
100
AcDbEntity
  8
0
  6
Continuous
 62
     3
100
AcDbLine
 10
167.5
 20
363.6339745962146
 30
0.0
 11
167.5
 21
345.4999999999982
 31
0.0
  0
LINE
  5
218
330
1F
100
AcDbEntity
  8
0
  6
Continuous
 62
     3
100
AcDbLine
 10
167.5
 20
345.4999999999982
 30
0.0
 11
167.1954570678184
 21
345.4999999999982
 31
0.0
  0
LINE
  5
219
330
1F
100
AcDbEntity
  8
0
  6
Continuous
 62
     3
100
AcDbLine
 10
126.5
 20
363.6339745962146
 30
0.0
 11
126.5
 21
345.4999999999982
 31
0.0
  0
LINE
  5
21A
330
1F
100
AcDbEntity
  8
0
  6
Continuous
 62
     3
100
AcDbLine
 10
126.8045429321817
 20
345.4999999999982
 30
0.0
 11
126.5
 21
345.4999999999982
 31
0.0
  0
LINE
  5
21B
330
1F
100
AcDbEntity
  8
0
  6
DOT_CENTER
 62
     1
100
AcDbLine
 10
200.0
 20
298.9999999999982
 30
0.0
 11
119.5
 21
298.9999999999982
 31
0.0
  0
LINE
  5
21C
330
1F
100
AcDbEntity
  8
0
  6
Continuous
 62
     3
100
AcDbLine
 10
171.5000000000003
 20
312.9999969787557
 30
0.0
 11
171.5
 21
313.0566243270241
 31
0.0
  0
LINE
  5
21D
330
1F
100
AcDbEntity
  8
0
  6
Continuous
 62
     3
100
AcDbLine
 10
197.0000000000003
 20
311.9999999999982
 30
0.0
 11
197.0000000000003
 21
285.9999999999982
 31
0.0
  0
LINE
  5
21E
330
1F
100
AcDbEntity
  8
0
  6
Continuous
 62
     3
100
AcDbLine
 10
124.0
 20
314.4999999999982
 30
0.0
 11
170.0
 21
314.4999999999982
 31
0.0
  0
LINE
  5
21F
330
1F
100
AcDbEntity
  8
0
  6
Continuous
 62
     3
100
AcDbLine
 10
180.57735026919
 20
313.9999999999982
 30
0.0
 11
195.2679491924314
 21
313.9999999999982
 31
0.0
  0
LINE
  5
220
330
1F
100
AcDbEntity
  8
0
  6
Continuous
 62
     3
100
AcDbLine
 10
196.133974596216
 20
313.4999999999982
 30
0.0
 11
197.0000000000003
 21
311.9999999999982
 31
0.0
  0
LINE
  5
221
330
1F
100
AcDbEntity
  8
0
  6
Continuous
 62
     3
100
AcDbLine
 10
122.5
 20
284.9433756729721
 30
0.0
 11
122.5
 21
313.0566243270241
 31
0.0
  0
LINE
  5
222
330
1F
100
AcDbEntity
  8
0
  6
Continuous
 62
     3
100
AcDbLine
 10
171.5
 20
284.9433756729721
 30
0.0
 11
171.5000000000003
 21
285.0000141201149
 31
0.0
  0
LINE
  5
223
330
1F
100
AcDbEntity
  8
0
  6
Continuous
 62
     3
100
AcDbLine
 10
179.7113248654055
 20
284.4999999999982
 30
0.0
 11
178.2679491924314
 21
286.9999999999982
 31
0.0
  0
LINE
  5
224
330
1F
100
AcDbEntity
  8
0
  6
Continuous
 62
     3
100
AcDbLine
 10
174.4999734611356
 20
287.9999999999982
 30
0.0
 11
176.5358983848626
 21
287.9999999999982
 31
0.0
  0
LINE
  5
225
330
1F
100
AcDbEntity
  8
0
  6
Continuous
 62
     3
100
AcDbLine
 10
179.7113248654055
 20
313.4999999999982
 30
0.0
 11
178.2679491924314
 21
310.9999999999982
 31
0.0
  0
LINE
  5
226
330
1F
100
AcDbEntity
  8
0
  6
Continuous
 62
     3
100
AcDbLine
 10
171.0
 20
313.9226497308085
 30
0.0
 11
170.0
 21
314.4999999999982
 31
0.0
  0
LINE
  5
227
330
1F
100
AcDbEntity
  8
0
  6
Continuous
 62
     3
100
AcDbLine
 10
123.0
 20
313.9226497308085
 30
0.0
 11
124.0
 21
314.4999999999982
 31
0.0
  0
LINE
  5
228
330
1F
100
AcDbEntity
  8
0
  6
Continuous
 62
     3
100
AcDbLine
 10
174.4999938814893
 20
309.9999957951291
 30
0.0
 11
176.5358983848626
 21
309.9999999999982
 31
0.0
  0
LINE
  5
229
330
1F
100
AcDbEntity
  8
0
  6
Continuous
 62
     3
100
AcDbLine
 10
180.57735026919
 20
283.9999999999982
 30
0.0
 11
195.2679491924314
 21
283.9999999999982
 31
0.0
  0
LINE
  5
22A
330
1F
100
AcDbEntity
  8
0
  6
Continuous
 62
     3
100
AcDbLine
 10
124.0
 20
283.4999999999982
 30
0.0
 11
170.0
 21
283.4999999999982
 31
0.0
  0
LINE
  5
22B
330
1F
100
AcDbEntity
  8
0
  6
Continuous
 62
     3
100
AcDbLine
 10
123.0
 20
284.0773502691878
 30
0.0
 11
124.0
 21
283.4999999999982
 31
0.0
  0
LINE
  5
22C
330
1F
100
AcDbEntity
  8
0
  6
Continuous
 62
     3
100
AcDbLine
 10
171.0
 20
284.0773502691878
 30
0.0
 11
170.0
 21
283.4999999999982
 31
0.0
  0
LINE
  5
22D
330
1F
100
AcDbEntity
  8
0
  6
Continuous
 62
     3
100
AcDbLine
 10
196.133974596216
 20
284.4999999999982
 30
0.0
 11
197.0000000000003
 21
285.9999999999982
 31
0.0
  0
LINE
  5
22E
330
1F
100
AcDbEntity
  8
1
  6
Continuous
 62
     4
100
AcDbLine
 10
177.401923788647
 20
309.5000017886486
 30
0.0
 11
177.401923788647
 21
288.4999999999982
 31
0.0
  0
LINE
  5
22F
330
1F
100
AcDbEntity
  8
1
  6
DOT_CENTER
 62
     1
100
AcDbLine
 10
147.0
 20
179.9999997744018
 30
0.0
 11
147.0
 21
448.5000442299667
 31
0.0
  0
LINE
  5
230
330
1F
100
AcDbEntity
  8
1
  6
Continuous
 62
     4
100
AcDbLine
 10
116.5980762113532
 20
319.4999999999982
 30
0.0
 11
116.5980762113532
 21
340.5000017886486
 31
0.0
  0
LINE
  5
231
330
1F
100
AcDbEntity
  8
0
  6
Continuous
 62
     3
100
AcDbLine
 10
96.9999999999998
 20
316.9999999999982
 30
0.0
 11
97.8660254037841
 21
315.4999999999982
 31
0.0
  0
LINE
  5
232
330
1F
100
AcDbEntity
  8
0
  6
Continuous
 62
     3
100
AcDbLine
 10
124.0
 20
314.4999999999982
 30
0.0
 11
123.0
 21
315.0773502691878
 31
0.0
  0
LINE
  5
233
330
1F
100
AcDbEntity
  8
0
  6
Continuous
 62
     3
100
AcDbLine
 10
170.0
 20
314.4999999999982
 30
0.0
 11
171.0
 21
315.0773502691878
 31
0.0
  0
LINE
  5
234
330
1F
100
AcDbEntity
  8
0
  6
Continuous
 62
     3
100
AcDbLine
 10
124.0
 20
314.4999999999982
 30
0.0
 11
170.0
 21
314.4999999999982
 31
0.0
  0
LINE
  5
235
330
1F
100
AcDbEntity
  8
0
  6
Continuous
 62
     3
100
AcDbLine
 10
98.73205080756864
 20
314.9999999999982
 30
0.0
 11
113.4226497308101
 21
314.9999999999982
 31
0.0
  0
LINE
  5
236
330
1F
100
AcDbEntity
  8
0
  6
Continuous
 62
     3
100
AcDbLine
 10
117.4641016151375
 20
340.9999999999982
 30
0.0
 11
119.5000061185108
 21
340.9999957951291
 31
0.0
  0
LINE
  5
237
330
1F
100
AcDbEntity
  8
0
  6
Continuous
 62
     3
100
AcDbLine
 10
170.0
 20
345.4999999999982
 30
0.0
 11
171.0
 21
344.9226497308085
 31
0.0
  0
LINE
  5
238
330
1F
100
AcDbEntity
  8
0
  6
Continuous
 62
     3
100
AcDbLine
 10
124.0
 20
345.4999999999982
 30
0.0
 11
123.0
 21
344.9226497308085
 31
0.0
  0
LINE
  5
239
330
1F
100
AcDbEntity
  8
0
  6
Continuous
 62
     3
100
AcDbLine
 10
115.7320508075687
 20
341.9999999999982
 30
0.0
 11
114.2886751345946
 21
344.4999999999982
 31
0.0
  0
LINE
  5
23A
330
1F
100
AcDbEntity
  8
0
  6
Continuous
 62
     3
100
AcDbLine
 10
117.4641016151375
 20
318.9999999999982
 30
0.0
 11
119.5000265388644
 21
318.9999999999982
 31
0.0
  0
LINE
  5
23B
330
1F
100
AcDbEntity
  8
0
  6
Continuous
 62
     3
100
AcDbLine
 10
115.7320508075687
 20
317.9999999999982
 30
0.0
 11
114.2886751345946
 21
315.4999999999982
 31
0.0
  0
LINE
  5
23C
330
1F
100
AcDbEntity
  8
0
  6
Continuous
 62
     3
100
AcDbLine
 10
122.4999999999998
 20
316.0000141201149
 30
0.0
 11
122.5
 21
315.9433756729721
 31
0.0
  0
LINE
  5
23D
330
1F
100
AcDbEntity
  8
0
  6
Continuous
 62
     3
100
AcDbLine
 10
171.5
 20
344.0566243270241
 30
0.0
 11
171.5
 21
315.9433756729721
 31
0.0
  0
LINE
  5
23E
330
1F
100
AcDbEntity
  8
0
  6
Continuous
 62
     3
100
AcDbLine
 10
96.9999999999998
 20
342.9999999999982
 30
0.0
 11
97.8660254037841
 21
344.4999999999982
 31
0.0
  0
LINE
  5
23F
330
1F
100
AcDbEntity
  8
0
  6
Continuous
 62
     3
100
AcDbLine
 10
98.73205080756864
 20
344.9999999999982
 30
0.0
 11
113.4226497308101
 21
344.9999999999982
 31
0.0
  0
LINE
  5
240
330
1F
100
AcDbEntity
  8
0
  6
Continuous
 62
     3
100
AcDbLine
 10
124.0
 20
345.4999999999982
 30
0.0
 11
170.0
 21
345.4999999999982
 31
0.0
  0
LINE
  5
241
330
1F
100
AcDbEntity
  8
0
  6
Continuous
 62
     3
100
AcDbLine
 10
96.9999999999998
 20
316.9999999999982
 30
0.0
 11
96.9999999999998
 21
342.9999999999982
 31
0.0
  0
LINE
  5
242
330
1F
100
AcDbEntity
  8
0
  6
Continuous
 62
     3
100
AcDbLine
 10
122.5
 20
344.0566243270241
 30
0.0
 11
122.4999999999998
 21
343.9999969787557
 31
0.0
  0
LINE
  5
243
330
1F
100
AcDbEntity
  8
0
  6
DOT_CENTER
 62
     1
100
AcDbLine
 10
174.5
 20
329.9999999999982
 30
0.0
 11
94.00000000000003
 21
329.9999999999982
 31
0.0
  0
LINE
  5
244
330
1F
100
AcDbEntity
  8
1
  6
Continuous
 62
     3
100
AcDbLine
 10
167.0
 20
283.0000000000002
 30
0.0
 11
127.0
 21
283.0000000000002
 31
0.0
  0
LINE
  5
245
330
1F
100
AcDbEntity
  8
1
  6
Continuous
 62
     3
100
AcDbLine
 10
165.6000000000001
 20
283.4999999999982
 30
0.0
 11
165.6000000000001
 21
283.0000000000002
 31
0.0
  0
LINE
  5
246
330
1F
100
AcDbEntity
  8
1
  6
Continuous
 62
     3
100
AcDbLine
 10
128.4
 20
283.4999999999982
 30
0.0
 11
128.4
 21
283.0000000000002
 31
0.0
  0
LINE
  5
247
330
1F
100
AcDbEntity
  8
1
  6
Continuous
 62
     3
100
AcDbLine
 10
167.0
 20
283.0000000000002
 30
0.0
 11
167.5
 21
282.5000000000002
 31
0.0
  0
LINE
  5
248
330
1F
100
AcDbEntity
  8
1
  6
Continuous
 62
     3
100
AcDbLine
 10
127.0
 20
283.0000000000002
 30
0.0
 11
126.5
 21
282.5000000000002
 31
0.0
  0
LINE
  5
249
330
1F
100
AcDbEntity
  8
1
  6
Continuous
 62
     3
100
AcDbLine
 10
126.5
 20
282.5000000000002
 30
0.0
 11
167.5
 21
282.5000000000002
 31
0.0
  0
LINE
  5
24A
330
1F
100
AcDbEntity
  8
0
  6
Continuous
 62
     3
100
AcDbLine
 10
167.5
 20
282.4999999999991
 30
0.0
 11
167.5
 21
281.4485331622107
 31
0.0
  0
LINE
  5
24B
330
1F
100
AcDbEntity
  8
0
  6
Continuous
 62
     3
100
AcDbLine
 10
166.0
 20
268.9999987212742
 30
0.0
 11
166.0
 21
278.5762518389417
 31
0.0
  0
LINE
  5
24C
330
1F
100
AcDbEntity
  8
0
  6
Continuous
 62
     3
100
AcDbLine
 10
162.0
 20
276.8048061603233
 30
0.0
 11
162.0
 21
277.3937138307776
 31
0.0
  0
LINE
  5
24D
330
1F
100
AcDbEntity
  8
0
  6
Continuous
 62
     3
100
AcDbLine
 10
162.0
 20
276.8048061603233
 30
0.0
 11
162.0
 21
277.3937138307776
 31
0.0
  0
LINE
  5
24E
330
1F
100
AcDbEntity
  8
0
  6
Continuous
 62
     3
100
AcDbLine
 10
164.4127512582439
 20
279.8921908983255
 30
0.0
 11
166.052349245054
 21
279.949446921682
 31
0.0
  0
LINE
  5
24F
330
1F
100
AcDbEntity
  8
0
  6
Continuous
 62
     3
100
AcDbLine
 10
129.5872487417563
 20
279.8921908983255
 30
0.0
 11
127.9476507549463
 21
279.949446921682
 31
0.0
  0
LINE
  5
250
330
1F
100
AcDbEntity
  8
0
  6
Continuous
 62
     3
100
AcDbLine
 10
304.4127512582438
 20
279.892140930542
 30
0.0
 11
306.0523492450538
 21
279.9493969538984
 31
0.0
  0
LINE
  5
251
330
1F
100
AcDbEntity
  8
0
  6
Continuous
 62
     3
100
AcDbLine
 10
307.5
 20
282.5000000000002
 30
0.0
 11
307.5
 21
281.448483194427
 31
0.0
  0
LINE
  5
252
330
1F
100
AcDbEntity
  8
0
  6
Continuous
 62
     3
100
AcDbLine
 10
269.5872487417562
 20
279.892140930542
 30
0.0
 11
267.9476507549463
 21
279.9493969538984
 31
0.0
  0
LINE
  5
253
330
1F
100
AcDbEntity
  8
0
  6
Continuous
 62
     3
100
AcDbLine
 10
266.5
 20
282.5000000000002
 30
0.0
 11
266.5
 21
281.448483194427
 31
0.0
  0
LINE
  5
254
330
1F
100
AcDbEntity
  8
1
  6
DOT_CENTER
 62
     1
100
AcDbLine
 10
287.0
 20
179.9999997744018
 30
0.0
 11
287.0
 21
448.5000442299667
 31
0.0
  0
LINE
  5
255
330
1F
100
AcDbEntity
  8
1
  6
Continuous
 62
     3
100
AcDbLine
 10
306.9999996239999
 20
365.5000442111663
 30
0.0
 11
266.9999996239999
 21
365.5000442111663
 31
0.0
  0
LINE
  5
256
330
1F
100
AcDbEntity
  8
1
  6
Continuous
 62
     3
100
AcDbLine
 10
305.4752082667337
 20
369.5000441359666
 30
0.0
 11
268.4752082667336
 21
369.5000441359666
 31
0.0
  0
LINE
  5
257
330
1F
100
AcDbEntity
  8
1
  6
Continuous
 62
     3
100
AcDbLine
 10
273.6684273047913
 20
384.3207550288666
 30
0.0
 11
270.9999751853623
 21
383.3761934584293
 31
0.0
  0
LINE
  5
258
330
1F
100
AcDbEntity
  8
1
  6
Continuous
 62
     3
100
AcDbLine
 10
306.9999996239999
 20
365.5000442111663
 30
0.0
 11
306.9999996239999
 21
366.8590280342392
 31
0.0
  0
LINE
  5
259
330
1F
100
AcDbEntity
  8
1
  6
Continuous
 62
     3
100
AcDbLine
 10
302.9999996992
 20
369.5000441359666
 30
0.0
 11
302.9999996992
 21
383.3762023486303
 31
0.0
  0
LINE
  5
25A
330
1F
100
AcDbEntity
  8
1
  6
Continuous
 62
     3
100
AcDbLine
 10
302.9999751853622
 20
383.3762110258814
 30
0.0
 11
300.3315726952082
 21
384.3207550288657
 31
0.0
  0
LINE
  5
25B
330
1F
100
AcDbEntity
  8
1
  6
Continuous
 62
     3
100
AcDbLine
 10
296.9999998119997
 20
389.0341773873674
 30
0.0
 11
296.9999998119997
 21
405.5000434591661
 31
0.0
  0
LINE
  5
25C
330
1F
100
AcDbEntity
  8
1
  6
Continuous
 62
     3
100
AcDbLine
 10
294.9999998495996
 20
407.5000434215667
 30
0.0
 11
279.0000001503999
 21
407.5000434215667
 31
0.0
  0
LINE
  5
25D
330
1F
100
AcDbEntity
  8
1
  6
Continuous
 62
     3
100
AcDbLine
 10
277.0000001879997
 20
405.5000434591661
 30
0.0
 11
277.0000001879997
 21
389.0341773873674
 31
0.0
  0
LINE
  5
25E
330
1F
100
AcDbEntity
  8
1
  6
Continuous
 62
     3
100
AcDbLine
 10
270.9999751853623
 20
383.3762023486303
 30
0.0
 11
270.9999751853623
 21
369.5000441359666
 31
0.0
  0
LINE
  5
25F
330
1F
100
AcDbEntity
  8
1
  6
Continuous
 62
     3
100
AcDbLine
 10
267.0000003759997
 20
366.8590280342392
 30
0.0
 11
267.0000003759997
 21
365.5000442111663
 31
0.0
  0
LINE
  5
260
330
1F
100
AcDbEntity
  8
1
  6
Continuous
 62
     3
100
AcDbLine
 10
305.9999996427996
 20
364.5000442299665
 30
0.0
 11
306.9999996239999
 21
365.5000442111663
 31
0.0
  0
LINE
  5
261
330
1F
100
AcDbEntity
  8
1
  6
Continuous
 62
     3
100
AcDbLine
 10
267.0000003759997
 20
365.5000442111663
 30
0.0
 11
268.0000003572
 21
364.5000442299665
 31
0.0
  0
LINE
  5
262
330
1F
100
AcDbEntity
  8
1
  6
Continuous
 62
     3
100
AcDbLine
 10
268.0000003572
 20
364.5000442299665
 30
0.0
 11
305.9999996427996
 21
364.5000442299665
 31
0.0
  0
LINE
  5
263
330
1F
100
AcDbEntity
  8
1
  6
Continuous
 62
     3
100
AcDbLine
 10
286.9999751853622
 20
382.5000438915662
 30
0.0
 11
286.9999751853622
 21
369.5000441359666
 31
0.0
  0
LINE
  5
264
330
1F
100
AcDbEntity
  8
3
  6
Continuous
 62
     3
100
AcDbLine
 10
257.9999873064539
 20
425.5000442299667
 30
0.0
 11
315.9999873064534
 21
425.5000442299667
 31
0.0
  0
LINE
  5
265
330
1F
100
AcDbEntity
  8
3
  6
Continuous
 62
     3
100
AcDbLine
 10
317.9999873064534
 20
427.5000442299667
 30
0.0
 11
317.9999873064534
 21
435.5447827484306
 31
0.0
  0
LINE
  5
266
330
1F
100
AcDbEntity
  8
3
  6
Continuous
 62
     3
100
AcDbLine
 10
313.7440046142213
 20
441.2857237540667
 30
0.0
 11
300.2266611846913
 21
445.3921029823167
 31
0.0
  0
LINE
  5
267
330
1F
100
AcDbEntity
  8
3
  6
Continuous
 62
     3
100
AcDbLine
 10
299.4999873064534
 20
445.5000442299667
 30
0.0
 11
274.1286334884484
 21
445.5000442299667
 31
0.0
  0
LINE
  5
268
330
1F
100
AcDbEntity
  8
3
  6
Continuous
 62
     3
100
AcDbLine
 10
260.2559699986857
 20
441.2857237540667
 30
0.0
 11
273.7733134282173
 21
445.3921029823167
 31
0.0
  0
LINE
  5
269
330
1F
100
AcDbEntity
  8
3
  6
Continuous
 62
     3
100
AcDbLine
 10
255.9999873064539
 20
427.5000442299667
 30
0.0
 11
255.9999873064539
 21
435.5447827484306
 31
0.0
  0
LINE
  5
272
330
1F
100
AcDbEntity
  8
2
  6
Continuous
 62
     3
100
AcDbLine
 10
291.7499873064539
 20
407.5000434215667
 30
0.0
 11
291.7499873064539
 21
425.5000442299667
 31
0.0
  0
LINE
  5
273
330
1F
100
AcDbEntity
  8
2
  6
Continuous
 62
     3
100
AcDbLine
 10
282.2499873064539
 20
425.5000442299667
 30
0.0
 11
282.2499873064539
 21
407.5000434215667
 31
0.0
  0
LINE
  5
274
330
1F
100
AcDbEntity
  8
0
  6
DOT_CENTER
 62
     1
100
AcDbLine
 10
200.0
 20
532.0
 30
0.0
 11
94.0
 21
532.0
 31
0.0
  0
LINE
  5
275
330
1F
100
AcDbEntity
  8
0
  6
DOT_CENTER
 62
     1
100
AcDbLine
 10
147.0
 20
566.0
 30
0.0
 11
147.0
 21
498.0
 31
0.0
  0
LINE
  5
276
330
1F
100
AcDbEntity
  8
1
  6
Continuous
 62
     3
100
AcDbLine
 10
269.5872487417562
 20
279.892140930542
 30
0.0
 11
304.4127512582438
 21
279.892140930542
 31
0.0
  0
LINE
  5
277
330
1F
100
AcDbEntity
  8
1
  6
Continuous
 62
     3
100
AcDbLine
 10
266.5
 20
282.5000000000002
 30
0.0
 11
307.5
 21
282.5000000000002
 31
0.0
  0
LINE
  5
278
330
1F
100
AcDbEntity
  8
1
  6
Continuous
 62
     3
100
AcDbLine
 10
267.0
 20
283.0000000000002
 30
0.0
 11
266.5
 21
282.5000000000002
 31
0.0
  0
LINE
  5
279
330
1F
100
AcDbEntity
  8
1
  6
Continuous
 62
     3
100
AcDbLine
 10
307.0
 20
283.0000000000002
 30
0.0
 11
307.5
 21
282.5000000000002
 31
0.0
  0
LINE
  5
27A
330
1F
100
AcDbEntity
  8
1
  6
Continuous
 62
     3
100
AcDbLine
 10
307.0
 20
283.0000000000002
 30
0.0
 11
267.0
 21
283.0000000000002
 31
0.0
  0
LINE
  5
27B
330
1F
100
AcDbEntity
  8
0
  6
Continuous
 62
     3
100
AcDbLine
 10
262.5
 20
284.9433756729721
 30
0.0
 11
262.5
 21
313.0566243270241
 31
0.0
  0
LINE
  5
27C
330
1F
100
AcDbEntity
  8
0
  6
Continuous
 62
     3
100
AcDbLine
 10
263.0
 20
284.0773502691878
 30
0.0
 11
264.0
 21
283.4999999999982
 31
0.0
  0
LINE
  5
27D
330
1F
100
AcDbEntity
  8
0
  6
Continuous
 62
     3
100
AcDbLine
 10
264.0
 20
283.4999999999982
 30
0.0
 11
310.0
 21
283.4999999999982
 31
0.0
  0
LINE
  5
27E
330
1F
100
AcDbEntity
  8
0
  6
Continuous
 62
     3
100
AcDbLine
 10
263.0
 20
313.9226497308085
 30
0.0
 11
264.0
 21
314.4999999999982
 31
0.0
  0
LINE
  5
27F
330
1F
100
AcDbEntity
  8
0
  6
Continuous
 62
     3
100
AcDbLine
 10
264.0
 20
314.4999999999982
 30
0.0
 11
310.0
 21
314.4999999999982
 31
0.0
  0
LINE
  5
280
330
1F
100
AcDbEntity
  8
0
  6
Continuous
 62
     3
100
AcDbLine
 10
310.0
 20
314.4999999999982
 30
0.0
 11
311.0
 21
315.0773502691878
 31
0.0
  0
LINE
  5
281
330
1F
100
AcDbEntity
  8
0
  6
Continuous
 62
     3
100
AcDbLine
 10
311.5
 20
344.0566243270241
 30
0.0
 11
311.5
 21
315.9433756729721
 31
0.0
  0
LINE
  5
282
330
1F
100
AcDbEntity
  8
0
  6
Continuous
 62
     3
100
AcDbLine
 10
310.0
 20
345.4999999999982
 30
0.0
 11
311.0
 21
344.9226497308085
 31
0.0
  0
LINE
  5
283
330
1F
100
AcDbEntity
  8
0
  6
Continuous
 62
     3
100
AcDbLine
 10
264.0
 20
345.4999999999982
 30
0.0
 11
310.0
 21
345.4999999999982
 31
0.0
  0
LINE
  5
284
330
1F
100
AcDbEntity
  8
1
  6
Continuous
 62
     3
100
AcDbLine
 10
301.0
 20
293.6148351928637
 30
0.0
 11
301.0
 21
304.38516480713
 31
0.0
  0
LINE
  5
285
330
1F
100
AcDbEntity
  8
1
  6
Continuous
 62
     3
100
AcDbLine
 10
298.6636895265444
 20
308.431773249413
 30
0.0
 11
289.3363104734579
 21
313.8169380565462
 31
0.0
  0
LINE
  5
286
330
1F
100
AcDbEntity
  8
1
  6
Continuous
 62
     3
100
AcDbLine
 10
284.6636895265444
 20
313.8169380565477
 30
0.0
 11
275.336310473458
 21
308.4317732494145
 31
0.0
  0
LINE
  5
287
330
1F
100
AcDbEntity
  8
1
  6
Continuous
 62
     3
100
AcDbLine
 10
273.0
 20
304.3851648071328
 30
0.0
 11
273.0
 21
293.6148351928665
 31
0.0
  0
LINE
  5
288
330
1F
100
AcDbEntity
  8
1
  6
Continuous
 62
     3
100
AcDbLine
 10
275.3363104734555
 20
289.5682267505833
 30
0.0
 11
284.663689526542
 21
284.1830619434502
 31
0.0
  0
LINE
  5
289
330
1F
100
AcDbEntity
  8
1
  6
Continuous
 62
     3
100
AcDbLine
 10
289.3363104734555
 20
284.1830619434487
 30
0.0
 11
298.663689526542
 21
289.5682267505818
 31
0.0
  0
LINE
  5
28A
330
1F
100
AcDbEntity
  8
0
  6
Continuous
 62
     3
100
AcDbLine
 10
263.0
 20
344.9226497308085
 30
0.0
 11
264.0
 21
345.4999999999982
 31
0.0
  0
LINE
  5
28B
330
1F
100
AcDbEntity
  8
0
  6
Continuous
 62
     3
100
AcDbLine
 10
262.5
 20
315.9433756729721
 30
0.0
 11
262.5
 21
344.0566243270241
 31
0.0
  0
LINE
  5
28C
330
1F
100
AcDbEntity
  8
0
  6
Continuous
 62
     3
100
AcDbLine
 10
263.0
 20
315.0773502691878
 30
0.0
 11
264.0
 21
314.4999999999982
 31
0.0
  0
LINE
  5
28D
330
1F
100
AcDbEntity
  8
0
  6
Continuous
 62
     3
100
AcDbLine
 10
310.0
 20
314.4999999999982
 30
0.0
 11
311.0
 21
313.9226497308085
 31
0.0
  0
LINE
  5
28E
330
1F
100
AcDbEntity
  8
0
  6
Continuous
 62
     3
100
AcDbLine
 10
310.0
 20
283.4999999999982
 30
0.0
 11
311.0
 21
284.0773502691878
 31
0.0
  0
LINE
  5
28F
330
1F
100
AcDbEntity
  8
0
  6
Continuous
 62
     3
100
AcDbLine
 10
311.5
 20
313.0566243270241
 30
0.0
 11
311.5
 21
284.9433756729721
 31
0.0
  0
LINE
  5
290
330
1F
100
AcDbEntity
  8
1
  6
Continuous
 62
     3
100
AcDbLine
 10
305.6
 20
283.0000000000002
 30
0.0
 11
305.6
 21
283.4999999999982
 31
0.0
  0
LINE
  5
291
330
1F
100
AcDbEntity
  8
1
  6
Continuous
 62
     3
100
AcDbLine
 10
268.4
 20
283.0000000000002
 30
0.0
 11
268.4
 21
283.4999999999982
 31
0.0
  0
LINE
  5
292
330
1F
100
AcDbEntity
  8
1
  6
Continuous
 62
     3
100
AcDbLine
 10
280.8971143170299
 20
345.4999999999982
 30
0.0
 11
280.8971143170299
 21
363.6339745962146
 31
0.0
  0
LINE
  5
293
330
1F
100
AcDbEntity
  8
1
  6
Continuous
 62
     3
100
AcDbLine
 10
280.8971143170299
 20
363.6339745962146
 30
0.0
 11
293.1028856829701
 21
363.6339745962146
 31
0.0
  0
LINE
  5
294
330
1F
100
AcDbEntity
  8
1
  6
Continuous
 62
     3
100
AcDbLine
 10
293.1028856829701
 20
363.6339745962146
 30
0.0
 11
293.1028856829701
 21
345.4999999999982
 31
0.0
  0
LINE
  5
295
330
1F
100
AcDbEntity
  8
1
  6
Continuous
 62
     3
100
AcDbLine
 10
300.8971143170299
 20
345.4999999999982
 30
0.0
 11
300.8971143170299
 21
363.6339745962146
 31
0.0
  0
LINE
  5
296
330
1F
100
AcDbEntity
  8
1
  6
Continuous
 62
     3
100
AcDbLine
 10
300.8971143170299
 20
363.6339745962146
 30
0.0
 11
307.0
 21
363.6339745962146
 31
0.0
  0
LINE
  5
297
330
1F
100
AcDbEntity
  8
1
  6
Continuous
 62
     3
100
AcDbLine
 10
307.0
 20
363.9226754732287
 30
0.0
 11
307.0
 21
345.4999999999982
 31
0.0
  0
LINE
  5
298
330
1F
100
AcDbEntity
  8
1
  6
Continuous
 62
     3
100
AcDbLine
 10
273.1028856829701
 20
363.6339745962146
 30
0.0
 11
267.0
 21
363.6339745962146
 31
0.0
  0
LINE
  5
299
330
1F
100
AcDbEntity
  8
1
  6
Continuous
 62
     3
100
AcDbLine
 10
267.0
 20
363.9226239883902
 30
0.0
 11
267.0
 21
345.4999999999982
 31
0.0
  0
LINE
  5
29A
330
1F
100
AcDbEntity
  8
1
  6
Continuous
 62
     3
100
AcDbLine
 10
273.1028856829701
 20
363.6339745962146
 30
0.0
 11
273.1028856829701
 21
345.4999999999982
 31
0.0
  0
LINE
  5
29B
330
1F
100
AcDbEntity
  8
1
  6
Continuous
 62
     3
100
AcDbLine
 10
305.9999679786273
 20
364.5000442299665
 30
0.0
 11
268.0001211957286
 21
364.5000442299665
 31
0.0
  0
LINE
  5
29C
330
1F
100
AcDbEntity
  8
5
  6
Continuous
 62
     3
100
AcDbLine
 10
305.9999679786273
 20
364.5000442299665
 30
0.0
 11
307.500044587178
 21
363.6339745962146
 31
0.0
  0
LINE
  5
29D
330
1F
100
AcDbEntity
  8
5
  6
Continuous
 62
     3
100
AcDbLine
 10
267.0
 20
363.9226239883902
 30
0.0
 11
268.000044587178
 21
364.4999999999992
 31
0.0
  0
LINE
  5
29E
330
1F
100
AcDbEntity
  8
1
  6
Continuous
 62
     3
100
AcDbLine
 10
113.9999999999997
 20
529.6636895265444
 30
0.0
 11
113.9999999999997
 21
520.3363104734533
 31
0.0
  0
LINE
  5
29F
330
1F
100
AcDbEntity
  8
1
  6
Continuous
 62
     3
100
AcDbLine
 10
113.9999999999997
 20
520.3363104734533
 30
0.0
 11
98.15470053837882
 21
520.3363104734533
 31
0.0
  0
LINE
  5
2A0
330
1F
100
AcDbEntity
  8
1
  6
Continuous
 62
     3
100
AcDbLine
 10
98.15470053837882
 20
520.3363104734533
 30
0.0
 11
98.15470053837882
 21
529.6636895265444
 31
0.0
  0
LINE
  5
2A1
330
1F
100
AcDbEntity
  8
1
  6
Continuous
 62
     3
100
AcDbLine
 10
98.15470053837882
 20
529.6636895265444
 30
0.0
 11
113.9999999999997
 21
529.6636895265444
 31
0.0
  0
LINE
  5
2A2
330
1F
100
AcDbEntity
  8
1
  6
Continuous
 62
     3
100
AcDbLine
 10
113.9999999999997
 20
543.6636895265444
 30
0.0
 11
113.9999999999997
 21
534.336310473458
 31
0.0
  0
LINE
  5
2A3
330
1F
100
AcDbEntity
  8
1
  6
Continuous
 62
     3
100
AcDbLine
 10
113.9999999999997
 20
534.336310473458
 30
0.0
 11
98.15470053837882
 21
534.336310473458
 31
0.0
  0
LINE
  5
2A4
330
1F
100
AcDbEntity
  8
1
  6
Continuous
 62
     3
100
AcDbLine
 10
98.15470053837882
 20
534.336310473458
 30
0.0
 11
98.15470053837882
 21
543.6636895265444
 31
0.0
  0
LINE
  5
2A5
330
1F
100
AcDbEntity
  8
1
  6
Continuous
 62
     3
100
AcDbLine
 10
98.15470053837882
 20
543.6636895265444
 30
0.0
 11
113.9999999999997
 21
543.6636895265444
 31
0.0
  0
LINE
  5
2A6
330
1F
100
AcDbEntity
  8
0
  6
Continuous
 62
     3
100
AcDbLine
 10
97.28867513459659
 20
518.4999999999967
 30
0.0
 11
97.0
 21
519.0
 31
0.0
  0
LINE
  5
2A7
330
1F
100
AcDbEntity
  8
0
  6
Continuous
 62
     3
100
AcDbLine
 10
97.0
 20
519.0
 30
0.0
 11
96.99999999999994
 21
532.0
 31
0.0
  0
LINE
  5
2A8
330
1F
100
AcDbEntity
  8
0
  6
Continuous
 62
     3
100
AcDbLine
 10
96.99999999999994
 20
532.0
 30
0.0
 11
97.0
 21
545.0
 31
0.0
  0
LINE
  5
2A9
330
1F
100
AcDbEntity
  8
0
  6
Continuous
 62
     3
100
AcDbLine
 10
97.28867513459659
 20
545.5000000000032
 30
0.0
 11
97.0
 21
545.0
 31
0.0
  0
LINE
  5
2AA
330
1F
100
AcDbEntity
  8
0
  6
Continuous
 62
     3
100
AcDbLine
 10
115.0000000597097
 20
518.0
 30
0.0
 11
98.15470053838703
 21
518.0
 31
0.0
  0
LINE
  5
2AB
330
1F
100
AcDbEntity
  8
0
  6
Continuous
 62
     3
100
AcDbLine
 10
98.15470053838703
 20
546.0
 30
0.0
 11
115.0000000597097
 21
546.0
 31
0.0
  0
LINE
  5
2AC
330
1F
100
AcDbEntity
  8
0
  6
Continuous
 62
     3
100
AcDbLine
 10
115.8660254037825
 20
545.5000000000032
 30
0.0
 11
116.7320508075688
 21
544.0
 31
0.0
  0
LINE
  5
2AD
330
1F
100
AcDbEntity
  8
0
  6
Continuous
 62
     3
100
AcDbLine
 10
115.8660254037825
 20
518.4999999999967
 30
0.0
 11
116.7320508075688
 21
520.0
 31
0.0
  0
LINE
  5
2AE
330
1F
100
AcDbEntity
  8
0
  6
Continuous
 62
     3
100
AcDbLine
 10
123.3303992421091
 20
521.0
 30
0.0
 11
118.4641016151377
 21
521.0
 31
0.0
  0
LINE
  5
2AF
330
1F
100
AcDbEntity
  8
0
  6
Continuous
 62
     3
100
AcDbLine
 10
123.3303963865503
 20
543.0
 30
0.0
 11
118.4641016151377
 21
543.0
 31
0.0
  0
LINE
  5
2B0
330
1F
100
AcDbEntity
  8
0
  6
Continuous
 62
     3
100
AcDbLine
 10
175.5358983848623
 20
543.0
 30
0.0
 11
170.6696036134497
 21
543.0
 31
0.0
  0
LINE
  5
2B1
330
1F
100
AcDbEntity
  8
0
  6
Continuous
 62
     3
100
AcDbLine
 10
175.5358983848623
 20
521.0
 30
0.0
 11
170.6696007578909
 21
521.0
 31
0.0
  0
LINE
  5
2B2
330
1F
100
AcDbEntity
  8
0
  6
Continuous
 62
     3
100
AcDbLine
 10
177.2679491924312
 20
520.0
 30
0.0
 11
178.1339745962175
 21
518.4999999999967
 31
0.0
  0
LINE
  5
2B3
330
1F
100
AcDbEntity
  8
0
  6
Continuous
 62
     3
100
AcDbLine
 10
177.2679491924312
 20
544.0
 30
0.0
 11
178.1339745962175
 21
545.5000000000032
 31
0.0
  0
LINE
  5
2B4
330
1F
100
AcDbEntity
  8
0
  6
Continuous
 62
     3
100
AcDbLine
 10
178.9999999402903
 20
546.0
 30
0.0
 11
195.845299461613
 21
546.0
 31
0.0
  0
LINE
  5
2B5
330
1F
100
AcDbEntity
  8
0
  6
Continuous
 62
     3
100
AcDbLine
 10
195.845299461613
 20
518.0
 30
0.0
 11
178.9999999402903
 21
518.0
 31
0.0
  0
LINE
  5
2B6
330
1F
100
AcDbEntity
  8
0
  6
Continuous
 62
     3
100
AcDbLine
 10
197.0
 20
545.0
 30
0.0
 11
196.7113248654034
 21
545.5000000000032
 31
0.0
  0
LINE
  5
2B7
330
1F
100
AcDbEntity
  8
0
  6
Continuous
 62
     3
100
AcDbLine
 10
197.0
 20
545.0
 30
0.0
 11
197.0
 21
532.0
 31
0.0
  0
LINE
  5
2B8
330
1F
100
AcDbEntity
  8
1
  6
Continuous
 62
     3
100
AcDbLine
 10
180.0000000000003
 20
543.6636895265444
 30
0.0
 11
195.8452994616212
 21
543.6636895265444
 31
0.0
  0
LINE
  5
2B9
330
1F
100
AcDbEntity
  8
1
  6
Continuous
 62
     3
100
AcDbLine
 10
195.8452994616212
 20
543.6636895265444
 30
0.0
 11
195.8452994616212
 21
534.336310473458
 31
0.0
  0
LINE
  5
2BA
330
1F
100
AcDbEntity
  8
1
  6
Continuous
 62
     3
100
AcDbLine
 10
195.8452994616212
 20
534.336310473458
 30
0.0
 11
180.0000000000003
 21
534.336310473458
 31
0.0
  0
LINE
  5
2BB
330
1F
100
AcDbEntity
  8
1
  6
Continuous
 62
     3
100
AcDbLine
 10
180.0000000000003
 20
534.336310473458
 30
0.0
 11
180.0000000000003
 21
543.6636895265444
 31
0.0
  0
LINE
  5
2BC
330
1F
100
AcDbEntity
  8
1
  6
Continuous
 62
     3
100
AcDbLine
 10
180.0000000000003
 20
529.6636895265444
 30
0.0
 11
195.8452994616212
 21
529.6636895265444
 31
0.0
  0
LINE
  5
2BD
330
1F
100
AcDbEntity
  8
1
  6
Continuous
 62
     3
100
AcDbLine
 10
195.8452994616212
 20
529.6636895265444
 30
0.0
 11
195.8452994616212
 21
520.3363104734533
 31
0.0
  0
LINE
  5
2BE
330
1F
100
AcDbEntity
  8
1
  6
Continuous
 62
     3
100
AcDbLine
 10
195.8452994616212
 20
520.3363104734533
 30
0.0
 11
180.0000000000003
 21
520.3363104734533
 31
0.0
  0
LINE
  5
2BF
330
1F
100
AcDbEntity
  8
1
  6
Continuous
 62
     3
100
AcDbLine
 10
180.0000000000003
 20
520.3363104734533
 30
0.0
 11
180.0000000000003
 21
529.6636895265444
 31
0.0
  0
LINE
  5
2C0
330
1F
100
AcDbEntity
  8
1
  6
Continuous
 62
     1
100
AcDbLine
 10
130.0824999999999
 20
214.1825000000031
 30
0.0
 11
130.0824999999999
 21
212.4999997744019
 31
0.0
  0
LINE
  5
2C1
330
1F
100
AcDbEntity
  8
1
  6
Continuous
 62
     1
100
AcDbLine
 10
163.9175
 20
214.1825000000031
 30
0.0
 11
163.9175
 21
212.4999997744019
 31
0.0
  0
LINE
  5
2C2
330
1F
100
AcDbEntity
  8
0
  6
Continuous
 62
     3
100
AcDbLine
 10
128.9999999999991
 20
212.4999997744019
 30
0.0
 11
128.9999999999991
 21
213.0998746749886
 31
0.0
  0
LINE
  5
2C3
330
1F
100
AcDbEntity
  8
1
  6
Continuous
 62
     3
100
AcDbLine
 10
131.8895011419846
 20
215.2529807465435
 30
0.0
 11
132.0
 21
215.3713653997306
 31
0.0
  0
LINE
  5
2C4
330
1F
100
AcDbEntity
  8
1
  6
Continuous
 62
     3
100
AcDbLine
 10
130.2519999999991
 20
214.3518746749886
 30
0.0
 11
128.9999999999991
 21
213.0998746749886
 31
0.0
  0
LINE
  5
2C5
330
1F
100
AcDbEntity
  8
0
  6
Continuous
 62
     3
100
AcDbLine
 10
165.000000000001
 20
212.4999997744019
 30
0.0
 11
165.000000000001
 21
213.0998746749886
 31
0.0
  0
LINE
  5
2C6
330
1F
100
AcDbEntity
  8
1
  6
Continuous
 62
     3
100
AcDbLine
 10
162.1104988580153
 20
215.2529807465435
 30
0.0
 11
162.0
 21
215.3713653997306
 31
0.0
  0
LINE
  5
2C7
330
1F
100
AcDbEntity
  8
1
  6
Continuous
 62
     3
100
AcDbLine
 10
163.748000000001
 20
214.3518746749886
 30
0.0
 11
165.000000000001
 21
213.0998746749886
 31
0.0
  0
LINE
  5
2C8
330
1F
100
AcDbEntity
  8
1
  6
DOT_CENTER
 62
     1
100
AcDbLine
 10
89.00000000000011
 20
252.0
 30
0.0
 11
205.0
 21
252.0
 31
0.0
  0
LINE
  5
2C9
330
1F
100
AcDbEntity
  8
0
  6
Continuous
 62
     3
100
AcDbLine
 10
161.5
 20
216.8713653997306
 30
0.0
 11
161.5
 21
220.1023063260721
 31
0.0
  0
LINE
  5
2CA
330
1F
100
AcDbEntity
  8
0
  6
Continuous
 62
     3
100
AcDbLine
 10
128.0
 20
227.3284438740354
 30
0.0
 11
128.0
 21
235.0000014441905
 31
0.0
  0
LINE
  5
2CB
330
1F
100
AcDbEntity
  8
0
  6
Continuous
 62
     3
100
AcDbLine
 10
132.5
 20
216.8713653997306
 30
0.0
 11
132.5
 21
220.4538352516223
 31
0.0
  0
LINE
  5
2CC
330
1F
100
AcDbEntity
  8
0
  6
Continuous
 62
     3
100
AcDbLine
 10
301.5
 20
216.8713653997306
 30
0.0
 11
301.5
 21
220.4545796476787
 31
0.0
  0
LINE
  5
2CD
330
1F
100
AcDbEntity
  8
1
  6
DOT_CENTER
 62
     1
100
AcDbLine
 10
261.483339501605
 20
252.0
 30
0.0
 11
312.516660498395
 21
252.0
 31
0.0
  0
LINE
  5
2CE
330
1F
100
AcDbEntity
  8
1
  6
Continuous
 62
     3
100
AcDbLine
 10
303.748000000001
 20
214.3518746749886
 30
0.0
 11
305.000000000001
 21
213.0998746749886
 31
0.0
  0
LINE
  5
2CF
330
1F
100
AcDbEntity
  8
1
  6
Continuous
 62
     3
100
AcDbLine
 10
302.110498858015
 20
215.2529807465435
 30
0.0
 11
302.0
 21
215.3713653997306
 31
0.0
  0
LINE
  5
2D0
330
1F
100
AcDbEntity
  8
0
  6
Continuous
 62
     3
100
AcDbLine
 10
305.000000000001
 20
212.4999997744019
 30
0.0
 11
305.000000000001
 21
213.0998746749886
 31
0.0
  0
LINE
  5
2D1
330
1F
100
AcDbEntity
  8
1
  6
Continuous
 62
     3
100
AcDbLine
 10
270.251999999999
 20
214.3518746749886
 30
0.0
 11
268.999999999999
 21
213.0998746749886
 31
0.0
  0
LINE
  5
2D2
330
1F
100
AcDbEntity
  8
1
  6
Continuous
 62
     3
100
AcDbLine
 10
271.889501141985
 20
215.2529807465435
 30
0.0
 11
272.0
 21
215.3713653997306
 31
0.0
  0
LINE
  5
2D3
330
1F
100
AcDbEntity
  8
0
  6
Continuous
 62
     3
100
AcDbLine
 10
268.999999999999
 20
212.4999997744019
 30
0.0
 11
268.999999999999
 21
213.0998746749886
 31
0.0
  0
LINE
  5
2D4
330
1F
100
AcDbEntity
  8
1
  6
Continuous
 62
     1
100
AcDbLine
 10
303.9175
 20
214.1825000000031
 30
0.0
 11
303.9175
 21
212.4999997744019
 31
0.0
  0
LINE
  5
2D5
330
1F
100
AcDbEntity
  8
1
  6
Continuous
 62
     1
100
AcDbLine
 10
270.0825
 20
214.1825000000031
 30
0.0
 11
270.0825
 21
212.4999997744019
 31
0.0
  0
LINE
  5
2D6
330
1F
100
AcDbEntity
  8
0
  6
Continuous
 62
     3
100
AcDbLine
 10
272.5
 20
216.8713653997306
 30
0.0
 11
272.5
 21
220.4538352516223
 31
0.0
  0
LINE
  5
2D7
330
1F
100
AcDbEntity
  8
1
  6
Continuous
 62
     3
100
AcDbLine
 10
159.5000000000006
 20
182.9999997744018
 30
0.0
 11
134.5000000000006
 21
182.9999997744018
 31
0.0
  0
LINE
  5
2D8
330
1F
100
AcDbEntity
  8
1
  6
Continuous
 62
     3
100
AcDbLine
 10
160.5
 20
183.9999997744018
 30
0.0
 11
133.5000000000006
 21
183.9999997744018
 31
0.0
  0
LINE
  5
2D9
330
1F
100
AcDbEntity
  8
1
  6
Continuous
 62
     3
100
AcDbLine
 10
133.5
 20
193.9999997744018
 30
0.0
 11
160.5000000000006
 21
193.9999997744018
 31
0.0
  0
LINE
  5
2DA
330
1F
100
AcDbEntity
  8
1
  6
Continuous
 62
     3
100
AcDbLine
 10
126.0891406633497
 20
198.47446412997
 30
0.0
 11
125.7500003995007
 21
198.47446412997
 31
0.0
  0
LINE
  5
2DB
330
1F
100
AcDbEntity
  8
1
  6
Continuous
 62
     3
100
AcDbLine
 10
160.730156163476
 20
198.47446412997
 30
0.0
 11
154.1807031731756
 21
198.47446412997
 31
0.0
  0
LINE
  5
2DC
330
1F
100
AcDbEntity
  8
1
  6
Continuous
 62
     3
100
AcDbLine
 10
133.2698438365247
 20
198.47446412997
 30
0.0
 11
139.8192968268247
 21
198.47446412997
 31
0.0
  0
LINE
  5
2DD
330
1F
100
AcDbEntity
  8
1
  6
Continuous
 62
     3
100
AcDbLine
 10
168.2499996004999
 20
198.47446412997
 30
0.0
 11
167.9622629475443
 21
198.47446412997
 31
0.0
  0
LINE
  5
2DE
330
1F
100
AcDbEntity
  8
1
  6
Continuous
 62
     3
100
AcDbLine
 10
167.9622629475449
 20
211.4896370339715
 30
0.0
 11
168.2499996005005
 21
211.4896370339715
 31
0.0
  0
LINE
  5
2DF
330
1F
100
AcDbEntity
  8
1
  6
Continuous
 62
     3
100
AcDbLine
 10
139.8192968268247
 20
211.4896370339715
 30
0.0
 11
133.2698438365247
 21
211.4896370339715
 31
0.0
  0
LINE
  5
2E0
330
1F
100
AcDbEntity
  8
1
  6
Continuous
 62
     3
100
AcDbLine
 10
154.1807031731762
 20
211.4896370339715
 30
0.0
 11
160.730156163476
 21
211.4896370339715
 31
0.0
  0
LINE
  5
2E1
330
1F
100
AcDbEntity
  8
1
  6
Continuous
 62
     3
100
AcDbLine
 10
125.7500003995007
 20
211.4896370339715
 30
0.0
 11
126.0891406633497
 21
211.4896370339715
 31
0.0
  0
LINE
  5
2E2
330
1F
100
AcDbEntity
  8
1
  6
Continuous
 62
     3
100
AcDbLine
 10
167.9622629475449
 20
211.4896370339715
 30
0.0
 11
167.9622629475443
 21
198.47446412997
 31
0.0
  0
LINE
  5
2E3
330
1F
100
AcDbEntity
  8
1
  6
Continuous
 62
     3
100
AcDbLine
 10
126.0891406633497
 20
211.4896370339715
 30
0.0
 11
126.0891406633497
 21
198.47446412997
 31
0.0
  0
LINE
  5
2E4
330
1F
100
AcDbEntity
  8
1
  6
Continuous
 62
     3
100
AcDbLine
 10
133.2698438365247
 20
211.4896370339715
 30
0.0
 11
133.2698438365247
 21
198.47446412997
 31
0.0
  0
LINE
  5
2E5
330
1F
100
AcDbEntity
  8
1
  6
Continuous
 62
     3
100
AcDbLine
 10
139.8192968268247
 20
211.4896370339715
 30
0.0
 11
139.8192968268247
 21
198.47446412997
 31
0.0
  0
LINE
  5
2E6
330
1F
100
AcDbEntity
  8
1
  6
Continuous
 62
     3
100
AcDbLine
 10
154.1807031731762
 20
211.4896370339715
 30
0.0
 11
154.1807031731756
 21
198.47446412997
 31
0.0
  0
LINE
  5
2E7
330
1F
100
AcDbEntity
  8
1
  6
Continuous
 62
     3
100
AcDbLine
 10
160.730156163476
 20
211.4896370339715
 30
0.0
 11
160.730156163476
 21
198.47446412997
 31
0.0
  0
LINE
  5
2E8
330
1F
100
AcDbEntity
  8
1
  6
Continuous
 62
     3
100
AcDbLine
 10
133.5000000000006
 20
183.9999997744018
 30
0.0
 11
134.5000000000006
 21
182.9999997744018
 31
0.0
  0
LINE
  5
2E9
330
1F
100
AcDbEntity
  8
1
  6
Continuous
 62
     3
100
AcDbLine
 10
125.7500003995007
 20
198.47446412997
 30
0.0
 11
133.5
 21
193.9999997744018
 31
0.0
  0
LINE
  5
2EA
330
1F
100
AcDbEntity
  8
1
  6
Continuous
 62
     3
100
AcDbLine
 10
133.5
 20
193.9999997744018
 30
0.0
 11
133.5000000000006
 21
183.9999997744018
 31
0.0
  0
LINE
  5
2EB
330
1F
100
AcDbEntity
  8
1
  6
Continuous
 62
     3
100
AcDbLine
 10
160.5
 20
183.9999997744018
 30
0.0
 11
159.5000000000006
 21
182.9999997744018
 31
0.0
  0
LINE
  5
2EC
330
1F
100
AcDbEntity
  8
1
  6
Continuous
 62
     3
100
AcDbLine
 10
160.5000000000006
 20
193.9999997744018
 30
0.0
 11
168.2499996004999
 21
198.47446412997
 31
0.0
  0
LINE
  5
2ED
330
1F
100
AcDbEntity
  8
1
  6
Continuous
 62
     3
100
AcDbLine
 10
160.5
 20
183.9999997744018
 30
0.0
 11
160.5000000000006
 21
193.9999997744018
 31
0.0
  0
LINE
  5
2EE
330
1F
100
AcDbEntity
  8
1
  6
Continuous
 62
     3
100
AcDbLine
 10
128.7500003205404
 20
212.4999997744019
 30
0.0
 11
129.9500003205404
 21
212.4999997744019
 31
0.0
  0
LINE
  5
2EF
330
1F
100
AcDbEntity
  8
1
  6
Continuous
 62
     3
100
AcDbLine
 10
129.9500003205404
 20
212.4999997744019
 30
0.0
 11
147.0000000000006
 21
212.4999997744019
 31
0.0
  0
LINE
  5
2F0
330
1F
100
AcDbEntity
  8
1
  6
Continuous
 62
     3
100
AcDbLine
 10
164.0499996794602
 20
212.4999997744019
 30
0.0
 11
165.2499996794602
 21
212.4999997744019
 31
0.0
  0
LINE
  5
2F1
330
1F
100
AcDbEntity
  8
1
  6
Continuous
 62
     3
100
AcDbLine
 10
147.0000000000006
 20
212.4999997744019
 30
0.0
 11
164.0499996794602
 21
212.4999997744019
 31
0.0
  0
LINE
  5
2F2
330
1F
100
AcDbEntity
  8
1
  6
Continuous
 62
     3
100
AcDbLine
 10
127.5000000000006
 20
212.4999997744019
 30
0.0
 11
128.7500003205404
 21
212.4999997744019
 31
0.0
  0
LINE
  5
2F3
330
1F
100
AcDbEntity
  8
1
  6
Continuous
 62
     3
100
AcDbLine
 10
127.5000000000006
 20
212.4999997744019
 30
0.0
 11
125.7500003995007
 21
211.4896370339715
 31
0.0
  0
LINE
  5
2F4
330
1F
100
AcDbEntity
  8
1
  6
Continuous
 62
     3
100
AcDbLine
 10
168.2499996005005
 20
211.4896370339715
 30
0.0
 11
168.2499996004999
 21
198.47446412997
 31
0.0
  0
LINE
  5
2F5
330
1F
100
AcDbEntity
  8
1
  6
Continuous
 62
     3
100
AcDbLine
 10
125.7500003995007
 20
211.4896370339715
 30
0.0
 11
125.7500003995007
 21
198.47446412997
 31
0.0
  0
LINE
  5
2F6
330
1F
100
AcDbEntity
  8
1
  6
Continuous
 62
     3
100
AcDbLine
 10
165.2499996794602
 20
212.4999997744019
 30
0.0
 11
166.5000000000006
 21
212.4999997744019
 31
0.0
  0
LINE
  5
2F7
330
1F
100
AcDbEntity
  8
1
  6
Continuous
 62
     3
100
AcDbLine
 10
166.5000000000006
 20
212.4999997744019
 30
0.0
 11
168.2499996005005
 21
211.4896370339715
 31
0.0
  0
LINE
  5
2F8
330
1F
100
AcDbEntity
  8
0
  6
Continuous
 62
     3
100
AcDbLine
 10
268.0
 20
227.3284438696647
 30
0.0
 11
268.0
 21
237.3371217013848
 31
0.0
  0
LINE
  5
2F9
330
1F
100
AcDbEntity
  8
0
  6
Continuous
 62
     3
100
AcDbLine
 10
272.0
 20
276.8048061603234
 30
0.0
 11
272.0
 21
277.3937138307778
 31
0.0
  0
LINE
  5
2FA
330
1F
100
AcDbEntity
  8
0
  6
Continuous
 62
     3
100
AcDbLine
 10
302.0
 20
276.804805310377
 30
0.0
 11
302.0
 21
277.3937138307778
 31
0.0
  0
LINE
  5
2FB
330
1F
100
AcDbEntity
  8
0
  6
Continuous
 62
     3
100
AcDbLine
 10
306.0
 20
227.3284438829663
 30
0.0
 11
306.0
 21
237.3371217013848
 31
0.0
  0
LINE
  5
2FC
330
1F
100
AcDbEntity
  8
1
  6
Continuous
 62
     3
100
AcDbLine
 10
306.500000000001
 20
212.4999997744019
 30
0.0
 11
308.249999600501
 21
211.4896370339715
 31
0.0
  0
LINE
  5
2FD
330
1F
100
AcDbEntity
  8
1
  6
Continuous
 62
     3
100
AcDbLine
 10
305.249999679461
 20
212.4999997744019
 30
0.0
 11
306.500000000001
 21
212.4999997744019
 31
0.0
  0
LINE
  5
2FE
330
1F
100
AcDbEntity
  8
1
  6
Continuous
 62
     3
100
AcDbLine
 10
265.750000399501
 20
211.4896370339715
 30
0.0
 11
265.750000399501
 21
198.47446412997
 31
0.0
  0
LINE
  5
2FF
330
1F
100
AcDbEntity
  8
1
  6
Continuous
 62
     3
100
AcDbLine
 10
308.249999600501
 20
211.4896370339715
 30
0.0
 11
308.249999600501
 21
198.47446412997
 31
0.0
  0
LINE
  5
300
330
1F
100
AcDbEntity
  8
1
  6
Continuous
 62
     3
100
AcDbLine
 10
267.500000000001
 20
212.4999997744019
 30
0.0
 11
265.750000399501
 21
211.4896370339715
 31
0.0
  0
LINE
  5
301
330
1F
100
AcDbEntity
  8
1
  6
Continuous
 62
     3
100
AcDbLine
 10
267.500000000001
 20
212.4999997744019
 30
0.0
 11
268.750000320541
 21
212.4999997744019
 31
0.0
  0
LINE
  5
302
330
1F
100
AcDbEntity
  8
1
  6
Continuous
 62
     3
100
AcDbLine
 10
287.000000000001
 20
212.4999997744019
 30
0.0
 11
304.049999679461
 21
212.4999997744019
 31
0.0
  0
LINE
  5
303
330
1F
100
AcDbEntity
  8
1
  6
Continuous
 62
     3
100
AcDbLine
 10
304.049999679461
 20
212.4999997744019
 30
0.0
 11
305.249999679461
 21
212.4999997744019
 31
0.0
  0
LINE
  5
304
330
1F
100
AcDbEntity
  8
1
  6
Continuous
 62
     3
100
AcDbLine
 10
269.950000320541
 20
212.4999997744019
 30
0.0
 11
287.000000000001
 21
212.4999997744019
 31
0.0
  0
LINE
  5
305
330
1F
100
AcDbEntity
  8
1
  6
Continuous
 62
     3
100
AcDbLine
 10
268.750000320541
 20
212.4999997744019
 30
0.0
 11
269.950000320541
 21
212.4999997744019
 31
0.0
  0
LINE
  5
306
330
1F
100
AcDbEntity
  8
1
  6
Continuous
 62
     3
100
AcDbLine
 10
300.500000000001
 20
183.9999997744018
 30
0.0
 11
300.500000000001
 21
193.9999997744018
 31
0.0
  0
LINE
  5
307
330
1F
100
AcDbEntity
  8
1
  6
Continuous
 62
     3
100
AcDbLine
 10
300.500000000001
 20
193.9999997744018
 30
0.0
 11
308.249999600501
 21
198.47446412997
 31
0.0
  0
LINE
  5
308
330
1F
100
AcDbEntity
  8
1
  6
Continuous
 62
     3
100
AcDbLine
 10
300.500000000001
 20
183.9999997744018
 30
0.0
 11
299.500000000001
 21
182.9999997744018
 31
0.0
  0
LINE
  5
309
330
1F
100
AcDbEntity
  8
1
  6
Continuous
 62
     3
100
AcDbLine
 10
273.500000000001
 20
193.9999997744018
 30
0.0
 11
273.500000000001
 21
183.9999997744018
 31
0.0
  0
LINE
  5
30A
330
1F
100
AcDbEntity
  8
1
  6
Continuous
 62
     3
100
AcDbLine
 10
265.750000399501
 20
198.47446412997
 30
0.0
 11
273.500000000001
 21
193.9999997744018
 31
0.0
  0
LINE
  5
30B
330
1F
100
AcDbEntity
  8
1
  6
Continuous
 62
     3
100
AcDbLine
 10
273.500000000001
 20
183.9999997744018
 30
0.0
 11
274.500000000001
 21
182.9999997744018
 31
0.0
  0
LINE
  5
30C
330
1F
100
AcDbEntity
  8
1
  6
Continuous
 62
     3
100
AcDbLine
 10
290.27472649515
 20
211.4896370339715
 30
0.0
 11
290.27472649515
 21
198.47446412997
 31
0.0
  0
LINE
  5
30D
330
1F
100
AcDbEntity
  8
1
  6
Continuous
 62
     3
100
AcDbLine
 10
283.72527350485
 20
211.4896370339715
 30
0.0
 11
283.72527350485
 21
198.47446412997
 31
0.0
  0
LINE
  5
30E
330
1F
100
AcDbEntity
  8
1
  6
Continuous
 62
     3
100
AcDbLine
 10
269.363867158499
 20
211.4896370339715
 30
0.0
 11
269.363867158499
 21
198.47446412997
 31
0.0
  0
LINE
  5
30F
330
1F
100
AcDbEntity
  8
1
  6
Continuous
 62
     3
100
AcDbLine
 10
265.750000399501
 20
211.4896370339715
 30
0.0
 11
266.08914066335
 21
211.4896370339715
 31
0.0
  0
LINE
  5
310
330
1F
100
AcDbEntity
  8
1
  6
Continuous
 62
     3
100
AcDbLine
 10
283.72527350485
 20
211.4896370339715
 30
0.0
 11
290.27472649515
 21
211.4896370339715
 31
0.0
  0
LINE
  5
311
330
1F
100
AcDbEntity
  8
1
  6
Continuous
 62
     3
100
AcDbLine
 10
307.962262947545
 20
211.4896370339715
 30
0.0
 11
308.249999600501
 21
211.4896370339715
 31
0.0
  0
LINE
  5
312
330
1F
100
AcDbEntity
  8
1
  6
Continuous
 62
     3
100
AcDbLine
 10
308.249999600501
 20
198.47446412997
 30
0.0
 11
307.962262947545
 21
198.47446412997
 31
0.0
  0
LINE
  5
313
330
1F
100
AcDbEntity
  8
1
  6
Continuous
 62
     3
100
AcDbLine
 10
265.750000399501
 20
198.47446412997
 30
0.0
 11
269.363867158499
 21
198.47446412997
 31
0.0
  0
LINE
  5
314
330
1F
100
AcDbEntity
  8
1
  6
Continuous
 62
     3
100
AcDbLine
 10
290.27472649515
 20
198.47446412997
 30
0.0
 11
283.72527350485
 21
198.47446412997
 31
0.0
  0
LINE
  5
315
330
1F
100
AcDbEntity
  8
1
  6
Continuous
 62
     3
100
AcDbLine
 10
266.08914066335
 20
198.47446412997
 30
0.0
 11
265.750000399501
 21
198.47446412997
 31
0.0
  0
LINE
  5
316
330
1F
100
AcDbEntity
  8
1
  6
Continuous
 62
     3
100
AcDbLine
 10
273.500000000001
 20
193.9999997744018
 30
0.0
 11
300.500000000001
 21
193.9999997744018
 31
0.0
  0
LINE
  5
317
330
1F
100
AcDbEntity
  8
1
  6
Continuous
 62
     3
100
AcDbLine
 10
300.500000000001
 20
183.9999997744018
 30
0.0
 11
273.500000000001
 21
183.9999997744018
 31
0.0
  0
LINE
  5
318
330
1F
100
AcDbEntity
  8
1
  6
Continuous
 62
     3
100
AcDbLine
 10
299.500000000001
 20
182.9999997744018
 30
0.0
 11
274.500000000001
 21
182.9999997744018
 31
0.0
  0
LINE
  5
319
330
1F
100
AcDbEntity
  8
1
  6
Continuous
 62
     3
100
AcDbLine
 10
269.363867158499
 20
211.4896370339715
 30
0.0
 11
265.750000399501
 21
211.4896370339715
 31
0.0
  0
LINE
  5
31A
330
1F
100
AcDbEntity
  8
1
  6
Continuous
 62
     3
100
AcDbLine
 10
304.636132841501
 20
198.47446412997
 30
0.0
 11
304.636132841501
 21
211.4896370339715
 31
0.0
  0
LINE
  5
31B
330
1F
100
AcDbEntity
  8
1
  6
Continuous
 62
     3
100
AcDbLine
 10
308.249999600501
 20
211.4896370339715
 30
0.0
 11
304.636132841501
 21
211.4896370339715
 31
0.0
  0
LINE
  5
31C
330
1F
100
AcDbEntity
  8
1
  6
Continuous
 62
     3
100
AcDbLine
 10
304.636132841501
 20
198.47446412997
 30
0.0
 11
308.249999600501
 21
198.47446412997
 31
0.0
  0
LINE
  5
31D
330
1F
100
AcDbEntity
  8
1
  6
Continuous
 62
     3
100
AcDbLine
 10
127.9999999999999
 20
241.9231160885713
 30
0.0
 11
128.0
 21
234.9999968792741
 31
0.0
  0
LINE
  5
31E
330
1F
100
AcDbEntity
  8
0
  6
Continuous
 62
     3
100
AcDbLine
 10
93.44337567297407
 20
512.6933761370819
 30
0.0
 11
93.44337567297407
 21
510.0
 31
0.0
  0
LINE
  5
31F
330
1F
100
AcDbEntity
  8
0
  6
Continuous
 62
     3
100
AcDbLine
 10
92.28867513459477
 20
510.0
 30
0.0
 11
91.99999999999997
 21
510.5
 31
0.0
  0
LINE
  5
320
330
1F
100
AcDbEntity
  8
0
  6
Continuous
 62
     3
100
AcDbLine
 10
93.44337567297407
 20
510.0
 30
0.0
 11
92.28867513459477
 21
510.0
 31
0.0
  0
LINE
  5
321
330
1F
100
AcDbEntity
  8
0
  6
Continuous
 62
     3
100
AcDbLine
 10
91.99999999999989
 20
532.0
 30
0.0
 11
91.99999999999997
 21
510.5
 31
0.0
  0
LINE
  5
322
330
1F
100
AcDbEntity
  8
0
  6
Continuous
 62
     3
100
AcDbLine
 10
93.44337567296179
 20
532.0
 30
0.0
 11
93.44337567297407
 21
529.3066238629181
 31
0.0
  0
LINE
  5
323
330
1F
100
AcDbEntity
  8
0
  6
Continuous
 62
     3
100
AcDbLine
 10
93.44337567297407
 20
529.3066238629181
 30
0.0
 11
96.99999999999996
 21
529.3066238629249
 31
0.0
  0
LINE
  5
324
330
1F
100
AcDbEntity
  8
0
  6
Continuous
 62
     3
100
AcDbLine
 10
116.7
 20
513.0
 30
0.0
 11
111.2414518843275
 21
513.0
 31
0.0
  0
LINE
  5
325
330
1F
100
AcDbEntity
  8
0
  6
Continuous
 62
     3
100
AcDbLine
 10
93.44337567297407
 20
512.6933761370819
 30
0.0
 11
107.2
 21
512.6933761370819
 31
0.0
  0
LINE
  5
326
330
1F
100
AcDbEntity
  8
0
  6
Continuous
 62
     3
100
AcDbLine
 10
108.3547005383793
 20
510.0
 30
0.0
 11
107.2000000000246
 21
510.000000000028
 31
0.0
  0
LINE
  5
327
330
1F
100
AcDbEntity
  8
0
  6
Continuous
 62
     3
100
AcDbLine
 10
108.3547005383793
 20
510.0
 30
0.0
 11
109.5094010767586
 21
512.0
 31
0.0
  0
LINE
  5
328
330
1F
100
AcDbEntity
  8
0
  6
Continuous
 62
     3
100
AcDbLine
 10
107.2
 20
512.6933761370819
 30
0.0
 11
107.2000000000246
 21
510.000000000028
 31
0.0
  0
LINE
  5
329
330
1F
100
AcDbEntity
  8
0
  6
Continuous
 62
     3
100
AcDbLine
 10
200.5566243268947
 20
532.0
 30
0.0
 11
200.5566243270506
 21
529.306623862945
 31
0.0
  0
LINE
  5
32A
330
1F
100
AcDbEntity
  8
0
  6
Continuous
 62
     3
100
AcDbLine
 10
182.7585481156726
 20
513.0
 30
0.0
 11
177.2999999999999
 21
513.0
 31
0.0
  0
LINE
  5
32B
330
1F
100
AcDbEntity
  8
0
  6
Continuous
 62
     3
100
AcDbLine
 10
202.0
 20
510.5
 30
0.0
 11
202.0000000000002
 21
532.0
 31
0.0
  0
LINE
  5
32C
330
1F
100
AcDbEntity
  8
0
  6
Continuous
 62
     3
100
AcDbLine
 10
197.0
 20
529.3066238629381
 30
0.0
 11
200.5566243270506
 21
529.306623862945
 31
0.0
  0
LINE
  5
32D
330
1F
100
AcDbEntity
  8
0
  6
Continuous
 62
     3
100
AcDbLine
 10
186.8
 20
512.6933761370819
 30
0.0
 11
200.5566243270259
 21
512.6933761370819
 31
0.0
  0
LINE
  5
32E
330
1F
100
AcDbEntity
  8
0
  6
Continuous
 62
     3
100
AcDbLine
 10
201.7113248654053
 20
510.0
 30
0.0
 11
202.0
 21
510.5
 31
0.0
  0
LINE
  5
32F
330
1F
100
AcDbEntity
  8
0
  6
Continuous
 62
     3
100
AcDbLine
 10
186.8
 20
512.6933761370819
 30
0.0
 11
186.8
 21
510.0
 31
0.0
  0
LINE
  5
330
330
1F
100
AcDbEntity
  8
0
  6
Continuous
 62
     3
100
AcDbLine
 10
185.6452994616207
 20
510.0
 30
0.0
 11
184.4905989232415
 21
512.0
 31
0.0
  0
LINE
  5
331
330
1F
100
AcDbEntity
  8
0
  6
Continuous
 62
     3
100
AcDbLine
 10
200.5566243270259
 20
512.6933761370819
 30
0.0
 11
200.5566243270506
 21
510.000000000028
 31
0.0
  0
LINE
  5
332
330
1F
100
AcDbEntity
  8
0
  6
Continuous
 62
     3
100
AcDbLine
 10
201.7113248654053
 20
510.0
 30
0.0
 11
200.5566243270506
 21
510.000000000028
 31
0.0
  0
LINE
  5
333
330
1F
100
AcDbEntity
  8
0
  6
Continuous
 62
     3
100
AcDbLine
 10
186.8
 20
510.0
 30
0.0
 11
185.6452994616207
 21
510.0
 31
0.0
  0
LINE
  5
334
330
1F
100
AcDbEntity
  8
0
  6
Continuous
 62
     3
100
AcDbLine
 10
93.44337567297407
 20
510.0
 30
0.0
 11
107.2000000000246
 21
510.000000000028
 31
0.0
  0
LINE
  5
335
330
1F
100
AcDbEntity
  8
0
  6
Continuous
 62
     3
100
AcDbLine
 10
186.8
 20
510.0
 30
0.0
 11
200.5566243270506
 21
510.000000000028
 31
0.0
  0
LINE
  5
336
330
1F
100
AcDbEntity
  8
0
  6
Continuous
 62
     3
100
AcDbLine
 10
200.5566243270506
 20
553.999999999972
 30
0.0
 11
186.8
 21
554.0
 31
0.0
  0
LINE
  5
337
330
1F
100
AcDbEntity
  8
0
  6
Continuous
 62
     3
100
AcDbLine
 10
107.2000000000246
 20
553.999999999972
 30
0.0
 11
93.44337567297407
 21
554.0
 31
0.0
  0
LINE
  5
338
330
1F
100
AcDbEntity
  8
0
  6
Continuous
 62
     3
100
AcDbLine
 10
185.6452994616207
 20
554.0
 30
0.0
 11
186.8
 21
554.0
 31
0.0
  0
LINE
  5
339
330
1F
100
AcDbEntity
  8
0
  6
Continuous
 62
     3
100
AcDbLine
 10
200.5566243270506
 20
553.999999999972
 30
0.0
 11
201.7113248654053
 21
554.0
 31
0.0
  0
LINE
  5
33A
330
1F
100
AcDbEntity
  8
0
  6
Continuous
 62
     3
100
AcDbLine
 10
200.5566243270506
 20
553.999999999972
 30
0.0
 11
200.5566243270259
 21
551.3066238629181
 31
0.0
  0
LINE
  5
33B
330
1F
100
AcDbEntity
  8
0
  6
Continuous
 62
     3
100
AcDbLine
 10
184.4905989232415
 20
552.0
 30
0.0
 11
185.6452994616207
 21
554.0
 31
0.0
  0
LINE
  5
33C
330
1F
100
AcDbEntity
  8
0
  6
Continuous
 62
     3
100
AcDbLine
 10
186.8
 20
554.0
 30
0.0
 11
186.8
 21
551.3066238629181
 31
0.0
  0
LINE
  5
33D
330
1F
100
AcDbEntity
  8
0
  6
Continuous
 62
     3
100
AcDbLine
 10
202.0
 20
553.5
 30
0.0
 11
201.7113248654053
 21
554.0
 31
0.0
  0
LINE
  5
33E
330
1F
100
AcDbEntity
  8
0
  6
Continuous
 62
     3
100
AcDbLine
 10
200.5566243270259
 20
551.3066238629181
 30
0.0
 11
186.8
 21
551.3066238629181
 31
0.0
  0
LINE
  5
33F
330
1F
100
AcDbEntity
  8
0
  6
Continuous
 62
     3
100
AcDbLine
 10
200.5566243270506
 20
534.693376137055
 30
0.0
 11
197.0
 21
534.6933761370619
 31
0.0
  0
LINE
  5
340
330
1F
100
AcDbEntity
  8
0
  6
Continuous
 62
     3
100
AcDbLine
 10
202.0000000000002
 20
532.0
 30
0.0
 11
202.0
 21
553.5
 31
0.0
  0
LINE
  5
341
330
1F
100
AcDbEntity
  8
0
  6
Continuous
 62
     3
100
AcDbLine
 10
177.2999999999999
 20
551.0
 30
0.0
 11
182.7585481156726
 21
551.0
 31
0.0
  0
LINE
  5
342
330
1F
100
AcDbEntity
  8
0
  6
Continuous
 62
     3
100
AcDbLine
 10
200.5566243270506
 20
534.693376137055
 30
0.0
 11
200.5566243268947
 21
532.0
 31
0.0
  0
LINE
  5
343
330
1F
100
AcDbEntity
  8
0
  6
Continuous
 62
     3
100
AcDbLine
 10
107.2000000000246
 20
553.999999999972
 30
0.0
 11
107.2
 21
551.3066238629181
 31
0.0
  0
LINE
  5
344
330
1F
100
AcDbEntity
  8
0
  6
Continuous
 62
     3
100
AcDbLine
 10
109.5094010767586
 20
552.0
 30
0.0
 11
108.3547005383793
 21
554.0
 31
0.0
  0
LINE
  5
345
330
1F
100
AcDbEntity
  8
0
  6
Continuous
 62
     3
100
AcDbLine
 10
107.2000000000246
 20
553.999999999972
 30
0.0
 11
108.3547005383793
 21
554.0
 31
0.0
  0
LINE
  5
346
330
1F
100
AcDbEntity
  8
0
  6
Continuous
 62
     3
100
AcDbLine
 10
107.2
 20
551.3066238629181
 30
0.0
 11
93.44337567297407
 21
551.3066238629181
 31
0.0
  0
LINE
  5
347
330
1F
100
AcDbEntity
  8
0
  6
Continuous
 62
     3
100
AcDbLine
 10
111.2414518843275
 20
551.0
 30
0.0
 11
116.7
 21
551.0
 31
0.0
  0
LINE
  5
348
330
1F
100
AcDbEntity
  8
0
  6
Continuous
 62
     3
100
AcDbLine
 10
96.99999999999996
 20
534.693376137075
 30
0.0
 11
93.44337567297407
 21
534.6933761370819
 31
0.0
  0
LINE
  5
349
330
1F
100
AcDbEntity
  8
0
  6
Continuous
 62
     3
100
AcDbLine
 10
93.44337567297407
 20
534.6933761370819
 30
0.0
 11
93.44337567296179
 21
532.0
 31
0.0
  0
LINE
  5
34A
330
1F
100
AcDbEntity
  8
0
  6
Continuous
 62
     3
100
AcDbLine
 10
91.99999999999997
 20
553.5
 30
0.0
 11
91.99999999999989
 21
532.0
 31
0.0
  0
LINE
  5
34B
330
1F
100
AcDbEntity
  8
0
  6
Continuous
 62
     3
100
AcDbLine
 10
92.28867513459477
 20
554.0
 30
0.0
 11
93.44337567297407
 21
554.0
 31
0.0
  0
LINE
  5
34C
330
1F
100
AcDbEntity
  8
0
  6
Continuous
 62
     3
100
AcDbLine
 10
91.99999999999997
 20
553.5
 30
0.0
 11
92.28867513459477
 21
554.0
 31
0.0
  0
LINE
  5
34D
330
1F
100
AcDbEntity
  8
0
  6
Continuous
 62
     3
100
AcDbLine
 10
93.44337567297407
 20
554.0
 30
0.0
 11
93.44337567297407
 21
551.3066238629181
 31
0.0
  0
LINE
  5
34E
330
1F
100
AcDbEntity
  8
0
  6
Continuous
 62
     3
100
AcDbLine
 10
186.7999999999999
 20
227.9999999999999
 30
0.0
 11
184.4905989232415
 21
232.0
 31
0.0
  0
LINE
  5
34F
330
1F
100
AcDbEntity
  8
0
  6
Continuous
 62
     3
100
AcDbLine
 10
184.4905989232415
 20
232.0
 30
0.0
 11
186.7999999999999
 21
227.9999999999999
 31
0.0
  0
LINE
  5
350
330
1F
100
AcDbEntity
  8
0
  6
Continuous
 62
     3
100
AcDbLine
 10
202.0
 20
269.0
 30
0.0
 11
202.0000000000003
 21
273.4999999999997
 31
0.0
  0
LINE
  5
351
330
1F
100
AcDbEntity
  8
0
  6
Continuous
 62
     3
100
AcDbLine
 10
200.5566243270259
 20
276.0
 30
0.0
 11
202.0000000000003
 21
273.4999999999997
 31
0.0
  0
LINE
  5
352
330
1F
100
AcDbEntity
  8
0
  6
Continuous
 62
     3
100
AcDbLine
 10
202.0000000000003
 20
273.4999999999997
 30
0.0
 11
200.5566243270259
 21
276.0
 31
0.0
  0
LINE
  5
353
330
1F
100
AcDbEntity
  8
0
  6
Continuous
 62
     3
100
AcDbLine
 10
202.0000000000003
 20
273.4999999999997
 30
0.0
 11
202.0
 21
269.0
 31
0.0
  0
LINE
  5
354
330
1F
100
AcDbEntity
  8
0
  6
Continuous
 62
     3
100
AcDbLine
 10
200.5566243270259
 20
276.0
 30
0.0
 11
186.7999999999999
 21
276.0
 31
0.0
  0
LINE
  5
355
330
1F
100
AcDbEntity
  8
0
  6
Continuous
 62
     3
100
AcDbLine
 10
202.0
 20
234.9999999999999
 30
0.0
 11
202.0
 21
269.0
 31
0.0
  0
LINE
  5
356
330
1F
100
AcDbEntity
  8
0
  6
Continuous
 62
     3
100
AcDbLine
 10
186.7999999999999
 20
276.0
 30
0.0
 11
184.4905989232415
 21
272.0
 31
0.0
  0
LINE
  5
357
330
1F
100
AcDbEntity
  8
0
  6
Continuous
 62
     3
100
AcDbLine
 10
200.5566243270259
 20
228.0
 30
0.0
 11
202.0000000000003
 21
230.5000000000003
 31
0.0
  0
LINE
  5
358
330
1F
100
AcDbEntity
  8
0
  6
Continuous
 62
     3
100
AcDbLine
 10
202.0000000000003
 20
230.5000000000003
 30
0.0
 11
202.0
 21
234.9999999999999
 31
0.0
  0
LINE
  5
359
330
1F
100
AcDbEntity
  8
0
  6
Continuous
 62
     3
100
AcDbLine
 10
202.0000000000003
 20
230.5000000000003
 30
0.0
 11
201.7113248654034
 21
229.9999999999999
 31
0.0
  0
LINE
  5
35A
330
1F
100
AcDbEntity
  8
0
  6
Continuous
 62
     3
100
AcDbLine
 10
202.0000000000003
 20
230.5000000000003
 30
0.0
 11
201.9999999999983
 21
252.0
 31
0.0
  0
LINE
  5
35B
330
1F
100
AcDbEntity
  8
0
  6
Continuous
 62
     3
100
AcDbLine
 10
186.7999999999737
 20
260.3066238629448
 30
0.0
 11
186.7999999999859
 21
263.0
 31
0.0
  0
LINE
  5
35C
330
1F
100
AcDbEntity
  8
0
  6
Continuous
 62
     3
100
AcDbLine
 10
200.5566243270241
 20
260.306623862918
 30
0.0
 11
200.5566243270364
 21
263.0
 31
0.0
  0
LINE
  5
35D
330
1F
100
AcDbEntity
  8
0
  6
Continuous
 62
     3
100
AcDbLine
 10
186.7999999999737
 20
260.3066238629448
 30
0.0
 11
200.5566243270241
 21
260.306623862918
 31
0.0
  0
LINE
  5
35E
330
1F
100
AcDbEntity
  8
0
  6
Continuous
 62
     3
100
AcDbLine
 10
186.7999999999982
 20
243.6933761370819
 30
0.0
 11
200.5566243270241
 21
243.6933761370819
 31
0.0
  0
LINE
  5
35F
330
1F
100
AcDbEntity
  8
0
  6
Continuous
 62
     3
100
AcDbLine
 10
184.4905989232415
 20
232.0
 30
0.0
 11
185.6452994616189
 21
229.9999999999999
 31
0.0
  0
LINE
  5
360
330
1F
100
AcDbEntity
  8
0
  6
Continuous
 62
     3
100
AcDbLine
 10
185.6452994616189
 20
274.0
 30
0.0
 11
184.4905989232415
 21
272.0
 31
0.0
  0
LINE
  5
361
330
1F
100
AcDbEntity
  8
0
  6
Continuous
 62
     3
100
AcDbLine
 10
200.5566243270241
 20
265.693376137082
 30
0.0
 11
186.7999999999737
 21
265.6933761370551
 31
0.0
  0
LINE
  5
362
330
1F
100
AcDbEntity
  8
0
  6
Continuous
 62
     3
100
AcDbLine
 10
200.5566243270364
 20
263.0
 30
0.0
 11
200.5566243270241
 21
265.693376137082
 31
0.0
  0
LINE
  5
363
330
1F
100
AcDbEntity
  8
0
  6
Continuous
 62
     3
100
AcDbLine
 10
186.7999999999859
 20
263.0
 30
0.0
 11
186.7999999999737
 21
265.6933761370551
 31
0.0
  0
LINE
  5
364
330
1F
100
AcDbEntity
  8
0
  6
Continuous
 62
     3
100
AcDbLine
 10
201.9999999999983
 20
252.0
 30
0.0
 11
202.0000000000003
 21
273.4999999999997
 31
0.0
  0
LINE
  5
365
330
1F
100
AcDbEntity
  8
0
  6
Continuous
 62
     3
100
AcDbLine
 10
201.7113248654034
 20
274.0
 30
0.0
 11
202.0000000000003
 21
273.4999999999997
 31
0.0
  0
LINE
  5
366
330
1F
100
AcDbEntity
  8
1
  6
Continuous
 62
     3
100
AcDbLine
 10
200.5566243270259
 20
273.9999999999866
 30
0.0
 11
200.5566243270259
 21
276.0
 31
0.0
  0
LINE
  5
367
330
1F
100
AcDbEntity
  8
1
  6
Continuous
 62
     3
100
AcDbLine
 10
186.8
 20
273.9999999999866
 30
0.0
 11
186.7999999999999
 21
276.0
 31
0.0
  0
LINE
  5
368
330
1F
100
AcDbEntity
  8
1
  6
Continuous
 62
     3
100
AcDbLine
 10
186.8
 20
274.0454815241178
 30
0.0
 11
200.5566243270259
 21
274.0454815241178
 31
0.0
  0
LINE
  5
369
330
1F
100
AcDbEntity
  8
1
  6
Continuous
 62
     3
100
AcDbLine
 10
200.5566243270259
 20
229.9545184758822
 30
0.0
 11
186.8
 21
229.9545184758822
 31
0.0
  0
LINE
  5
36A
330
1F
100
AcDbEntity
  8
1
  6
Continuous
 62
     3
100
AcDbLine
 10
200.5566243270259
 20
228.0
 30
0.0
 11
200.5566243270259
 21
230.0000000000134
 31
0.0
  0
LINE
  5
36B
330
1F
100
AcDbEntity
  8
1
  6
Continuous
 62
     3
100
AcDbLine
 10
186.7999999999999
 20
227.9999999999999
 30
0.0
 11
186.8
 21
230.0000000000134
 31
0.0
  0
LINE
  5
36C
330
1F
100
AcDbEntity
  8
0
  6
Continuous
 62
     3
100
AcDbLine
 10
186.7999999999737
 20
238.3066238629449
 30
0.0
 11
200.5566243270241
 21
238.306623862918
 31
0.0
  0
LINE
  5
36D
330
1F
100
AcDbEntity
  8
0
  6
Continuous
 62
     3
100
AcDbLine
 10
186.7999999999737
 20
238.3066238629449
 30
0.0
 11
186.7999999999982
 21
243.6933761370819
 31
0.0
  0
LINE
  5
36E
330
1F
100
AcDbEntity
  8
0
  6
Continuous
 62
     3
100
AcDbLine
 10
200.5566243270241
 20
238.306623862918
 30
0.0
 11
200.5566243270241
 21
243.6933761370819
 31
0.0
  0
LINE
  5
36F
330
1F
100
AcDbEntity
  8
0
  6
Continuous
 62
     3
100
AcDbLine
 10
93.44337567295119
 20
243.6933761370819
 30
0.0
 11
93.44337567297589
 21
238.306623862918
 31
0.0
  0
LINE
  5
370
330
1F
100
AcDbEntity
  8
0
  6
Continuous
 62
     3
100
AcDbLine
 10
107.2000000000018
 20
243.6933761370819
 30
0.0
 11
107.2000000000263
 21
238.3066238629449
 31
0.0
  0
LINE
  5
371
330
1F
100
AcDbEntity
  8
0
  6
Continuous
 62
     3
100
AcDbLine
 10
93.44337567297589
 20
238.306623862918
 30
0.0
 11
107.2000000000263
 21
238.3066238629449
 31
0.0
  0
LINE
  5
372
330
1F
100
AcDbEntity
  8
1
  6
Continuous
 62
     3
100
AcDbLine
 10
107.2
 20
230.0000000000134
 30
0.0
 11
107.2
 21
228.0
 31
0.0
  0
LINE
  5
373
330
1F
100
AcDbEntity
  8
1
  6
Continuous
 62
     3
100
AcDbLine
 10
93.4433756729741
 20
230.0000000000134
 30
0.0
 11
93.4433756729741
 21
228.0
 31
0.0
  0
LINE
  5
374
330
1F
100
AcDbEntity
  8
1
  6
Continuous
 62
     3
100
AcDbLine
 10
107.2
 20
229.9545184758822
 30
0.0
 11
93.4433756729741
 21
229.9545184758822
 31
0.0
  0
LINE
  5
375
330
1F
100
AcDbEntity
  8
1
  6
Continuous
 62
     3
100
AcDbLine
 10
93.4433756729741
 20
274.0454815241178
 30
0.0
 11
107.2
 21
274.0454815241178
 31
0.0
  0
LINE
  5
376
330
1F
100
AcDbEntity
  8
1
  6
Continuous
 62
     3
100
AcDbLine
 10
107.2
 20
276.0
 30
0.0
 11
107.2
 21
273.9999999999866
 31
0.0
  0
LINE
  5
377
330
1F
100
AcDbEntity
  8
1
  6
Continuous
 62
     3
100
AcDbLine
 10
93.4433756729741
 20
276.0
 30
0.0
 11
93.4433756729741
 21
273.9999999999866
 31
0.0
  0
LINE
  5
378
330
1F
100
AcDbEntity
  8
0
  6
Continuous
 62
     3
100
AcDbLine
 10
92.00000000000179
 20
273.5
 30
0.0
 11
92.28867513459659
 21
274.0
 31
0.0
  0
LINE
  5
379
330
1F
100
AcDbEntity
  8
0
  6
Continuous
 62
     3
100
AcDbLine
 10
92.00000000000179
 20
273.5
 30
0.0
 11
92.0000000000017
 21
252.0
 31
0.0
  0
LINE
  5
37A
330
1F
100
AcDbEntity
  8
0
  6
Continuous
 62
     3
100
AcDbLine
 10
107.2000000000263
 20
265.6933761370551
 30
0.0
 11
107.2000000000141
 21
263.0
 31
0.0
  0
LINE
  5
37B
330
1F
100
AcDbEntity
  8
0
  6
Continuous
 62
     3
100
AcDbLine
 10
93.44337567297589
 20
265.693376137082
 30
0.0
 11
93.44337567296361
 21
263.0
 31
0.0
  0
LINE
  5
37C
330
1F
100
AcDbEntity
  8
0
  6
Continuous
 62
     3
100
AcDbLine
 10
107.2000000000263
 20
265.6933761370551
 30
0.0
 11
93.44337567297589
 21
265.693376137082
 31
0.0
  0
LINE
  5
37D
330
1F
100
AcDbEntity
  8
0
  6
Continuous
 62
     3
100
AcDbLine
 10
109.5094010767604
 20
272.0
 30
0.0
 11
108.3547005383811
 21
274.0
 31
0.0
  0
LINE
  5
37E
330
1F
100
AcDbEntity
  8
0
  6
Continuous
 62
     3
100
AcDbLine
 10
108.3547005383811
 20
229.9999999999999
 30
0.0
 11
109.5094010767604
 21
231.9999999999999
 31
0.0
  0
LINE
  5
37F
330
1F
100
AcDbEntity
  8
0
  6
Continuous
 62
     3
100
AcDbLine
 10
93.44337567295119
 20
243.6933761370819
 30
0.0
 11
107.2000000000018
 21
243.6933761370819
 31
0.0
  0
LINE
  5
380
330
1F
100
AcDbEntity
  8
0
  6
Continuous
 62
     3
100
AcDbLine
 10
93.44337567297589
 20
260.306623862918
 30
0.0
 11
107.2000000000263
 21
260.3066238629448
 31
0.0
  0
LINE
  5
381
330
1F
100
AcDbEntity
  8
0
  6
Continuous
 62
     3
100
AcDbLine
 10
93.44337567296361
 20
263.0
 30
0.0
 11
93.44337567297589
 21
260.306623862918
 31
0.0
  0
LINE
  5
382
330
1F
100
AcDbEntity
  8
0
  6
Continuous
 62
     3
100
AcDbLine
 10
107.2000000000141
 20
263.0
 30
0.0
 11
107.2000000000263
 21
260.3066238629448
 31
0.0
  0
LINE
  5
383
330
1F
100
AcDbEntity
  8
0
  6
Continuous
 62
     3
100
AcDbLine
 10
92.0000000000017
 20
252.0
 30
0.0
 11
92.00000000000179
 21
230.4999999999999
 31
0.0
  0
LINE
  5
384
330
1F
100
AcDbEntity
  8
0
  6
Continuous
 62
     3
100
AcDbLine
 10
92.28867513459659
 20
229.9999999999999
 30
0.0
 11
92.00000000000179
 21
230.4999999999999
 31
0.0
  0
LINE
  5
385
330
1F
100
AcDbEntity
  8
1
  6
Continuous
 62
     3
100
AcDbLine
 10
177.0441427554579
 20
270.2442137178413
 30
0.0
 11
169.5658646890251
 21
260.8326701935873
 31
0.0
  0
LINE
  5
386
330
1F
100
AcDbEntity
  8
1
  6
Continuous
 62
     3
100
AcDbLine
 10
125.1200103108658
 20
273.745921173983
 30
0.0
 11
130.6200923522001
 21
275.539599706235
 31
0.0
  0
LINE
  5
387
330
1F
100
AcDbEntity
  8
0
  6
Continuous
 62
     3
100
AcDbLine
 10
184.4905989232415
 20
272.0
 30
0.0
 11
186.7999999999999
 21
276.0
 31
0.0
  0
LINE
  5
388
330
1F
100
AcDbEntity
  8
0
  6
Continuous
 62
     3
100
AcDbLine
 10
109.5094010767604
 20
231.9999999999999
 30
0.0
 11
107.2
 21
228.0
 31
0.0
  0
LINE
  5
389
330
1F
100
AcDbEntity
  8
0
  6
Continuous
 62
     3
100
AcDbLine
 10
179.0204859639891
 20
233.0
 30
0.0
 11
182.7585481156726
 21
233.0
 31
0.0
  0
LINE
  5
38A
330
1F
100
AcDbEntity
  8
0
  6
Continuous
 62
     3
100
AcDbLine
 10
200.5566243270259
 20
228.0
 30
0.0
 11
186.7999999999999
 21
227.9999999999999
 31
0.0
  0
LINE
  5
38B
330
1F
100
AcDbEntity
  8
0
  6
Continuous
 62
     3
100
AcDbLine
 10
202.0
 20
234.9999999999999
 30
0.0
 11
202.0000000000003
 21
230.5000000000003
 31
0.0
  0
LINE
  5
38C
330
1F
100
AcDbEntity
  8
0
  6
Continuous
 62
     3
100
AcDbLine
 10
92.00000000000011
 20
235.0
 30
0.0
 11
92.00000000000179
 21
230.4999999999999
 31
0.0
  0
LINE
  5
38D
330
1F
100
AcDbEntity
  8
0
  6
Continuous
 62
     3
100
AcDbLine
 10
107.2
 20
228.0
 30
0.0
 11
93.4433756729741
 21
228.0
 31
0.0
  0
LINE
  5
38E
330
1F
100
AcDbEntity
  8
0
  6
Continuous
 62
     3
100
AcDbLine
 10
92.00000000000179
 20
230.4999999999999
 30
0.0
 11
93.4433756729741
 21
228.0
 31
0.0
  0
LINE
  5
38F
330
1F
100
AcDbEntity
  8
0
  6
Continuous
 62
     3
100
AcDbLine
 10
166.0
 20
278.5762518389417
 30
0.0
 11
166.0000000000001
 21
262.0768839114286
 31
0.0
  0
LINE
  5
390
330
1F
100
AcDbEntity
  8
0
  6
Continuous
 62
     3
100
AcDbLine
 10
109.5094010767604
 20
272.0
 30
0.0
 11
107.2
 21
276.0
 31
0.0
  0
LINE
  5
391
330
1F
100
AcDbEntity
  8
0
  6
Continuous
 62
     3
100
AcDbLine
 10
111.2414518843274
 20
233.0
 30
0.0
 11
115.389992555517
 21
233.0
 31
0.0
  0
LINE
  5
392
330
1F
100
AcDbEntity
  8
0
  6
Continuous
 62
     3
100
AcDbLine
 10
111.2414518843274
 20
271.0
 30
0.0
 11
115.9054334879518
 21
271.0
 31
0.0
  0
LINE
  5
393
330
1F
100
AcDbEntity
  8
0
  6
Continuous
 62
     3
100
AcDbLine
 10
92.00000000000011
 20
269.0
 30
0.0
 11
92.00000000000011
 21
235.0
 31
0.0
  0
LINE
  5
394
330
1F
100
AcDbEntity
  8
0
  6
Continuous
 62
     3
100
AcDbLine
 10
92.00000000000179
 20
273.5
 30
0.0
 11
93.4433756729741
 21
276.0
 31
0.0
  0
LINE
  5
395
330
1F
100
AcDbEntity
  8
0
  6
Continuous
 62
     3
100
AcDbLine
 10
107.2
 20
276.0
 30
0.0
 11
93.4433756729741
 21
276.0
 31
0.0
  0
LINE
  5
396
330
1F
100
AcDbEntity
  8
0
  6
Continuous
 62
     3
100
AcDbLine
 10
178.6100074444829
 20
271.0
 30
0.0
 11
182.7585481156726
 21
271.0
 31
0.0
  0
LINE
  5
397
330
1F
100
AcDbEntity
  8
0
  6
Continuous
 62
     3
100
AcDbLine
 10
92.00000000000179
 20
273.5
 30
0.0
 11
92.00000000000011
 21
269.0
 31
0.0
  0
LINE
  5
398
330
1F
100
AcDbEntity
  8
0
  6
Continuous
 62
     3
100
AcDbLine
 10
168.0
 20
271.0
 30
0.0
 11
177.6446797409388
 21
271.0
 31
0.0
  0
LINE
  5
399
330
1F
100
AcDbEntity
  8
1
  6
Continuous
 62
     3
100
AcDbLine
 10
177.6446797409388
 20
271.0
 30
0.0
 11
178.6100074444829
 21
271.0
 31
0.0
  0
LINE
  5
39A
330
1F
100
AcDbEntity
  8
1
  6
Continuous
 62
     3
100
AcDbLine
 10
124.434135310975
 20
243.1673298064126
 30
0.0
 11
116.9558572445421
 21
233.7557862821587
 31
0.0
  0
LINE
  5
39B
330
1F
100
AcDbEntity
  8
0
  6
Continuous
 62
     3
100
AcDbLine
 10
116.3553202590611
 20
233.0
 30
0.0
 11
126.0000005098088
 21
233.0
 31
0.0
  0
LINE
  5
39C
330
1F
100
AcDbEntity
  8
1
  6
Continuous
 62
     3
100
AcDbLine
 10
115.389992555517
 20
233.0
 30
0.0
 11
116.3553202590611
 21
233.0
 31
0.0
  0
LINE
  5
39D
330
1F
100
AcDbEntity
  8
1
  6
Continuous
 62
     3
100
AcDbLine
 10
277.513338607825
 20
274.0454815241178
 30
0.0
 11
267.289813548107
 21
265.693376137082
 31
0.0
  0
LINE
  5
39E
330
1F
100
AcDbEntity
  8
1
  6
Continuous
 62
     3
100
AcDbLine
 10
296.486661392175
 20
274.0454815241178
 30
0.0
 11
306.710186451893
 21
265.693376137082
 31
0.0
  0
LINE
  5
39F
330
1F
100
AcDbEntity
  8
1
  6
Continuous
 62
     3
100
AcDbLine
 10
264.483339501605
 20
260.3066238629194
 30
0.0
 11
264.483339501605
 21
243.6933761370819
 31
0.0
  0
LINE
  5
3A0
330
1F
100
AcDbEntity
  8
1
  6
Continuous
 62
     3
100
AcDbLine
 10
268.0
 20
237.3371217013848
 30
0.0
 11
277.513338607825
 21
229.9545184758822
 31
0.0
  0
LINE
  5
3A1
330
1F
100
AcDbEntity
  8
1
  6
Continuous
 62
     3
100
AcDbLine
 10
296.486661392175
 20
229.9545184758822
 30
0.0
 11
306.0
 21
237.3371217013848
 31
0.0
  0
LINE
  5
3A2
330
1F
100
AcDbEntity
  8
1
  6
Continuous
 62
     3
100
AcDbLine
 10
309.516660498395
 20
243.6933761370819
 30
0.0
 11
309.516660498395
 21
260.3066238629194
 31
0.0
  0
LINE
  5
3A3
330
1F
100
AcDbEntity
  8
0
  6
Continuous
 62
     3
100
AcDbLine
 10
268.0
 20
266.2735627220426
 30
0.0
 11
268.0
 21
270.1715561303355
 31
0.0
  0
LINE
  5
3A4
330
1F
100
AcDbEntity
  8
0
  6
Continuous
 62
     3
100
AcDbLine
 10
306.0
 20
266.2735627220426
 30
0.0
 11
306.0
 21
270.171556117034
 31
0.0
  0
LINE
  5
3A5
330
1F
100
AcDbEntity
  8
1
  6
Continuous
 62
     3
100
AcDbLine
 10
305.000000000001
 20
213.0998746749886
 30
0.0
 11
268.999999999999
 21
213.0998746749886
 31
0.0
  0
LINE
  5
3A6
330
1F
100
AcDbEntity
  8
1
  6
Continuous
 62
     3
100
AcDbLine
 10
126.4999999999999
 20
275.6469662896008
 30
0.0
 11
126.5
 21
282.5000000000002
 31
0.0
  0
LINE
  5
3A7
330
1F
100
AcDbEntity
  8
0
  6
Continuous
 62
     3
100
AcDbLine
 10
197.0
 20
532.0
 30
0.0
 11
197.0
 21
519.0
 31
0.0
  0
LINE
  5
3A8
330
1F
100
AcDbEntity
  8
0
  6
Continuous
 62
     3
100
AcDbLine
 10
197.0
 20
519.0
 30
0.0
 11
196.7113248654034
 21
518.4999999999967
 31
0.0
  0
ARC
  5
3A9
330
1F
100
AcDbEntity
  8
1
  6
Continuous
 62
     3
100
AcDbCircle
 10
191.4069077533728
 20
532.0000000000011
 30
0.0
 40
5.015741977437815
100
AcDbArc
 50
332.2382768353553
 51
27.76172316464586
  0
ARC
  5
3AA
330
1F
100
AcDbEntity
  8
1
  6
Continuous
 62
     3
100
AcDbCircle
 10
102.5930922466272
 20
532.0000000000011
 30
0.0
 40
5.01574197743783
100
AcDbArc
 50
152.2382768353539
 51
207.7617231646449
  0
ARC
  5
3AB
330
1F
100
AcDbEntity
  8
1
  6
Continuous
 62
     3
100
AcDbCircle
 10
129.6794919243112
 20
355.0098049501972
 30
0.0
 40
8.912844780612332
100
AcDbArc
 50
75.37777861122674
 51
104.6222213887727
  0
ARC
  5
3AC
330
1F
100
AcDbEntity
  8
1
  6
Continuous
 62
     3
100
AcDbCircle
 10
147.0
 20
328.7042833102508
 30
0.0
 40
35.21836642055871
100
AcDbArc
 50
82.65900698336802
 51
97.34099301663198
  0
ARC
  5
3AD
330
1F
100
AcDbEntity
  8
1
  6
Continuous
 62
     3
100
AcDbCircle
 10
164.3205080756888
 20
355.0098049501964
 30
0.0
 40
8.912844780613103
100
AcDbArc
 50
75.37777861122802
 51
104.622221388772
  0
ARC
  5
3AE
330
1F
100
AcDbEntity
  8
1
  6
Continuous
 62
     3
100
AcDbCircle
 10
108.0132304326869
 20
342.1236610365158
 30
0.0
 40
6.564119873254648
100
AcDbArc
 50
335.7894361119784
 51
24.22386009666869
  0
ARC
  5
3AF
330
1F
100
AcDbEntity
  8
1
  6
Continuous
 62
     3
100
AcDbCircle
 10
104.1414701056929
 20
342.123661036516
 30
0.0
 40
6.564119873255757
100
AcDbArc
 50
155.7761399033381
 51
204.2105638880193
  0
ARC
  5
3B0
330
1F
100
AcDbEntity
  8
1
  6
Continuous
 62
     3
100
AcDbCircle
 10
122.980762113537
 20
329.9999999999982
 30
0.0
 40
25.40341184434766
100
AcDbArc
 50
167.7612442320599
 51
192.2387557679402
  0
ARC
  5
3B1
330
1F
100
AcDbEntity
  8
1
  6
Continuous
 62
     3
100
AcDbCircle
 10
104.1414701056918
 20
317.8763389634806
 30
0.0
 40
6.564119873254661
100
AcDbArc
 50
155.7894361119785
 51
204.2238600966699
  0
ARC
  5
3B2
330
1F
100
AcDbEntity
  8
1
  6
Continuous
 62
     3
100
AcDbCircle
 10
108.0099909571562
 20
317.875644347016
 30
0.0
 40
6.567359312033139
100
AcDbArc
 50
335.7954991627207
 51
24.20450083727882
  0
ARC
  5
3B3
330
1F
100
AcDbEntity
  8
1
  6
Continuous
 62
     3
100
AcDbCircle
 10
89.17393842484219
 20
329.9999999999982
 30
0.0
 40
25.40341184434716
100
AcDbArc
 50
347.7612442320595
 51
12.23875576794036
  0
ARC
  5
3B4
330
1F
100
AcDbEntity
  8
1
  6
Continuous
 62
     3
100
AcDbCircle
 10
204.8260615751579
 20
298.9999999999982
 30
0.0
 40
25.40341184434713
100
AcDbArc
 50
167.7612442320596
 51
192.2387557679405
  0
ARC
  5
3B5
330
1F
100
AcDbEntity
  8
1
  6
Continuous
 62
     3
100
AcDbCircle
 10
185.9900090428439
 20
286.875644347016
 30
0.0
 40
6.567359312033103
100
AcDbArc
 50
155.7954991627211
 51
204.2045008372793
  0
ARC
  5
3B6
330
1F
100
AcDbEntity
  8
1
  6
Continuous
 62
     3
100
AcDbCircle
 10
189.8585298943083
 20
286.8763389634806
 30
0.0
 40
6.564119873254664
100
AcDbArc
 50
335.7761399033299
 51
24.21056388802157
  0
ARC
  5
3B7
330
1F
100
AcDbEntity
  8
1
  6
Continuous
 62
     3
100
AcDbCircle
 10
171.0192378864631
 20
298.9999999999982
 30
0.0
 40
25.40341184434767
100
AcDbArc
 50
347.7612442320598
 51
12.23875576794011
  0
ARC
  5
3B8
330
1F
100
AcDbEntity
  8
1
  6
Continuous
 62
     3
100
AcDbCircle
 10
189.8585298943072
 20
311.123661036516
 30
0.0
 40
6.564119873255753
100
AcDbArc
 50
335.7894361119806
 51
24.2238600966619
  0
ARC
  5
3B9
330
1F
100
AcDbEntity
  8
1
  6
Continuous
 62
     3
100
AcDbCircle
 10
185.9867695673131
 20
311.1236610365158
 30
0.0
 40
6.564119873254594
100
AcDbArc
 50
155.7761399033313
 51
204.210563888022
  0
ARC
  5
3BA
330
1F
100
AcDbEntity
  8
3
  6
Continuous
 62
     3
100
AcDbCircle
 10
175.9999999999995
 20
427.4999999999993
 30
0.0
 40
2.0
100
AcDbArc
 50
270.0
 51
0.0
  0
ARC
  5
3BB
330
1F
100
AcDbEntity
  8
3
  6
Continuous
 62
     3
100
AcDbCircle
 10
171.9999999999995
 20
435.5447385184633
 30
0.0
 40
6.0
100
AcDbArc
 50
0.0
 51
73.10195467180343
  0
ARC
  5
3BC
330
1F
100
AcDbEntity
  8
3
  6
Continuous
 62
     3
100
AcDbCircle
 10
159.4999999999995
 20
442.9999999999993
 30
0.0
 40
2.500000000001608
100
AcDbArc
 50
73.10195467178525
 51
90.0
  0
ARC
  5
3BD
330
1F
100
AcDbEntity
  8
3
  6
PHANTOM
 62
     4
100
AcDbCircle
 10
175.9999999999995
 20
414.9999999999993
 30
0.0
 40
2.0
100
AcDbArc
 50
270.0
 51
0.0
  0
ARC
  5
3BE
330
1F
100
AcDbEntity
  8
3
  6
PHANTOM
 62
     4
100
AcDbCircle
 10
171.9999999999994
 20
423.0447385184633
 30
0.0
 40
6.000000000000085
100
AcDbArc
 50
0.0
 51
73.1019546718037
  0
ARC
  5
3BF
330
1F
100
AcDbEntity
  8
3
  6
PHANTOM
 62
     4
100
AcDbCircle
 10
159.4999999999995
 20
430.4999999999993
 30
0.0
 40
2.500000000001608
100
AcDbArc
 50
73.10195467178525
 51
90.0
  0
ARC
  5
3C0
330
1F
100
AcDbEntity
  8
3
  6
Continuous
 62
     3
100
AcDbCircle
 10
134.5
 20
442.9999999999993
 30
0.0
 40
2.5
100
AcDbArc
 50
90.0
 51
106.8980453281861
  0
ARC
  5
3C1
330
1F
100
AcDbEntity
  8
3
  6
Continuous
 62
     3
100
AcDbCircle
 10
122.0
 20
435.5447385184633
 30
0.0
 40
5.999999999999093
100
AcDbArc
 50
106.8980453281983
 51
180.0
  0
ARC
  5
3C2
330
1F
100
AcDbEntity
  8
3
  6
Continuous
 62
     3
100
AcDbCircle
 10
118.0
 20
427.4999999999993
 30
0.0
 40
2.0
100
AcDbArc
 50
180.0
 51
270.0
  0
ARC
  5
3C3
330
1F
100
AcDbEntity
  8
3
  6
PHANTOM
 62
     4
100
AcDbCircle
 10
122.0
 20
423.0447385184633
 30
0.0
 40
5.999999999999151
100
AcDbArc
 50
106.8980453282001
 51
180.0
  0
ARC
  5
3C4
330
1F
100
AcDbEntity
  8
3
  6
PHANTOM
 62
     4
100
AcDbCircle
 10
134.5
 20
430.4999999999993
 30
0.0
 40
2.5
100
AcDbArc
 50
90.0
 51
106.8980453281861
  0
ARC
  5
3C5
330
1F
100
AcDbEntity
  8
3
  6
CENTER
 62
     4
100
AcDbCircle
 10
118.0
 20
414.9999999999993
 30
0.0
 40
2.0
100
AcDbArc
 50
180.0
 51
270.0
  0
ARC
  5
3D2
330
1F
100
AcDbEntity
  8
1
  6
Continuous
 62
     3
100
AcDbCircle
 10
146.9999999999998
 20
334.2406489693246
 30
0.0
 40
49.13550914933842
100
AcDbArc
 50
79.16375810333916
 51
100.8362418966609
  0
ARC
  5
3D3
330
1F
100
AcDbEntity
  8
1
  6
Continuous
 62
     3
100
AcDbCircle
 10
133.1435937999493
 20
370.7637214099303
 30
0.0
 40
12.61243670873268
100
AcDbArc
 50
68.51792493819482
 51
111.4820750618052
  0
ARC
  5
3D4
330
1F
100
AcDbEntity
  8
1
  6
Continuous
 62
     3
100
AcDbCircle
 10
160.8564062000503
 20
370.7637214099304
 30
0.0
 40
12.61243670873267
100
AcDbArc
 50
68.51792493819424
 51
111.4820750618053
  0
ARC
  5
3D5
330
1F
100
AcDbEntity
  8
1
  6
Continuous
 62
     3
100
AcDbCircle
 10
164.0001370218561
 20
366.8876897245438
 30
0.0
 40
2.999999943599959
100
AcDbArc
 50
359.4517489303927
 51
60.54825106960196
  0
ARC
  5
3D6
330
1F
100
AcDbEntity
  8
1
  6
Continuous
 62
     3
100
AcDbCircle
 10
161.9999997179998
 20
389.0341331574001
 30
0.0
 40
4.999999906000408
100
AcDbArc
 50
224.9773185645735
 51
250.5073817270201
  0
ARC
  5
3D7
330
1F
100
AcDbEntity
  8
1
  6
Continuous
 62
     3
100
AcDbCircle
 10
154.9999998495996
 20
405.4999992291988
 30
0.0
 40
1.99999996240021
100
AcDbArc
 50
0.0
 51
90.0
  0
ARC
  5
3D8
330
1F
100
AcDbEntity
  8
1
  6
Continuous
 62
     3
100
AcDbCircle
 10
139.0000001504
 20
405.4999992291988
 30
0.0
 40
1.99999996240058
100
AcDbArc
 50
90.0
 51
180.0
  0
ARC
  5
3D9
330
1F
100
AcDbEntity
  8
1
  6
Continuous
 62
     3
100
AcDbCircle
 10
132.0000002819998
 20
389.0341331574001
 30
0.0
 40
4.999999905999498
100
AcDbArc
 50
289.4926182729837
 51
0.0
  0
ARC
  5
3DA
330
1F
100
AcDbEntity
  8
1
  6
Continuous
 62
     3
100
AcDbCircle
 10
129.9998629781435
 20
366.8876897245438
 30
0.0
 40
2.999999943600135
100
AcDbArc
 50
119.4517489303966
 51
180.5482510696073
  0
ARC
  5
3DB
330
1F
100
AcDbEntity
  8
1
  6
Continuous
 62
     3
100
AcDbCircle
 10
161.9999997179998
 20
389.0341331574001
 30
0.0
 40
4.999999905999999
100
AcDbArc
 50
180.0
 51
224.9773185645735
  0
ARC
  5
3DC
330
1F
100
AcDbEntity
  8
0
  6
Continuous
 62
     3
100
AcDbCircle
 10
170.5
 20
313.0566243270241
 30
0.0
 40
1.0
100
AcDbArc
 50
0.0
 51
59.99999999999783
  0
ARC
  5
3DD
330
1F
100
AcDbEntity
  8
0
  6
Continuous
 62
     3
100
AcDbCircle
 10
195.2679491924314
 20
312.9999999999982
 30
0.0
 40
1.000000000000156
100
AcDbArc
 50
29.99999999999485
 51
90.0
  0
ARC
  5
3DE
330
1F
100
AcDbEntity
  8
0
  6
Continuous
 62
     3
100
AcDbCircle
 10
123.5000000000003
 20
284.9433756729721
 30
0.0
 40
1.000000000000298
100
AcDbArc
 50
180.0
 51
239.9999999999814
  0
ARC
  5
3DF
330
1F
100
AcDbEntity
  8
0
  6
Continuous
 62
     3
100
AcDbCircle
 10
176.5358983848626
 20
285.9999999999982
 30
0.0
 40
1.999999999999918
100
AcDbArc
 50
30.00000000000136
 51
90.0
  0
ARC
  5
3E0
330
1F
100
AcDbEntity
  8
0
  6
Continuous
 62
     3
100
AcDbCircle
 10
170.5
 20
284.9433756729721
 30
0.0
 40
0.9999999999998851
100
AcDbArc
 50
300.0000000000038
 51
0.0
  0
ARC
  5
3E1
330
1F
100
AcDbEntity
  8
0
  6
Continuous
 62
     3
100
AcDbCircle
 10
174.5000510946818
 20
284.9999489056123
 30
0.0
 40
3.000051095390345
100
AcDbArc
 50
90.00148266626296
 51
179.9987545159593
  0
ARC
  5
3E2
330
1F
100
AcDbEntity
  8
0
  6
Continuous
 62
     3
100
AcDbCircle
 10
180.57735026919
 20
312.9999999999982
 30
0.0
 40
1.0
100
AcDbArc
 50
90.0
 51
150.0000000000019
  0
ARC
  5
3E3
330
1F
100
AcDbEntity
  8
0
  6
Continuous
 62
     3
100
AcDbCircle
 10
123.5
 20
313.0566243270241
 30
0.0
 40
0.9999999999999344
100
AcDbArc
 50
120.0000000000022
 51
180.0
  0
ARC
  5
3E4
330
1F
100
AcDbEntity
  8
0
  6
Continuous
 62
     3
100
AcDbCircle
 10
176.5358983848626
 20
311.9999999999982
 30
0.0
 40
2.0
100
AcDbArc
 50
270.0
 51
329.9999999999987
  0
ARC
  5
3E5
330
1F
100
AcDbEntity
  8
0
  6
Continuous
 62
     3
100
AcDbCircle
 10
174.5000173477586
 20
313.0000131428393
 30
0.0
 40
3.00001734780182
100
AcDbArc
 50
180.0003087094716
 51
269.9995518298613
  0
ARC
  5
3E6
330
1F
100
AcDbEntity
  8
0
  6
Continuous
 62
     3
100
AcDbCircle
 10
180.57735026919
 20
284.9999999999982
 30
0.0
 40
1.000000000000058
100
AcDbArc
 50
209.9999999999981
 51
270.0
  0
ARC
  5
3E7
330
1F
100
AcDbEntity
  8
0
  6
Continuous
 62
     3
100
AcDbCircle
 10
195.2679491924314
 20
284.9999999999982
 30
0.0
 40
1.0
100
AcDbArc
 50
270.0
 51
330.0000000000052
  0
ARC
  5
3E8
330
1F
100
AcDbEntity
  8
0
  6
Continuous
 62
     3
100
AcDbCircle
 10
98.73205080756864
 20
315.9999999999982
 30
0.0
 40
1.000000000000082
100
AcDbArc
 50
209.9999999999972
 51
270.0
  0
ARC
  5
3E9
330
1F
100
AcDbEntity
  8
0
  6
Continuous
 62
     3
100
AcDbCircle
 10
113.4226497308101
 20
315.9999999999982
 30
0.0
 40
1.0
100
AcDbArc
 50
270.0
 51
330.0000000000019
  0
ARC
  5
3EA
330
1F
100
AcDbEntity
  8
0
  6
Continuous
 62
     3
100
AcDbCircle
 10
119.4999826522414
 20
344.0000131428393
 30
0.0
 40
3.000017347801961
100
AcDbArc
 50
270.0004481701409
 51
359.9996912905284
  0
ARC
  5
3EB
330
1F
100
AcDbEntity
  8
0
  6
Continuous
 62
     3
100
AcDbCircle
 10
117.4641016151375
 20
342.9999999999982
 30
0.0
 40
1.99999999999993
100
AcDbArc
 50
210.0000000000011
 51
270.0
  0
ARC
  5
3EC
330
1F
100
AcDbEntity
  8
0
  6
Continuous
 62
     3
100
AcDbCircle
 10
170.5
 20
344.0566243270241
 30
0.0
 40
1.0
100
AcDbArc
 50
0.0
 51
59.99999999999783
  0
ARC
  5
3ED
330
1F
100
AcDbEntity
  8
0
  6
Continuous
 62
     3
100
AcDbCircle
 10
113.4226497308101
 20
343.9999999999982
 30
0.0
 40
1.000000000000058
100
AcDbArc
 50
29.9999999999981
 51
90.0
  0
ARC
  5
3EE
330
1F
100
AcDbEntity
  8
0
  6
Continuous
 62
     3
100
AcDbCircle
 10
119.4999489053183
 20
315.9999489056123
 30
0.0
 40
3.000051095390305
100
AcDbArc
 50
0.0012454840407
 51
89.99851733373896
  0
ARC
  5
3EF
330
1F
100
AcDbEntity
  8
0
  6
Continuous
 62
     3
100
AcDbCircle
 10
123.5
 20
315.9433756729721
 30
0.0
 40
1.0
100
AcDbArc
 50
180.0
 51
239.9999999999962
  0
ARC
  5
3F0
330
1F
100
AcDbEntity
  8
0
  6
Continuous
 62
     3
100
AcDbCircle
 10
117.4641016151375
 20
316.9999999999982
 30
0.0
 40
2.0
100
AcDbArc
 50
90.0
 51
149.9999999999989
  0
ARC
  5
3F1
330
1F
100
AcDbEntity
  8
0
  6
Continuous
 62
     3
100
AcDbCircle
 10
170.5
 20
315.9433756729721
 30
0.0
 40
0.9999999999998851
100
AcDbArc
 50
300.0000000000038
 51
0.0
  0
ARC
  5
3F2
330
1F
100
AcDbEntity
  8
0
  6
Continuous
 62
     3
100
AcDbCircle
 10
98.73205080756864
 20
343.9999999999982
 30
0.0
 40
1.0
100
AcDbArc
 50
90.0
 51
150.0000000000027
  0
ARC
  5
3F3
330
1F
100
AcDbEntity
  8
0
  6
Continuous
 62
     3
100
AcDbCircle
 10
123.5
 20
344.0566243270241
 30
0.0
 40
0.9999999999999344
100
AcDbArc
 50
120.0000000000022
 51
180.0
  0
ARC
  5
3F4
330
1F
100
AcDbEntity
  8
0
  6
Continuous
 62
     3
100
AcDbCircle
 10
165.9999989018283
 20
281.448531059363
 30
0.0
 40
1.500001098173265
100
AcDbArc
 50
304.8501053853794
 51
0.00008032280672
  0
ARC
  5
3F5
330
1F
100
AcDbEntity
  8
0
  6
Continuous
 62
     3
100
AcDbCircle
 10
164.5000004332766
 20
276.8048063833491
 30
0.0
 40
2.500000433276607
100
AcDbArc
 50
180.0000051113734
 51
242.181856258158
  0
ARC
  5
3F6
330
1F
100
AcDbEntity
  8
0
  6
Continuous
 62
     3
100
AcDbCircle
 10
129.5
 20
277.3937138307776
 30
0.0
 40
2.500000000000071
100
AcDbArc
 50
1.47354788977417
 51
87.9999999999991
  0
ARC
  5
3F7
330
1F
100
AcDbEntity
  8
0
  6
Continuous
 62
     3
100
AcDbCircle
 10
166.0
 20
281.4485331622107
 30
0.0
 40
1.500000000000062
100
AcDbArc
 50
272.000000000009
 51
0.0
  0
ARC
  5
3F8
330
1F
100
AcDbEntity
  8
0
  6
Continuous
 62
     3
100
AcDbCircle
 10
128.0
 20
281.4485331622107
 30
0.0
 40
1.5
100
AcDbArc
 50
180.0
 51
268.0000000000018
  0
ARC
  5
3F9
330
1F
100
AcDbEntity
  8
0
  6
Continuous
 62
     3
100
AcDbCircle
 10
306.0
 20
281.448483194427
 30
0.0
 40
1.499999999999998
100
AcDbArc
 50
272.0000000000015
 51
0.0
  0
ARC
  5
3FA
330
1F
100
AcDbEntity
  8
0
  6
Continuous
 62
     3
100
AcDbCircle
 10
268.0
 20
281.448483194427
 30
0.0
 40
1.5
100
AcDbArc
 50
180.0
 51
268.0000000000029
  0
ARC
  5
3FB
330
1F
100
AcDbEntity
  8
1
  6
Continuous
 62
     3
100
AcDbCircle
 10
304.0001370218561
 20
366.887733954511
 30
0.0
 40
2.999999943599901
100
AcDbArc
 50
359.4517489303959
 51
60.54825106960491
  0
ARC
  5
3FC
330
1F
100
AcDbEntity
  8
1
  6
Continuous
 62
     3
100
AcDbCircle
 10
301.9999997179998
 20
389.0341773873674
 30
0.0
 40
4.999999906000489
100
AcDbArc
 50
224.9773185645716
 51
250.5073817270189
  0
ARC
  5
3FD
330
1F
100
AcDbEntity
  8
1
  6
Continuous
 62
     3
100
AcDbCircle
 10
294.9999998495996
 20
405.5000434591661
 30
0.0
 40
1.999999962400125
100
AcDbArc
 50
0.0
 51
90.0
  0
ARC
  5
3FE
330
1F
100
AcDbEntity
  8
1
  6
Continuous
 62
     3
100
AcDbCircle
 10
279.0000001503999
 20
405.5000434591661
 30
0.0
 40
1.999999962400636
100
AcDbArc
 50
90.0
 51
180.0
  0
ARC
  5
3FF
330
1F
100
AcDbEntity
  8
1
  6
Continuous
 62
     3
100
AcDbCircle
 10
272.0000002819996
 20
389.0341773873674
 30
0.0
 40
4.99999990599968
100
AcDbArc
 50
289.4926182729858
 51
0.0
  0
ARC
  5
400
330
1F
100
AcDbEntity
  8
1
  6
Continuous
 62
     3
100
AcDbCircle
 10
269.9998629781435
 20
366.887733954511
 30
0.0
 40
2.999999943600304
100
AcDbArc
 50
119.4517489303979
 51
180.5482510696041
  0
ARC
  5
401
330
1F
100
AcDbEntity
  8
1
  6
Continuous
 62
     3
100
AcDbCircle
 10
301.9999997179998
 20
389.0341773873674
 30
0.0
 40
4.999999906000085
100
AcDbArc
 50
180.0
 51
224.9773185645716
  0
ARC
  5
402
330
1F
100
AcDbEntity
  8
1
  6
Continuous
 62
     3
100
AcDbCircle
 10
278.9999751853622
 20
346.4150493062269
 30
0.0
 40
36.96115304240341
100
AcDbArc
 50
77.49977404844614
 51
102.5002259515537
  0
ARC
  5
403
330
1F
100
AcDbEntity
  8
1
  6
Continuous
 62
     3
100
AcDbCircle
 10
294.999987442281
 20
346.4149373910533
 30
0.0
 40
36.96126495757703
100
AcDbArc
 50
77.4997930486285
 51
102.5002069513712
  0
ARC
  5
404
330
1F
100
AcDbEntity
  8
3
  6
Continuous
 62
     3
100
AcDbCircle
 10
315.9999873064534
 20
427.5000442299667
 30
0.0
 40
2.0
100
AcDbArc
 50
270.0
 51
0.0
  0
ARC
  5
405
330
1F
100
AcDbEntity
  8
3
  6
Continuous
 62
     3
100
AcDbCircle
 10
311.9999873064534
 20
435.5447827484306
 30
0.0
 40
6.0
100
AcDbArc
 50
0.0
 51
73.10195467180473
  0
ARC
  5
406
330
1F
100
AcDbEntity
  8
3
  6
Continuous
 62
     3
100
AcDbCircle
 10
299.4999873064534
 20
443.0000442299667
 30
0.0
 40
2.500000000001513
100
AcDbArc
 50
73.101954671788
 51
90.0
  0
ARC
  5
407
330
1F
100
AcDbEntity
  8
3
  6
Continuous
 62
     3
100
AcDbCircle
 10
274.4999873064539
 20
443.0000442299667
 30
0.0
 40
2.5
100
AcDbArc
 50
90.0
 51
106.8980453281833
  0
ARC
  5
408
330
1F
100
AcDbEntity
  8
3
  6
Continuous
 62
     3
100
AcDbCircle
 10
261.9999873064539
 20
435.5447827484306
 30
0.0
 40
5.999999999999081
100
AcDbArc
 50
106.8980453281979
 51
180.0
  0
ARC
  5
409
330
1F
100
AcDbEntity
  8
3
  6
Continuous
 62
     3
100
AcDbCircle
 10
257.9999873064539
 20
427.5000442299667
 30
0.0
 40
1.999999999999972
100
AcDbArc
 50
180.0
 51
270.0
  0
ARC
  5
416
330
1F
100
AcDbEntity
  8
1
  6
Continuous
 62
     3
100
AcDbCircle
 10
163.9705550519895
 20
515.029437251523
 30
0.0
 40
7.000000000000112
100
AcDbArc
 50
254.7444772579381
 51
15.25552274205883
  0
ARC
  5
417
330
1F
100
AcDbEntity
  8
1
  6
Continuous
 62
     3
100
AcDbCircle
 10
178.4419845383827
 20
518.976300388287
 30
0.0
 40
8.000000000000185
100
AcDbArc
 50
119.7444772579377
 51
195.2555227420621
  0
ARC
  5
418
330
1F
100
AcDbEntity
  8
1
  6
Continuous
 62
     3
100
AcDbCircle
 10
170.9999923035123
 20
532.0
 30
0.0
 40
7.000000000000001
100
AcDbArc
 50
299.7444772579387
 51
60.25552274206067
  0
ARC
  5
419
330
1F
100
AcDbEntity
  8
1
  6
Continuous
 62
     3
100
AcDbCircle
 10
178.4419845383827
 20
545.023699611713
 30
0.0
 40
8.000000000000016
100
AcDbArc
 50
164.7444772579384
 51
240.2555227420628
  0
ARC
  5
41A
330
1F
100
AcDbEntity
  8
1
  6
Continuous
 62
     3
100
AcDbCircle
 10
163.9705550519895
 20
548.970562748477
 30
0.0
 40
6.999999999999912
100
AcDbArc
 50
344.7444772579406
 51
105.2555227420593
  0
ARC
  5
41B
330
1F
100
AcDbEntity
  8
1
  6
Continuous
 62
     3
100
AcDbCircle
 10
160.0236919152252
 20
563.44199223487
 30
0.0
 40
7.999999999999963
100
AcDbArc
 50
209.744477257937
 51
285.255522742064
  0
ARC
  5
41C
330
1F
100
AcDbEntity
  8
1
  6
Continuous
 62
     3
100
AcDbCircle
 10
146.9999923035123
 20
556.0
 30
0.0
 40
6.999999999999913
100
AcDbArc
 50
29.744477257937
 51
150.255522742063
  0
ARC
  5
41D
330
1F
100
AcDbEntity
  8
1
  6
Continuous
 62
     3
100
AcDbCircle
 10
133.9762926917995
 20
563.44199223487
 30
0.0
 40
7.999999999999585
100
AcDbArc
 50
254.7444772579373
 51
330.2555227420626
  0
ARC
  5
41E
330
1F
100
AcDbEntity
  8
1
  6
Continuous
 62
     3
100
AcDbCircle
 10
130.0294295550352
 20
548.970562748477
 30
0.0
 40
7.000000000000144
100
AcDbArc
 50
74.74447725793891
 51
195.2555227420591
  0
ARC
  5
41F
330
1F
100
AcDbEntity
  8
1
  6
Continuous
 62
     3
100
AcDbCircle
 10
115.558000068642
 20
545.023699611713
 30
0.0
 40
8.000000000000178
100
AcDbArc
 50
299.7444772579376
 51
15.255522742062
  0
ARC
  5
420
330
1F
100
AcDbEntity
  8
1
  6
Continuous
 62
     3
100
AcDbCircle
 10
122.9999923035123
 20
532.0
 30
0.0
 40
6.999999999999952
100
AcDbArc
 50
119.744477257938
 51
240.2555227420613
  0
ARC
  5
421
330
1F
100
AcDbEntity
  8
1
  6
Continuous
 62
     3
100
AcDbCircle
 10
115.558000068642
 20
518.976300388287
 30
0.0
 40
8.000000000000016
100
AcDbArc
 50
344.7444772579383
 51
60.25552274206296
  0
ARC
  5
422
330
1F
100
AcDbEntity
  8
1
  6
Continuous
 62
     3
100
AcDbCircle
 10
130.0294295550352
 20
515.029437251523
 30
0.0
 40
6.999999999999885
100
AcDbArc
 50
164.7444772579405
 51
285.2555227420597
  0
ARC
  5
423
330
1F
100
AcDbEntity
  8
1
  6
Continuous
 62
     3
100
AcDbCircle
 10
133.9762926917995
 20
500.55800776513
 30
0.0
 40
7.999999999999864
100
AcDbArc
 50
29.74447725793742
 51
105.255522742064
  0
ARC
  5
424
330
1F
100
AcDbEntity
  8
1
  6
Continuous
 62
     3
100
AcDbCircle
 10
146.9999923035123
 20
508.0
 30
0.0
 40
6.999999999999913
100
AcDbArc
 50
209.744477257937
 51
330.2555227420634
  0
ARC
  5
425
330
1F
100
AcDbEntity
  8
1
  6
Continuous
 62
     3
100
AcDbCircle
 10
160.0236919152252
 20
500.55800776513
 30
0.0
 40
7.99999999999961
100
AcDbArc
 50
74.74447725793821
 51
150.2555227420627
  0
ARC
  5
426
330
1F
100
AcDbEntity
  8
1
  6
Continuous
 62
     3
100
AcDbCircle
 10
115.558000068642
 20
518.976300388287
 30
0.0
 40
8.000000000000016
100
AcDbArc
 50
344.7444772579383
 51
60.25552274206296
  0
ARC
  5
427
330
1F
100
AcDbEntity
  8
1
  6
Continuous
 62
     3
100
AcDbCircle
 10
178.4419845383827
 20
518.976300388287
 30
0.0
 40
8.000000000000185
100
AcDbArc
 50
119.7444772579377
 51
195.2555227420621
  0
ARC
  5
428
330
1F
100
AcDbEntity
  8
0
  6
Continuous
 62
     3
100
AcDbCircle
 10
263.5000000000003
 20
284.9433756729721
 30
0.0
 40
1.000000000000284
100
AcDbArc
 50
180.0
 51
239.9999999999821
  0
ARC
  5
429
330
1F
100
AcDbEntity
  8
0
  6
Continuous
 62
     3
100
AcDbCircle
 10
263.5
 20
313.0566243270241
 30
0.0
 40
0.9999999999999344
100
AcDbArc
 50
120.0000000000022
 51
180.0
  0
ARC
  5
42A
330
1F
100
AcDbEntity
  8
0
  6
Continuous
 62
     3
100
AcDbCircle
 10
310.5
 20
315.9433756729721
 30
0.0
 40
0.9999999999998851
100
AcDbArc
 50
300.0000000000038
 51
0.0
  0
ARC
  5
42B
330
1F
100
AcDbEntity
  8
0
  6
Continuous
 62
     3
100
AcDbCircle
 10
310.5
 20
344.0566243270241
 30
0.0
 40
1.0
100
AcDbArc
 50
0.0
 51
59.99999999999783
  0
ARC
  5
42C
330
1F
100
AcDbEntity
  8
1
  6
Continuous
 62
     3
100
AcDbCircle
 10
287.0
 20
298.9999999999982
 30
0.0
 40
15.00000000000098
100
AcDbArc
 50
21.03946978132701
 51
38.96053021868272
  0
ARC
  5
42D
330
1F
100
AcDbEntity
  8
1
  6
Continuous
 62
     3
100
AcDbCircle
 10
287.0
 20
298.9999999999982
 30
0.0
 40
15.00000000000096
100
AcDbArc
 50
81.0394697813267
 51
98.9605302186828
  0
ARC
  5
42E
330
1F
100
AcDbEntity
  8
1
  6
Continuous
 62
     3
100
AcDbCircle
 10
287.0
 20
298.9999999999982
 30
0.0
 40
15.00000000000097
100
AcDbArc
 50
141.0394697813266
 51
158.9605302186823
  0
ARC
  5
42F
330
1F
100
AcDbEntity
  8
1
  6
Continuous
 62
     3
100
AcDbCircle
 10
287.0
 20
298.9999999999982
 30
0.0
 40
15.00000000000092
100
AcDbArc
 50
201.0394697813264
 51
218.9605302186826
  0
ARC
  5
430
330
1F
100
AcDbEntity
  8
1
  6
Continuous
 62
     3
100
AcDbCircle
 10
287.0
 20
298.9999999999982
 30
0.0
 40
15.00000000000092
100
AcDbArc
 50
261.0394697813262
 51
278.9605302186824
  0
ARC
  5
431
330
1F
100
AcDbEntity
  8
1
  6
Continuous
 62
     3
100
AcDbCircle
 10
287.0
 20
298.9999999999982
 30
0.0
 40
15.00000000000096
100
AcDbArc
 50
321.039469781326
 51
338.9605302186829
  0
ARC
  5
432
330
1F
100
AcDbEntity
  8
0
  6
Continuous
 62
     3
100
AcDbCircle
 10
263.5
 20
344.0566243270241
 30
0.0
 40
0.9999999999999344
100
AcDbArc
 50
120.0000000000022
 51
180.0
  0
ARC
  5
433
330
1F
100
AcDbEntity
  8
0
  6
Continuous
 62
     3
100
AcDbCircle
 10
263.5
 20
315.9433756729721
 30
0.0
 40
1.0
100
AcDbArc
 50
180.0
 51
239.9999999999962
  0
ARC
  5
434
330
1F
100
AcDbEntity
  8
0
  6
Continuous
 62
     3
100
AcDbCircle
 10
310.5
 20
313.0566243270241
 30
0.0
 40
1.0
100
AcDbArc
 50
0.0
 51
59.99999999999783
  0
ARC
  5
435
330
1F
100
AcDbEntity
  8
0
  6
Continuous
 62
     3
100
AcDbCircle
 10
310.4999999999997
 20
284.9433756729721
 30
0.0
 40
1.000000000000027
100
AcDbArc
 50
300.0000000000179
 51
0.0
  0
ARC
  5
436
330
1F
100
AcDbEntity
  8
1
  6
Continuous
 62
     3
100
AcDbCircle
 10
297.0
 20
337.4727905235661
 30
0.0
 40
26.44985920724336
100
AcDbArc
 50
81.52721040188045
 51
98.47278959811956
  0
ARC
  5
437
330
1F
100
AcDbEntity
  8
1
  6
Continuous
 62
     3
100
AcDbCircle
 10
277.0
 20
337.4727905235664
 30
0.0
 40
26.44985920724308
100
AcDbArc
 50
81.52721040188037
 51
98.47278959811966
  0
ARC
  5
438
330
1F
100
AcDbEntity
  8
1
  6
Continuous
 62
     3
100
AcDbCircle
 10
113.1069084238878
 20
519.1681552367268
 30
0.0
 40
1.470441845301674
100
AcDbArc
 50
307.399054619509
 51
52.60094538048563
  0
ARC
  5
439
330
1F
100
AcDbEntity
  8
1
  6
Continuous
 62
     3
100
AcDbCircle
 10
99.04779211448442
 20
519.1681552367297
 30
0.0
 40
1.470441845295322
100
AcDbArc
 50
127.3990546193895
 51
232.6009453810101
  0
ARC
  5
43A
330
1F
100
AcDbEntity
  8
1
  6
Continuous
 62
     3
100
AcDbCircle
 10
99.04779211448721
 20
544.8318447632691
 30
0.0
 40
1.470441845297805
100
AcDbArc
 50
127.3990546190492
 51
232.6009453805512
  0
ARC
  5
43B
330
1F
100
AcDbEntity
  8
1
  6
Continuous
 62
     3
100
AcDbCircle
 10
113.106908423885
 20
544.8318447632722
 30
0.0
 40
1.470441845304187
100
AcDbArc
 50
307.3990546195714
 51
52.60094538042857
  0
ARC
  5
43C
330
1F
100
AcDbEntity
  8
1
  6
Continuous
 62
     3
100
AcDbCircle
 10
109.5616082917532
 20
532.0000000000011
 30
0.0
 40
5.015741977436117
100
AcDbArc
 50
332.2382768353451
 51
27.76172316465608
  0
ARC
  5
43D
330
1F
100
AcDbEntity
  8
0
  6
Continuous
 62
     3
100
AcDbCircle
 10
118.4641016151377
 20
519.0
 30
0.0
 40
2.0
100
AcDbArc
 50
90.0
 51
150.0000000000003
  0
ARC
  5
43E
330
1F
100
AcDbEntity
  8
0
  6
Continuous
 62
     3
100
AcDbCircle
 10
118.4641016151377
 20
545.0
 30
0.0
 40
2.000000000000016
100
AcDbArc
 50
209.9999999999997
 51
270.0
  0
ARC
  5
43F
330
1F
100
AcDbEntity
  8
0
  6
Continuous
 62
     3
100
AcDbCircle
 10
115.0000000597097
 20
518.9999998965798
 30
0.0
 40
0.9999998965797658
100
AcDbArc
 50
270.0
 51
330.0000034208949
  0
ARC
  5
440
330
1F
100
AcDbEntity
  8
0
  6
Continuous
 62
     3
100
AcDbCircle
 10
115.0000000597097
 20
545.0000001034201
 30
0.0
 40
0.9999998965797334
100
AcDbArc
 50
29.99999657910509
 51
90.0
  0
ARC
  5
441
330
1F
100
AcDbEntity
  8
0
  6
Continuous
 62
     3
100
AcDbCircle
 10
98.15470047866961
 20
518.9999998965798
 30
0.0
 40
0.9999998965799303
100
AcDbArc
 50
209.9999965790986
 51
270.0000034215566
  0
ARC
  5
442
330
1F
100
AcDbEntity
  8
0
  6
Continuous
 62
     3
100
AcDbCircle
 10
98.15470047866961
 20
545.00000010342
 30
0.0
 40
0.999999896579995
100
AcDbArc
 50
89.99999657844339
 51
150.0000034208958
  0
ARC
  5
443
330
1F
100
AcDbEntity
  8
0
  6
Continuous
 62
     3
100
AcDbCircle
 10
195.8452995213304
 20
545.00000010342
 30
0.0
 40
0.9999998965799871
100
AcDbArc
 50
29.99999657910422
 51
90.00000342155498
  0
ARC
  5
444
330
1F
100
AcDbEntity
  8
0
  6
Continuous
 62
     3
100
AcDbCircle
 10
195.8452995213304
 20
518.9999998965798
 30
0.0
 40
0.9999998965797676
100
AcDbArc
 50
269.9999965784451
 51
330.0000034209014
  0
ARC
  5
445
330
1F
100
AcDbEntity
  8
0
  6
Continuous
 62
     3
100
AcDbCircle
 10
178.9999999402903
 20
545.0000001034201
 30
0.0
 40
0.9999998965798795
100
AcDbArc
 50
90.0
 51
150.0000034208949
  0
ARC
  5
446
330
1F
100
AcDbEntity
  8
0
  6
Continuous
 62
     3
100
AcDbCircle
 10
178.9999999402903
 20
518.9999998965798
 30
0.0
 40
0.9999998965797334
100
AcDbArc
 50
209.9999965791051
 51
270.0
  0
ARC
  5
447
330
1F
100
AcDbEntity
  8
0
  6
Continuous
 62
     3
100
AcDbCircle
 10
175.5358983848623
 20
545.0
 30
0.0
 40
2.0
100
AcDbArc
 50
270.0
 51
330.0000000000003
  0
ARC
  5
448
330
1F
100
AcDbEntity
  8
0
  6
Continuous
 62
     3
100
AcDbCircle
 10
175.5358983848623
 20
519.0
 30
0.0
 40
2.000000000000016
100
AcDbArc
 50
29.99999999999973
 51
90.0
  0
ARC
  5
449
330
1F
100
AcDbEntity
  8
1
  6
Continuous
 62
     3
100
AcDbCircle
 10
184.4383917082468
 20
532.0000000000011
 30
0.0
 40
5.015741977436157
100
AcDbArc
 50
152.2382768353438
 51
207.761723164655
  0
ARC
  5
44A
330
1F
100
AcDbEntity
  8
1
  6
Continuous
 62
     3
100
AcDbCircle
 10
180.893091576115
 20
544.8318447632722
 30
0.0
 40
1.470441845304187
100
AcDbArc
 50
127.3990546195714
 51
232.6009453804286
  0
ARC
  5
44B
330
1F
100
AcDbEntity
  8
1
  6
Continuous
 62
     3
100
AcDbCircle
 10
194.9522078855128
 20
544.8318447632691
 30
0.0
 40
1.470441845297934
100
AcDbArc
 50
307.3990546194497
 51
52.6009453809499
  0
ARC
  5
44C
330
1F
100
AcDbEntity
  8
1
  6
Continuous
 62
     3
100
AcDbCircle
 10
194.9522078855156
 20
519.1681552367297
 30
0.0
 40
1.47044184529521
100
AcDbArc
 50
307.3990546189899
 51
52.60094538061055
  0
ARC
  5
44D
330
1F
100
AcDbEntity
  8
1
  6
Continuous
 62
     3
100
AcDbCircle
 10
180.8930915761122
 20
519.1681552367268
 30
0.0
 40
1.470441845301485
100
AcDbArc
 50
127.3990546195139
 51
232.6009453804915
  0
ARC
  5
44E
330
1F
100
AcDbEntity
  8
0
  6
Continuous
 62
     3
100
AcDbCircle
 10
130.0
 20
216.8713653997306
 30
0.0
 40
2.5
100
AcDbArc
 50
323.130102354156
 51
0.0
  0
ARC
  5
44F
330
1F
100
AcDbEntity
  8
0
  6
Continuous
 62
     3
100
AcDbCircle
 10
164.0
 20
216.8713653997306
 30
0.0
 40
2.5
100
AcDbArc
 50
180.0
 51
216.869897645844
  0
ARC
  5
450
330
1F
100
AcDbEntity
  8
0
  6
Continuous
 62
     3
100
AcDbCircle
 10
160.9999999384532
 20
270.1715565042485
 30
0.0
 40
5.000000061546828
100
AcDbArc
 50
359.9999957152714
 51
62.18185952464631
  0
ARC
  5
451
330
1F
100
AcDbEntity
  8
0
  6
Continuous
 62
     3
100
AcDbCircle
 10
164.5000004332766
 20
276.8048063833491
 30
0.0
 40
2.500000433276607
100
AcDbArc
 50
180.0000051113734
 51
242.181856258158
  0
ARC
  5
452
330
1F
100
AcDbEntity
  8
0
  6
Continuous
 62
     3
100
AcDbCircle
 10
130.0000003338256
 20
220.4538354707115
 30
0.0
 40
2.499999666174413
100
AcDbArc
 50
359.9999949788447
 51
66.44246146562809
  0
ARC
  5
453
330
1F
100
AcDbEntity
  8
0
  6
Continuous
 62
     3
100
AcDbCircle
 10
304.0
 20
216.8713653997306
 30
0.0
 40
2.5
100
AcDbArc
 50
180.0
 51
216.869897645844
  0
ARC
  5
454
330
1F
100
AcDbEntity
  8
0
  6
Continuous
 62
     3
100
AcDbCircle
 10
270.0
 20
216.8713653997306
 30
0.0
 40
2.5
100
AcDbArc
 50
323.130102354156
 51
0.0
  0
ARC
  5
455
330
1F
100
AcDbEntity
  8
1
  6
Continuous
 62
     3
100
AcDbCircle
 10
164.34620955551
 20
207.1723718947898
 30
0.0
 40
9.419630651960466
100
AcDbArc
 50
247.4254728893854
 51
292.5745271106163
  0
ARC
  5
456
330
1F
100
AcDbEntity
  8
1
  6
Continuous
 62
     3
100
AcDbCircle
 10
147.0000000000005
 20
233.8371674530225
 30
0.0
 40
36.08439114597176
100
AcDbArc
 50
258.5216590454678
 51
281.4783409545311
  0
ARC
  5
457
330
1F
100
AcDbEntity
  8
1
  6
Continuous
 62
     3
100
AcDbCircle
 10
129.679492249937
 20
207.0445070271376
 30
0.0
 40
9.291730720086704
100
AcDbArc
 50
247.2691390733776
 51
292.7308609266247
  0
ARC
  5
458
330
1F
100
AcDbEntity
  8
1
  6
Continuous
 62
     3
100
AcDbCircle
 10
164.34620955551
 20
202.7917292691517
 30
0.0
 40
9.419630651960816
100
AcDbArc
 50
67.42547288938034
 51
112.5745271106146
  0
ARC
  5
459
330
1F
100
AcDbEntity
  8
1
  6
Continuous
 62
     3
100
AcDbCircle
 10
147.0000000000005
 20
176.1269337109189
 30
0.0
 40
36.08439114597182
100
AcDbArc
 50
78.52165904546801
 51
101.4783409545322
  0
ARC
  5
45A
330
1F
100
AcDbEntity
  8
1
  6
Continuous
 62
     3
100
AcDbCircle
 10
129.679492249937
 20
202.9195941368038
 30
0.0
 40
9.291730720086937
100
AcDbArc
 50
67.26913907337553
 51
112.7308609266222
  0
ARC
  5
45B
330
1F
100
AcDbEntity
  8
0
  6
Continuous
 62
     3
100
AcDbCircle
 10
269.499999566723
 20
276.8048063833491
 30
0.0
 40
2.500000433276843
100
AcDbArc
 50
297.8181437418559
 51
359.9999948886278
  0
ARC
  5
45C
330
1F
100
AcDbEntity
  8
0
  6
Continuous
 62
     3
100
AcDbCircle
 10
269.5
 20
277.3937138307778
 30
0.0
 40
2.5
100
AcDbArc
 50
0.0
 51
88.00000000000544
  0
ARC
  5
45D
330
1F
100
AcDbEntity
  8
0
  6
Continuous
 62
     3
100
AcDbCircle
 10
273.000000061547
 20
270.1715565042486
 30
0.0
 40
5.00000006154682
100
AcDbArc
 50
117.8181404753534
 51
180.0000042847286
  0
ARC
  5
45E
330
1F
100
AcDbEntity
  8
0
  6
Continuous
 62
     3
100
AcDbCircle
 10
304.000000326388
 20
220.4545796476787
 30
0.0
 40
2.500000326387651
100
AcDbArc
 50
113.5781766131823
 51
180.0000018424858
  0
ARC
  5
45F
330
1F
100
AcDbEntity
  8
0
  6
Continuous
 62
     3
100
AcDbCircle
 10
304.499999185621
 20
276.8048057279299
 30
0.0
 40
2.499999185621028
100
AcDbArc
 50
180.0000095696103
 51
242.1818676350002
  0
ARC
  5
460
330
1F
100
AcDbEntity
  8
0
  6
Continuous
 62
     3
100
AcDbCircle
 10
304.5
 20
277.3937138307778
 30
0.0
 40
2.499999999999949
100
AcDbArc
 50
91.99999999999457
 51
180.0
  0
ARC
  5
461
330
1F
100
AcDbEntity
  8
0
  6
Continuous
 62
     3
100
AcDbCircle
 10
300.9999999084
 20
270.1715565830717
 30
0.0
 40
5.000000091600008
100
AcDbArc
 50
359.9999946596014
 51
62.18186225001516
  0
ARC
  5
462
330
1F
100
AcDbEntity
  8
0
  6
Continuous
 62
     3
100
AcDbCircle
 10
301.000000106312
 20
227.328443334186
 30
0.0
 40
4.99999989368833
100
AcDbArc
 50
293.5781810616734
 51
0.00000628855906
  0
ARC
  5
463
330
1F
100
AcDbEntity
  8
0
  6
Continuous
 62
     3
100
AcDbCircle
 10
269.999999673612
 20
220.4545796476787
 30
0.0
 40
2.500000326387978
100
AcDbArc
 50
359.9999981575143
 51
66.42182338682062
  0
ARC
  5
464
330
1F
100
AcDbEntity
  8
0
  6
Continuous
 62
     3
100
AcDbCircle
 10
272.999999893688
 20
227.328443334186
 30
0.0
 40
4.999999893688058
100
AcDbArc
 50
179.9999937114409
 51
246.4218189383251
  0
ARC
  5
465
330
1F
100
AcDbEntity
  8
0
  6
Continuous
 62
     3
100
AcDbCircle
 10
269.999999673612
 20
220.4545796476787
 30
0.0
 40
2.500000326387978
100
AcDbArc
 50
359.9999981575143
 51
66.42182338682062
  0
ARC
  5
466
330
1F
100
AcDbEntity
  8
0
  6
Continuous
 62
     3
100
AcDbCircle
 10
272.999987306456
 20
256.4907251434783
 30
0.0
 40
3.0
100
AcDbArc
 50
179.999999999607
 51
180.0220717040405
  0
ARC
  5
467
330
1F
100
AcDbEntity
  8
1
  6
Continuous
 62
     3
100
AcDbCircle
 10
276.544570331674
 20
176.1269337109189
 30
0.0
 40
36.08439114597189
100
AcDbArc
 50
78.52165904546747
 51
101.4783409545309
  0
ARC
  5
468
330
1F
100
AcDbEntity
  8
1
  6
Continuous
 62
     3
100
AcDbCircle
 10
276.544570331674
 20
233.8371674530225
 30
0.0
 40
36.08439114597161
100
AcDbArc
 50
258.521659045469
 51
281.4783409545325
  0
ARC
  5
469
330
1F
100
AcDbEntity
  8
1
  6
Continuous
 62
     3
100
AcDbCircle
 10
297.455429668326
 20
233.8371674530225
 30
0.0
 40
36.08439114597181
100
AcDbArc
 50
258.5216590454675
 51
281.478340954531
  0
ARC
  5
46A
330
1F
100
AcDbEntity
  8
1
  6
Continuous
 62
     3
100
AcDbCircle
 10
297.455429668326
 20
176.1269337109189
 30
0.0
 40
36.08439114597169
100
AcDbArc
 50
78.52165904546908
 51
101.4783409545325
  0
ARC
  5
46B
330
1F
100
AcDbEntity
  8
0
  6
Continuous
 62
     3
100
AcDbCircle
 10
111.2414518843275
 20
511.0
 30
0.0
 40
2.0
100
AcDbArc
 50
90.0
 51
150.0000000000003
  0
ARC
  5
46C
330
1F
100
AcDbEntity
  8
0
  6
Continuous
 62
     3
100
AcDbCircle
 10
182.7585481156726
 20
511.0
 30
0.0
 40
2.000000000000016
100
AcDbArc
 50
29.99999999999973
 51
90.0
  0
ARC
  5
46D
330
1F
100
AcDbEntity
  8
0
  6
Continuous
 62
     3
100
AcDbCircle
 10
182.7585481156726
 20
553.0
 30
0.0
 40
2.0
100
AcDbArc
 50
270.0
 51
330.0000000000003
  0
ARC
  5
46E
330
1F
100
AcDbEntity
  8
0
  6
Continuous
 62
     3
100
AcDbCircle
 10
111.2414518843275
 20
553.0
 30
0.0
 40
2.000000000000016
100
AcDbArc
 50
209.9999999999997
 51
270.0
  0
ARC
  5
46F
330
1F
100
AcDbEntity
  8
0
  6
Continuous
 62
     3
100
AcDbCircle
 10
182.7585481156726
 20
231.0
 30
0.0
 40
2.000000000000016
100
AcDbArc
 50
29.99999999999973
 51
90.0
  0
ARC
  5
470
330
1F
100
AcDbEntity
  8
0
  6
Continuous
 62
     3
100
AcDbCircle
 10
182.7585481156726
 20
231.0
 30
0.0
 40
2.000000000000016
100
AcDbArc
 50
29.99999999999973
 51
90.0
  0
ARC
  5
471
330
1F
100
AcDbEntity
  8
0
  6
Continuous
 62
     3
100
AcDbCircle
 10
182.7585481156726
 20
273.0
 30
0.0
 40
2.0
100
AcDbArc
 50
270.0
 51
330.0000000000003
  0
ARC
  5
472
330
1F
100
AcDbEntity
  8
1
  6
Continuous
 62
     3
100
AcDbCircle
 10
193.6921188385256
 20
269.846688068499
 30
0.0
 40
8.046819376908966
100
AcDbArc
 50
328.9260943938585
 51
31.45276161412109
  0
ARC
  5
473
330
1F
100
AcDbEntity
  8
1
  6
Continuous
 62
     3
100
AcDbCircle
 10
193.6645054885003
 20
269.846688068499
 30
0.0
 40
8.046819376908982
100
AcDbArc
 50
148.5472383858789
 51
211.0739056061414
  0
ARC
  5
474
330
1F
100
AcDbEntity
  8
1
  6
Continuous
 62
     3
100
AcDbCircle
 10
193.6645054885003
 20
234.153311931501
 30
0.0
 40
8.046819376908974
100
AcDbArc
 50
148.9260943938588
 51
211.4527616141213
  0
ARC
  5
475
330
1F
100
AcDbEntity
  8
1
  6
Continuous
 62
     3
100
AcDbCircle
 10
193.6921188385256
 20
234.153311931501
 30
0.0
 40
8.046819376908998
100
AcDbArc
 50
328.5472383858788
 51
31.07390560614132
  0
ARC
  5
476
330
1F
100
AcDbEntity
  8
1
  6
Continuous
 62
     3
100
AcDbCircle
 10
100.3078811614744
 20
234.153311931501
 30
0.0
 40
8.046819376908951
100
AcDbArc
 50
148.9260943938587
 51
211.4527616141213
  0
ARC
  5
477
330
1F
100
AcDbEntity
  8
1
  6
Continuous
 62
     3
100
AcDbCircle
 10
100.3354945114997
 20
234.153311931501
 30
0.0
 40
8.046819376908998
100
AcDbArc
 50
328.5472383858788
 51
31.07390560614132
  0
ARC
  5
478
330
1F
100
AcDbEntity
  8
1
  6
Continuous
 62
     3
100
AcDbCircle
 10
100.3354945114997
 20
269.846688068499
 30
0.0
 40
8.046819376908966
100
AcDbArc
 50
328.9260943938585
 51
31.45276161412109
  0
ARC
  5
479
330
1F
100
AcDbEntity
  8
1
  6
Continuous
 62
     3
100
AcDbCircle
 10
100.3078811614744
 20
269.846688068499
 30
0.0
 40
8.046819376908982
100
AcDbArc
 50
148.5472383858789
 51
211.0739056061415
  0
ARC
  5
47A
330
1F
100
AcDbEntity
  8
0
  6
Continuous
 62
     3
100
AcDbCircle
 10
164.4999999984849
 20
276.8048057057616
 30
0.0
 40
2.499999998484896
100
AcDbArc
 50
179.9999999559356
 51
242.1818607222682
  0
ARC
  5
47B
330
1F
100
AcDbEntity
  8
1
  6
Continuous
 62
     3
100
AcDbCircle
 10
129.9999969309028
 20
277.4410417033745
 30
0.0
 40
1.999999999999929
100
AcDbArc
 50
288.062105778531
 51
359.3608981661884
  0
ARC
  5
47C
330
1F
100
AcDbEntity
  8
0
  6
Continuous
 62
     3
100
AcDbCircle
 10
161.2788800456693
 20
226.8388358293095
 30
0.0
 40
5.002182707304335
100
AcDbArc
 50
291.268651533035
 51
307.9650795855778
  0
ARC
  5
47D
330
1F
100
AcDbEntity
  8
0
  6
Continuous
 62
     3
100
AcDbCircle
 10
125.9999995409824
 20
230.9999995409824
 30
0.0
 40
2.000000459017734
100
AcDbArc
 50
0.0000277548259
 51
89.99997224517452
  0
ARC
  5
47E
330
1F
100
AcDbEntity
  8
0
  6
Continuous
 62
     3
100
AcDbCircle
 10
179.0205415531925
 20
228.0000487079855
 30
0.0
 40
4.999951292323505
100
AcDbArc
 50
90.00063701155356
 51
127.978512397773
  0
ARC
  5
47F
330
1F
100
AcDbEntity
  8
0
  6
Continuous
 62
     3
100
AcDbCircle
 10
167.9999984954663
 20
272.9999984954664
 30
0.0
 40
1.999998495466852
100
AcDbArc
 50
179.9999568982549
 51
270.0000431017484
  0
ARC
  5
480
330
1F
100
AcDbEntity
  8
0
  6
Continuous
 62
     3
100
AcDbCircle
 10
111.2414518843274
 20
231.0
 30
0.0
 40
2.0
100
AcDbArc
 50
90.0
 51
149.999999999976
  0
ARC
  5
481
330
1F
100
AcDbEntity
  8
0
  6
Continuous
 62
     3
100
AcDbCircle
 10
111.2414518843274
 20
273.0
 30
0.0
 40
1.99999999999838
100
AcDbArc
 50
210.0000000000268
 51
270.0
  0
ARC
  5
482
330
1F
100
AcDbEntity
  8
0
  6
Continuous
 62
     3
100
AcDbCircle
 10
115.9053194977603
 20
275.9998754695829
 30
0.0
 40
4.999875470882298
100
AcDbArc
 50
270.0013062639094
 51
288.063412047125
  0
ARC
  5
483
330
1F
100
AcDbEntity
  8
0
  6
Continuous
 62
     3
100
AcDbCircle
 10
182.7585481156726
 20
273.0
 30
0.0
 40
2.0
100
AcDbArc
 50
270.0
 51
330.0000000000003
  0
ARC
  5
484
330
1F
100
AcDbEntity
  8
0
  6
Continuous
 62
     3
100
AcDbCircle
 10
161.0
 20
270.1715561259646
 30
0.0
 40
5.0
100
AcDbArc
 50
0.0
 51
62.18186072235373
  0
ARC
  5
485
330
1F
100
AcDbEntity
  8
1
  6
Continuous
 62
     3
100
AcDbCircle
 10
287.0
 20
252.0
 30
0.0
 40
24.00000000000001
100
AcDbArc
 50
322.3415379937921
 51
339.7504720407353
  0
ARC
  5
486
330
1F
100
AcDbEntity
  8
1
  6
Continuous
 62
     3
100
AcDbCircle
 10
287.0
 20
252.0
 30
0.0
 40
24.00000000000006
100
AcDbArc
 50
66.71671423438858
 51
113.2832857656114
  0
ARC
  5
487
330
1F
100
AcDbEntity
  8
1
  6
Continuous
 62
     3
100
AcDbCircle
 10
287.0
 20
252.0
 30
0.0
 40
24.00000000000011
100
AcDbArc
 50
20.24952795926772
 51
34.78909984946895
  0
ARC
  5
488
330
1F
100
AcDbEntity
  8
1
  6
Continuous
 62
     3
100
AcDbCircle
 10
287.0
 20
252.0
 30
0.0
 40
24.00000000000006
100
AcDbArc
 50
246.7167142343886
 51
293.2832857656114
  0
ARC
  5
489
330
1F
100
AcDbEntity
  8
1
  6
Continuous
 62
     3
100
AcDbCircle
 10
287.0
 20
252.0
 30
0.0
 40
23.99999999999965
100
AcDbArc
 50
200.2495279592647
 51
217.6584620062079
  0
ARC
  5
48A
330
1F
100
AcDbEntity
  8
1
  6
Continuous
 62
     3
100
AcDbCircle
 10
287.0
 20
252.0
 30
0.0
 40
23.99999999999984
100
AcDbArc
 50
145.210900150531
 51
159.7504720407323
  0
ARC
  5
48B
330
1F
100
AcDbEntity
  8
1
  6
Continuous
 62
     3
100
AcDbCircle
 10
129.6963955412509
 20
217.300000000002
 30
0.0
 40
2.999999999999998
100
AcDbArc
 50
280.6704440509067
 51
316.9732488830286
  0
ARC
  5
48C
330
1F
100
AcDbEntity
  8
1
  6
Continuous
 62
     3
100
AcDbCircle
 10
164.3036044587491
 20
217.300000000002
 30
0.0
 40
2.999999999999972
100
AcDbArc
 50
223.0267511169699
 51
259.3295559490933
  0
ARC
  5
48D
330
1F
100
AcDbEntity
  8
1
  6
Continuous
 62
     3
100
AcDbCircle
 10
304.303604458749
 20
217.300000000002
 30
0.0
 40
3.000000000000138
100
AcDbArc
 50
223.0267511169669
 51
259.3295559490869
  0
ARC
  5
48E
330
1F
100
AcDbEntity
  8
1
  6
Continuous
 62
     3
100
AcDbCircle
 10
269.696395541251
 20
217.300000000002
 30
0.0
 40
3.000000000000061
100
AcDbArc
 50
280.6704440509131
 51
316.9732488830331
  0
ARC
  5
48F
330
1F
100
AcDbEntity
  8
1
  6
Continuous
 62
     3
100
AcDbCircle
 10
178.6100074444829
 20
269.0
 30
0.0
 40
2.0
100
AcDbArc
 50
90.0
 51
141.5298477639027
  0
ARC
  5
490
330
1F
100
AcDbEntity
  8
1
  6
Continuous
 62
     3
100
AcDbCircle
 10
168.0000000000001
 20
262.0768839114286
 30
0.0
 40
2.0
100
AcDbArc
 50
180.0
 51
321.5298477639035
  0
ARC
  5
491
330
1F
100
AcDbEntity
  8
1
  6
Continuous
 62
     3
100
AcDbCircle
 10
115.389992555517
 20
235.0
 30
0.0
 40
2.0
100
AcDbArc
 50
270.0
 51
321.5298477639051
  0
ARC
  5
492
330
1F
100
AcDbEntity
  8
1
  6
Continuous
 62
     3
100
AcDbCircle
 10
125.9999999999999
 20
241.9231160885713
 30
0.0
 40
2.0
100
AcDbArc
 50
0.0
 51
141.5298477639016
  0
CIRCLE
  5
493
330
1F
100
AcDbEntity
  8
1
  6
Continuous
 62
     3
100
AcDbCircle
 10
147.0
 20
532.0
 30
0.0
 40
10.0
  0
CIRCLE
  5
494
330
1F
100
AcDbEntity
  8
1
  6
Continuous
 62
     3
100
AcDbCircle
 10
287.0
 20
298.9999999999982
 30
0.0
 40
7.5
  0
CIRCLE
  5
495
330
1F
100
AcDbEntity
  8
1
  6
Continuous
 62
     3
100
AcDbCircle
 10
287.0
 20
298.9999999999982
 30
0.0
 40
8.752971889323021
  0
CIRCLE
  5
496
330
1F
100
AcDbEntity
  8
1
  6
Continuous
 62
     3
100
AcDbCircle
 10
287.0
 20
298.9999999999982
 30
0.0
 40
9.274872969782223
  0
CIRCLE
  5
497
330
1F
100
AcDbEntity
  8
1
  6
Continuous
 62
     1
100
AcDbCircle
 10
287.0
 20
298.9999999999982
 30
0.0
 40
10.4743587744187
  0
CIRCLE
  5
498
330
1F
100
AcDbEntity
  8
1
  6
Continuous
 62
     3
100
AcDbCircle
 10
287.0
 20
298.9999999999982
 30
0.0
 40
12.99999999999733
  0
CIRCLE
  5
499
330
1F
100
AcDbEntity
  8
1
  6
Continuous
 62
     3
100
AcDbCircle
 10
287.0
 20
252.0
 30
0.0
 40
21.5
  0
CIRCLE
  5
49A
330
1F
100
AcDbEntity
  8
1
  6
Continuous
 62
     3
100
AcDbCircle
 10
287.0
 20
252.0
 30
0.0
 40
14.41108829995301
  0
CIRCLE
  5
49B
330
1F
100
AcDbEntity
  8
1
  6
Continuous
 62
     1
100
AcDbCircle
 10
287.0
 20
252.0
 30
0.0
 40
16.61238647190999
  0
CIRCLE
  5
49C
330
1F
100
AcDbEntity
  8
1
  6
Continuous
 62
     3
100
AcDbCircle
 10
287.0
 20
252.0
 30
0.0
 40
15.08567433330597
  0
CIRCLE
  5
49D
330
1F
100
AcDbEntity
  8
1
  6
Continuous
 62
     3
100
AcDbCircle
 10
287.0
 20
252.0
 30
0.0
 40
17.0
  0
SPLINE
  5
49E
330
1F
100
AcDbEntity
  8
0
  6
Continuous
 62
     4
100
AcDbSpline
210
0.0
220
0.0
230
1.0
 70
     8
 71
     3
 72
    53
 73
    49
 74
    47
 42
0.0000000001
 43
0.0000000001
 44
0.00000001
 40
0.0
 40
0.0
 40
0.0
 40
0.0
 40
0.031678887980034
 40
0.0758210711677113
 40
0.1707878284300761
 40
0.3004631829712978
 40
0.3903703262727697
 40
0.5282373959254868
 40
0.7069193532349815
 40
0.9192755765809016
 40
1.158171384374715
 40
1.697275557386791
 40
2.177019986932895
 40
2.593489304556301
 40
2.942702110042113
 40
3.22061822345821
 40
4.171299948533904
 40
5.079887345152557
 40
5.9498148203721
 40
6.784537768047843
 40
7.58751418604494
 40
8.465132080637465
 40
9.322106529333812
 40
10.16229344775561
 40
10.98958878950945
 40
11.80788451422117
 40
12.67025724760313
 40
13.52087844440336
 40
14.36296268410382
 40
15.19931626611347
 40
16.03232576985044
 40
16.84481017121589
 40
17.68469738878012
 40
18.55513052164546
 40
19.45919842824487
 40
20.39992332595118
 40
20.68681553271441
 40
21.03967207967267
 40
21.45551558554529
 40
21.93142413093203
 40
22.46453688546628
 40
22.70473016622749
 40
22.91740169091725
 40
23.09599031019025
 40
23.23392893245031
 40
23.32464596340644
 40
23.4754323738552
 40
23.62621878430398
 40
23.62621878430398
 40
23.62621878430398
 40
23.62621878430398
 10
172.4999734611356
 20
287.9999999999982
 30
0.0
 10
172.4942328615815
 20
288.0088629190098
 30
0.0
 10
172.4804931618921
 20
288.0300756589758
 30
0.0
 10
172.4496363638512
 20
288.0779170921376
 30
0.0
 10
172.4011366266518
 20
288.1532497462003
 30
0.0
 10
172.3446817182343
 20
288.2416033914045
 30
0.0
 10
172.2807776307598
 20
288.3421666735148
 30
0.0
 10
172.2084980312576
 20
288.4567618525857
 30
0.0
 10
172.115095536418
 20
288.6062894847103
 30
0.0
 10
172.0047954840757
 20
288.7849657199752
 30
0.0
 10
171.8331626327338
 20
289.0669618841721
 30
0.0
 10
171.6193818934
 20
289.4276341259391
 30
0.0
 10
171.3819523367846
 20
289.8430237550151
 30
0.0
 10
171.1812077672797
 20
290.2064183597823
 30
0.0
 10
171.0170253407974
 20
290.5131134995461
 30
0.0
 10
170.7740842862045
 20
290.9795821363042
 30
0.0
 10
170.4591939805201
 20
291.6188055059854
 30
0.0
 10
170.0883877780131
 20
292.4497833177759
 30
0.0
 10
169.7653686386858
 20
293.2590186947745
 30
0.0
 10
169.4881346400952
 20
294.0478509446901
 30
0.0
 10
169.2446822617339
 20
294.8504438877304
 30
0.0
 10
169.0379985653975
 20
295.6710546830757
 30
0.0
 10
168.8724127670158
 20
296.5136058374025
 30
0.0
 10
168.7551260717638
 20
297.3473048235733
 30
0.0
 10
168.6852815736371
 20
298.1733805097459
 30
0.0
 10
168.6615295238238
 20
299.009463413398
 30
0.0
 10
168.6861898333181
 20
299.8533622135365
 30
0.0
 10
168.7605836542205
 20
300.7022645517483
 30
0.0
 10
168.8812220846926
 20
301.5370357722351
 30
0.0
 10
169.0452080408305
 20
302.3583521181835
 30
0.0
 10
169.2480708056282
 20
303.1607185099125
 30
0.0
 10
169.4885568092139
 20
303.9537918428762
 30
0.0
 10
169.7677083988752
 20
304.7473161502757
 30
0.0
 10
170.0911936465664
 20
305.5567783898302
 30
0.0
 10
170.4603286521833
 20
306.3833985378156
 30
0.0
 10
170.7743892323326
 20
307.0209816041393
 30
0.0
 10
171.0177194072092
 20
307.4882490250275
 30
0.0
 10
171.1838319148632
 20
307.7984460785798
 30
0.0
 10
171.3845278993147
 20
308.1615560713936
 30
0.0
 10
171.6203090679887
 20
308.5738741346894
 30
0.0
 10
171.8326534872502
 20
308.9320914658674
 30
0.0
 10
172.0034803573854
 20
309.2128695110761
 30
0.0
 10
172.1140161408763
 20
309.3919954588428
 30
0.0
 10
172.2074560086755
 20
309.5416151192567
 30
0.0
 10
172.2798727633226
 20
309.6564344233865
 30
0.0
 10
172.3477217617061
 20
309.7631765967158
 30
0.0
 10
172.4181482690066
 20
309.8733549748419
 30
0.0
 10
172.4727120106617
 20
309.9577821883668
 30
0.0
 10
172.4999938814892
 20
309.9999957951291
 30
0.0
 11
172.4999734611356
 21
287.9999999999982
 31
0.0
 11
172.4827587948395
 21
288.0265933677421
 31
0.0
 11
172.4588222587199
 21
288.0636821069384
 31
0.0
 11
172.4074381202629
 21
288.1435467129912
 31
0.0
 11
172.3375978399076
 21
288.252808018197
 31
0.0
 11
172.289385489734
 21
288.3286951956868
 31
0.0
 11
172.2158301208729
 21
288.4453010986521
 31
0.0
 11
172.1211645892434
 21
288.5968454122678
 31
0.0
 11
172.0096217507643
 21
288.7775478217087
 31
0.0
 11
171.8854344613544
 21
288.9816280121498
 31
0.0
 11
171.6105909264352
 21
289.4454106559305
 31
0.0
 11
171.3725727488779
 21
289.8619464465089
 31
0.0
 11
171.1712418400257
 21
290.2265181920714
 31
0.0
 11
171.0064601112217
 21
290.534408700804
 31
0.0
 11
170.878089473809
 21
290.7809007808929
 31
0.0
 11
170.4585686015277
 21
291.6340115475072
 31
0.0
 11
170.088824811344
 21
292.4639637069205
 31
0.0
 11
169.766811645169
 21
293.2720981839427
 31
0.0
 11
169.4904826449139
 21
294.0597559033833
 31
0.0
 11
169.2577913524899
 21
294.8282777900525
 31
0.0
 11
169.0439273377695
 21
295.679438968747
 31
0.0
 11
168.8790575201796
 21
296.52040457385
 31
0.0
 11
168.762300744353
 21
297.3524393767193
 31
0.0
 11
168.6927758549225
 21
298.1768081487123
 31
0.0
 11
168.6696016965209
 21
298.9947756611869
 31
0.0
 11
168.6947153774739
 21
299.8567826416167
 31
0.0
 11
168.768776415448
 21
300.7041735685802
 31
0.0
 11
168.888928754167
 21
301.5376417936807
 31
0.0
 11
169.0523163373549
 21
302.3578806685217
 31
0.0
 11
169.2560831087353
 21
303.1655835447066
 31
0.0
 11
169.4914548619873
 21
303.9432280909057
 31
0.0
 11
169.7697237874497
 21
304.7356780535846
 31
0.0
 11
170.0922483308221
 21
305.5441530115841
 31
0.0
 11
170.4603869378037
 21
306.3698725437454
 31
0.0
 11
170.8754980540937
 21
307.2140562289093
 31
0.0
 11
171.0080014598287
 21
307.4685164139484
 31
0.0
 11
171.1745497669372
 21
307.7795942243602
 31
0.0
 11
171.3756613561407
 21
308.1435721770777
 31
0.0
 11
171.6118546081609
 21
308.5567327890342
 31
0.0
 11
171.8836479037195
 21
309.0153585771627
 31
0.0
 11
172.0084771511959
 21
309.220566937366
 31
0.0
 11
172.1201579157704
 21
309.4015547387171
 31
0.0
 11
172.2147597602379
 21
309.5530287825569
 31
0.0
 11
172.2883522473934
 21
309.6696958702263
 31
0.0
 11
172.3370049400319
 21
309.7462628030663
 31
0.0
 11
172.4182541101704
 21
309.8732868713677
 31
0.0
 11
172.4999938814892
 21
309.9999957951291
 31
0.0
  0
SPLINE
  5
49F
330
1F
100
AcDbEntity
  8
0
  6
Continuous
 62
     4
100
AcDbSpline
210
0.0
220
0.0
230
1.0
 70
     8
 71
     3
 72
    53
 73
    49
 74
    47
 42
0.0000000001
 43
0.0000000001
 44
0.00000001
 40
0.0
 40
0.0
 40
0.0
 40
0.0
 40
0.0316788879799863
 40
0.0758210711677514
 40
0.1707878284300454
 40
0.3004631829712977
 40
0.3903703262727696
 40
0.5282373959255272
 40
0.7069193532350294
 40
0.9192755765808863
 40
1.158171384374722
 40
1.697275557386798
 40
2.177019986932887
 40
2.5934893045563
 40
2.942702110042092
 40
3.220618223458169
 40
4.171299948533882
 40
5.079887345152541
 40
5.949814820372094
 40
6.784537768047828
 40
7.587514186044933
 40
8.465132080637458
 40
9.322106529333801
 40
10.1622934477556
 40
10.98958878950944
 40
11.80788451422116
 40
12.67025724760307
 40
13.52087844440342
 40
14.36296268410377
 40
15.19931626611346
 40
16.03232576985042
 40
16.844810171216
 40
17.68469738878012
 40
18.55513052164546
 40
19.45919842824479
 40
20.39992332595117
 40
20.68681553271446
 40
21.03967207967266
 40
21.45551558554528
 40
21.93142413093203
 40
22.46453688546627
 40
22.70473016622749
 40
22.91740169091724
 40
23.09599031019026
 40
23.2339289324503
 40
23.32464596340641
 40
23.47543237385522
 40
23.62621878430397
 40
23.62621878430397
 40
23.62621878430397
 40
23.62621878430397
 10
121.5000265388644
 20
318.9999999999982
 30
0.0
 10
121.5057671384185
 20
319.0088629190098
 30
0.0
 10
121.5195068381079
 20
319.0300756589758
 30
0.0
 10
121.5503636361488
 20
319.0779170921376
 30
0.0
 10
121.5988633733481
 20
319.1532497462003
 30
0.0
 10
121.6553182817657
 20
319.2416033914045
 30
0.0
 10
121.7192223692403
 20
319.3421666735149
 30
0.0
 10
121.7915019687423
 20
319.4567618525857
 30
0.0
 10
121.884904463582
 20
319.6062894847102
 30
0.0
 10
121.9952045159243
 20
319.7849657199752
 30
0.0
 10
122.1668373672663
 20
320.0669618841722
 30
0.0
 10
122.3806181066
 20
320.4276341259389
 30
0.0
 10
122.6180476632154
 20
320.8430237550151
 30
0.0
 10
122.8187922327202
 20
321.2064183597824
 30
0.0
 10
122.9829746592026
 20
321.513113499546
 30
0.0
 10
123.2259157137954
 20
321.9795821363043
 30
0.0
 10
123.5408060194799
 20
322.6188055059853
 30
0.0
 10
123.9116122219868
 20
323.449783317776
 30
0.0
 10
124.2346313613142
 20
324.2590186947744
 30
0.0
 10
124.5118653599048
 20
325.04785094469
 30
0.0
 10
124.7553177382661
 20
325.8504438877303
 30
0.0
 10
124.9620014346026
 20
326.6710546830756
 30
0.0
 10
125.1275872329842
 20
327.5136058374024
 30
0.0
 10
125.2448739282362
 20
328.3473048235733
 30
0.0
 10
125.3147184263629
 20
329.1733805097459
 30
0.0
 10
125.3384704761762
 20
330.0094634133981
 30
0.0
 10
125.3138101666818
 20
330.8533622135365
 30
0.0
 10
125.2394163457795
 20
331.7022645517483
 30
0.0
 10
125.1187779153072
 20
332.5370357722351
 30
0.0
 10
124.9547919591695
 20
333.3583521181836
 30
0.0
 10
124.7519291943718
 20
334.1607185099124
 30
0.0
 10
124.5114431907862
 20
334.9537918428762
 30
0.0
 10
124.2322916011247
 20
335.7473161502758
 30
0.0
 10
123.9088063534336
 20
336.5567783898301
 30
0.0
 10
123.5396713478167
 20
337.3833985378155
 30
0.0
 10
123.2256107676674
 20
338.0209816041393
 30
0.0
 10
122.9822805927908
 20
338.4882490250276
 30
0.0
 10
122.8161680851368
 20
338.7984460785798
 30
0.0
 10
122.6154721006853
 20
339.1615560713938
 30
0.0
 10
122.3796909320114
 20
339.5738741346892
 30
0.0
 10
122.1673465127497
 20
339.9320914658674
 30
0.0
 10
121.9965196426146
 20
340.2128695110761
 30
0.0
 10
121.8859838591237
 20
340.391995458843
 30
0.0
 10
121.7925439913245
 20
340.5416151192566
 30
0.0
 10
121.7201272366773
 20
340.6564344233866
 30
0.0
 10
121.6522782382939
 20
340.7631765967158
 30
0.0
 10
121.5818517309933
 20
340.873354974842
 30
0.0
 10
121.5272879893383
 20
340.9577821883667
 30
0.0
 10
121.5000061185108
 20
340.9999957951291
 30
0.0
 11
121.5000265388644
 21
318.9999999999982
 31
0.0
 11
121.5172412051605
 21
319.0265933677421
 31
0.0
 11
121.5411777412801
 21
319.0636821069385
 31
0.0
 11
121.592561879737
 21
319.1435467129912
 31
0.0
 11
121.6624021600924
 21
319.252808018197
 31
0.0
 11
121.710614510266
 21
319.3286951956868
 31
0.0
 11
121.784169879127
 21
319.4453010986521
 31
0.0
 11
121.8788354107566
 21
319.5968454122678
 31
0.0
 11
121.9903782492357
 21
319.7775478217087
 31
0.0
 11
122.1145655386456
 21
319.9816280121498
 31
0.0
 11
122.3894090735648
 21
320.4454106559305
 31
0.0
 11
122.6274272511221
 21
320.8619464465089
 31
0.0
 11
122.8287581599743
 21
321.2265181920714
 31
0.0
 11
122.9935398887783
 21
321.534408700804
 31
0.0
 11
123.1219105261909
 21
321.7809007808929
 31
0.0
 11
123.5414313984723
 21
322.6340115475072
 31
0.0
 11
123.911175188656
 21
323.4639637069205
 31
0.0
 11
124.233188354831
 21
324.2720981839427
 31
0.0
 11
124.509517355086
 21
325.0597559033833
 31
0.0
 11
124.7422086475101
 21
325.8282777900525
 31
0.0
 11
124.9560726622305
 21
326.679438968747
 31
0.0
 11
125.1209424798204
 21
327.52040457385
 31
0.0
 11
125.237699255647
 21
328.3524393767193
 31
0.0
 11
125.3072241450775
 21
329.1768081487123
 31
0.0
 11
125.3303983034791
 21
329.9947756611869
 31
0.0
 11
125.3052846225261
 21
330.8567826416166
 31
0.0
 11
125.2312235845519
 21
331.7041735685802
 31
0.0
 11
125.1110712458329
 21
332.5376417936807
 31
0.0
 11
124.9476836626451
 21
333.3578806685217
 31
0.0
 11
124.7439168912647
 21
334.1655835447066
 31
0.0
 11
124.5085451380127
 21
334.9432280909058
 31
0.0
 11
124.2302762125502
 21
335.7356780535846
 31
0.0
 11
123.9077516691779
 21
336.5441530115841
 31
0.0
 11
123.5396130621964
 21
337.3698725437453
 31
0.0
 11
123.1245019459063
 21
338.2140562289093
 31
0.0
 11
122.9919985401713
 21
338.4685164139484
 31
0.0
 11
122.8254502330628
 21
338.7795942243602
 31
0.0
 11
122.6243386438593
 21
339.1435721770777
 31
0.0
 11
122.388145391839
 21
339.5567327890342
 31
0.0
 11
122.1163520962805
 21
340.0153585771627
 31
0.0
 11
121.9915228488041
 21
340.220566937366
 31
0.0
 11
121.8798420842296
 21
340.4015547387171
 31
0.0
 11
121.785240239762
 21
340.5530287825569
 31
0.0
 11
121.7116477526066
 21
340.6696958702263
 31
0.0
 11
121.6629950599681
 21
340.7462628030663
 31
0.0
 11
121.5817458898295
 21
340.8732868713677
 31
0.0
 11
121.5000061185108
 21
340.9999957951291
 31
0.0
  0
SPLINE
  5
4A0
330
1F
100
AcDbEntity
  8
0
  6
Continuous
 62
     3
100
AcDbSpline
210
0.0
220
0.0
230
1.0
 70
     8
 71
     3
 72
    11
 73
     7
 74
     5
 42
0.0000000001
 43
0.0000000001
 44
0.00000001
 40
0.0
 40
0.0
 40
0.0
 40
0.0
 40
0.4803040561695532
 40
0.9606183397589328
 40
1.333444920086337
 40
1.920090791559556
 40
1.920090791559556
 40
1.920090791559556
 40
1.920090791559556
 10
166.0
 20
278.5762518389417
 30
0.0
 10
166.011116293608
 20
278.7368257475304
 30
0.0
 10
166.0333491175303
 20
279.0579769839102
 30
0.0
 10
166.1993701119084
 20
279.4765910303851
 30
0.0
 10
166.4566985070372
 20
279.8863737888822
 30
0.0
 10
166.7052040738172
 20
280.0918947233076
 30
0.0
 10
166.8571467007432
 20
280.2175554522382
 30
0.0
 11
166.0
 21
278.5762518389417
 31
0.0
 11
166.0576906813855
 21
279.0530786121562
 31
0.0
 11
166.2274151706562
 21
279.5024063419502
 31
0.0
 11
166.4301128744378
 21
279.8153173514725
 31
0.0
 11
166.8571467007432
 21
280.2175554522382
 31
0.0
  0
SPLINE
  5
4A1
330
1F
100
AcDbEntity
  8
0
  6
Continuous
 62
     3
100
AcDbSpline
210
0.0
220
0.0
230
1.0
 70
     8
 71
     3
 72
    75
 73
    71
 74
    69
 42
0.0000000001
 43
0.0000000001
 44
0.00000001
 40
0.0
 40
0.0
 40
0.0
 40
0.0
 40
0.2291638758182556
 40
0.4583277516366528
 40
0.534707563620326
 40
0.6110865315815114
 40
0.687467666139781
 40
0.7638490280059109
 40
0.8402459831629189
 40
0.9166428783622448
 40
0.9930392708679138
 40
1.069435671733028
 40
1.145810605418384
 40
1.222185539633747
 40
1.298560503072648
 40
1.374935477416825
 40
1.451310563082853
 40
1.527685600819921
 40
1.604061109532947
 40
1.68043680238117
 40
1.764753687246581
 40
1.849070833111256
 40
1.933389496056837
 40
2.01770805725456
 40
2.102023347130118
 40
2.186338787846118
 40
2.270652132020455
 40
2.354964969458259
 40
2.422954611047519
 40
2.490943937600222
 40
2.5589320352708
 40
2.626920227004711
 40
2.694905320994178
 40
2.762890351635111
 40
2.830876254799001
 40
2.898862319097364
 40
2.975040341370586
 40
3.051218569839195
 40
3.127397486040886
 40
3.203576347276627
 40
3.279758928520438
 40
3.355941525765641
 40
3.432123896078767
 40
3.508306255458937
 40
3.584495622497637
 40
3.660684995559529
 40
3.736874312293669
 40
3.813063639583943
 40
3.889255498791238
 40
3.965447308005766
 40
4.04163962603504
 40
4.117832135401029
 40
4.202306423296263
 40
4.286780982114212
 40
4.371257119511569
 40
4.455733151924048
 40
4.540209904531848
 40
4.624686808936886
 40
4.709161461810989
 40
4.793635610714098
 40
4.861745018269047
 40
4.929854097568525
 40
4.997962331236362
 40
5.066070707386155
 40
5.134162875487235
 40
5.202254801777869
 40
5.270345922451597
 40
5.338437866932671
 40
5.567478416165159
 40
5.796518965397474
 40
5.796518965397474
 40
5.796518965397474
 40
5.796518965397474
 10
130.9991747335132
 20
222.7454830984853
 30
0.0
 10
130.9295496548818
 20
222.7769378914562
 30
0.0
 10
130.7902994976191
 20
222.8398474773979
 30
0.0
 10
130.6323471335591
 20
222.9226553937528
 30
0.0
 10
130.521254862589
 20
222.9848278558659
 30
0.0
 10
130.4551944838276
 20
223.0231755964786
 30
0.0
 10
130.3897240372602
 20
223.0625202793627
 30
0.0
 10
130.3248579927436
 20
223.1028657771668
 30
0.0
 10
130.2606109707899
 20
223.1441993887119
 30
0.0
 10
130.1969988814865
 20
223.1865127537889
 30
0.0
 10
130.1340412891793
 20
223.2297935943
 30
0.0
 10
130.071759327579
 20
223.2740285341036
 30
0.0
 10
130.0101679816802
 20
223.3192080173631
 30
0.0
 10
129.9492810177905
 20
223.3653205417718
 30
0.0
 10
129.8891066285127
 20
223.412359164431
 30
0.0
 10
129.8296587584297
 20
223.4603127622163
 30
0.0
 10
129.7709513978672
 20
223.5091701736475
 30
0.0
 10
129.7129981909439
 20
223.5589200799589
 30
0.0
 10
129.6558128721173
 20
223.6095511062434
 30
0.0
 10
129.5974543987408
 20
223.6628366966277
 30
0.0
 10
129.5380357060456
 20
223.7188727495802
 30
0.0
 10
129.4776767895656
 20
223.7777533517796
 30
0.0
 10
129.418319787498
 20
223.8376446508413
 30
0.0
 10
129.3599818319969
 20
223.8985281328147
 30
0.0
 10
129.3026794374486
 20
223.9603857876291
 30
0.0
 10
129.2464295602652
 20
224.0231997561837
 30
0.0
 10
129.1912481529366
 20
224.086953269159
 30
0.0
 10
129.1406427890361
 20
224.1474552822229
 30
0.0
 10
129.0943952943541
 20
224.2044951103927
 30
0.0
 10
129.0522985676899
 20
224.2578867020523
 30
0.0
 10
129.0109333158166
 20
224.311846337306
 30
0.0
 10
128.9703075161848
 20
224.3663631223871
 30
0.0
 10
128.9304283680195
 20
224.4214271735279
 30
0.0
 10
128.891302973545
 20
224.4770283914757
 30
0.0
 10
128.8529379881531
 20
224.5331574034641
 30
0.0
 10
128.8138306566076
 20
224.592079094144
 30
0.0
 10
128.7741009564308
 20
224.6538569550455
 30
0.0
 10
128.7338759820176
 20
224.718552747176
 30
0.0
 10
128.6946414354287
 20
224.7838542755531
 30
0.0
 10
128.6564054135379
 20
224.8497471113968
 30
0.0
 10
128.6191767269617
 20
224.9162156851147
 30
0.0
 10
128.5829642845417
 20
224.9832446631021
 30
0.0
 10
128.5477775232148
 20
225.0508176300013
 30
0.0
 10
128.5136242225802
 20
225.1189213070943
 30
0.0
 10
128.480513308659
 20
225.1875404150609
 30
0.0
 10
128.448451748832
 20
225.2566586001057
 30
0.0
 10
128.4174473861183
 20
225.3262574093902
 30
0.0
 10
128.3875067286152
 20
225.3963212932357
 30
0.0
 10
128.3586366484066
 20
225.4668339591854
 30
0.0
 10
128.3308437951752
 20
225.537779192193
 30
0.0
 10
128.3041351415118
 20
225.609139915891
 30
0.0
 10
128.2775891987357
 20
225.6834996429622
 30
0.0
 10
128.2513560300374
 20
225.7608922207512
 30
0.0
 10
128.2255917875113
 20
225.8413465764781
 30
0.0
 10
128.2011888941237
 20
225.9222248792035
 30
0.0
 10
128.1781535001577
 20
226.0035039886313
 30
0.0
 10
128.1564918886057
 20
226.0851602217081
 30
0.0
 10
128.1362105812841
 20
226.1671697284704
 30
0.0
 10
128.1173159714376
 20
226.2495088453934
 30
0.0
 10
128.1009445513205
 20
226.3268176929619
 30
0.0
 10
128.086804029423
 20
226.3990122854264
 30
0.0
 10
128.0746234146227
 20
226.4660253093709
 30
0.0
 10
128.063355710082
 20
226.5331974852333
 30
0.0
 10
128.0530034185544
 20
226.6005110918245
 30
0.0
 10
128.0435671251512
 20
226.6679538086475
 30
0.0
 10
128.0350507663365
 20
226.735512721202
 30
0.0
 10
128.0274458881336
 20
226.8031813750903
 30
0.0
 10
128.01554432305
 20
226.9243377882426
 30
0.0
 10
128.0030056338734
 20
227.0993854017487
 30
0.0
 10
128.0010018779578
 20
227.2520910499399
 30
0.0
 10
128.0
 20
227.3284438740354
 30
0.0
 11
130.9991747335132
 21
222.7454830984853
 31
0.0
 11
130.7912645860987
 21
222.841864904767
 31
0.0
 11
130.5879922244763
 21
222.9476780843836
 31
0.0
 11
130.521353118244
 21
222.9850024088814
 31
0.0
 11
130.4552935016009
 21
223.0233413420405
 31
0.0
 11
130.3898256851686
 21
223.0626865161792
 31
0.0
 11
130.3249662958376
 21
223.1030272159268
 31
0.0
 11
130.260717478703
 21
223.144362240471
 31
0.0
 11
130.1971077999883
 21
223.1866741107902
 31
0.0
 11
130.1341529015749
 21
223.2299533154229
 31
0.0
 11
130.0718676614171
 21
223.2741908438759
 31
0.0
 11
130.0102844184611
 21
223.3193642285451
 31
0.0
 11
129.9493997897337
 21
223.3654748841587
 31
0.0
 11
129.8892277244593
 21
223.4125116527649
 31
0.0
 11
129.829782208595
 21
223.4604633717091
 31
0.0
 11
129.7710771005131
 21
223.5093189138265
 31
0.0
 11
129.7131263159904
 21
223.5590668078778
 31
0.0
 11
129.6559432298486
 21
223.6096959792168
 31
0.0
 11
129.5995418294785
 21
223.6611947995367
 31
0.0
 11
129.5382001128931
 21
223.7190440076537
 31
0.0
 11
129.4778442005305
 21
223.7779213796198
 31
0.0
 11
129.4184895345652
 21
223.8378101143625
 31
0.0
 11
129.3601535548781
 21
223.8986914188525
 31
0.0
 11
129.3028546952921
 21
223.9605453499882
 31
0.0
 11
129.2466070869683
 21
224.0233569739202
 31
0.0
 11
129.1914287787052
 21
224.0871072233557
 31
0.0
 11
129.1373353417069
 21
224.1517798963369
 31
0.0
 11
129.0945158286225
 21
224.2045916437294
 31
0.0
 11
129.0524201791673
 21
224.2579817628717
 31
0.0
 11
129.0110564355401
 21
224.3119393586114
 31
0.0
 11
128.9704312459068
 21
224.3664553029076
 31
0.0
 11
128.9305539062686
 21
224.4215168211226
 31
0.0
 11
128.891429904795
 21
224.4771160738149
 31
0.0
 11
128.8530660078529
 21
224.533243557639
 31
0.0
 11
128.8154699266157
 21
224.5898884127839
 31
0.0
 11
128.7742646543689
 21
224.6539603771406
 31
0.0
 11
128.7340411972832
 21
224.7186534679053
 31
0.0
 11
128.6948079687504
 21
224.7839526336929
 31
0.0
 11
128.6565740181952
 21
224.8498418128054
 31
0.0
 11
128.6193461989896
 21
224.9163089111486
 31
0.0
 11
128.5831351901774
 21
224.9833354056402
 31
0.0
 11
128.5479499334338
 21
225.0509057486496
 31
0.0
 11
128.5137991566076
 21
225.119004767166
 31
0.0
 11
128.4806883698892
 21
225.1876232446531
 31
0.0
 11
128.4486279396643
 21
225.2567387232477
 31
0.0
 11
128.4176247259649
 21
225.3263347915614
 31
0.0
 11
128.3876855373571
 21
225.3963951839272
 31
0.0
 11
128.3588162426174
 21
225.466905915243
 31
0.0
 11
128.3310245685871
 21
225.5378482484861
 31
0.0
 11
128.3043169919261
 21
225.6092063221399
 31
0.0
 11
128.2787002950808
 21
225.6809634355588
 31
0.0
 11
128.2515819529802
 21
225.7609665657296
 31
0.0
 11
128.2258188642254
 21
225.8414166393486
 31
0.0
 11
128.2014168354748
 21
225.9222915970452
 31
0.0
 11
128.1783825385604
 21
226.0035665699324
 31
0.0
 11
128.1567219341945
 21
226.0852191262283
 31
0.0
 11
128.1364414902619
 21
226.1672255343423
 31
0.0
 11
128.1175480726143
 21
226.2495602520973
 31
0.0
 11
128.1000476351235
 21
226.3322017460367
 31
0.0
 11
128.0869558911534
 21
226.3990410880241
 31
0.0
 11
128.0747755077718
 21
226.4660521687772
 31
0.0
 11
128.0635081430637
 21
226.5332219386584
 31
0.0
 11
128.0531551684711
 21
226.6005388519777
 31
0.0
 11
128.0437203048135
 21
226.6679742040156
 31
0.0
 11
128.0352026461156
 21
226.7355312903669
 31
0.0
 11
128.0276039426034
 21
226.8031970898489
 31
0.0
 11
128.0209258127795
 21
226.870960763637
 31
0.0
 11
128.0052337098965
 21
227.0994631292699
 31
0.0
 11
128.0
 21
227.3284438740354
 31
0.0
  0
SPLINE
  5
4A2
330
1F
100
AcDbEntity
  8
0
  6
Continuous
 62
     3
100
AcDbSpline
210
0.0
220
0.0
230
1.0
 70
     8
 71
     3
 72
    11
 73
     7
 74
     5
 42
0.0000000001
 43
0.0000000001
 44
0.00000001
 40
0.0
 40
0.0
 40
0.0
 40
0.0
 40
4.201872109339934
 40
8.403744218512497
 40
12.60656795962933
 40
16.80939170091325
 40
16.80939170091325
 40
16.80939170091325
 40
16.80939170091325
 10
93.44337567297407
 20
512.6933761370819
 30
0.0
 10
93.12201416179548
 20
514.058629477066
 30
0.0
 10
92.47929113945113
 20
516.7891361569798
 30
0.0
 10
92.19341521971148
 20
520.999359534089
 30
0.0
 10
92.47909882095053
 20
525.2099273337195
 30
0.0
 10
93.12195005562862
 20
527.941058353167
 30
0.0
 10
93.44337567297407
 20
529.3066238629181
 30
0.0
 11
93.44337567297407
 21
512.6933761370819
 31
0.0
 11
92.59232950505772
 21
516.8081604137268
 31
0.0
 11
92.28867515051267
 21
520.999046150037
 31
0.0
 11
92.5921941021101
 21
525.1908958187294
 31
0.0
 11
93.44337567297407
 21
529.3066238629181
 31
0.0
  0
SPLINE
  5
4A3
330
1F
100
AcDbEntity
  8
0
  6
Continuous
 62
     3
100
AcDbSpline
210
0.0
220
0.0
230
1.0
 70
     8
 71
     3
 72
     9
 73
     5
 74
     3
 42
0.0000000001
 43
0.0000000001
 44
0.00000001
 40
0.0
 40
0.0
 40
0.0
 40
0.0
 40
2.703258022388528
 40
5.403917929112277
 40
5.403917929112277
 40
5.403917929112277
 40
5.403917929112277
 10
108.1974567503844
 20
518.0000000000035
 30
0.0
 10
108.0845030288004
 20
517.1051049228095
 30
0.0
 10
107.8587041460549
 20
515.3161748568401
 30
0.0
 10
107.4194976609117
 20
513.5673621101128
 30
0.0
 10
107.2
 20
512.6933761370819
 30
0.0
 11
108.1974567503844
 21
518.0000000000035
 31
0.0
 11
107.8051923712519
 21
515.3253537444266
 31
0.0
 11
107.2
 21
512.6933761370819
 31
0.0
  0
SPLINE
  5
4A4
330
1F
100
AcDbEntity
  8
0
  6
Continuous
 62
     3
100
AcDbSpline
210
0.0
220
0.0
230
1.0
 70
     8
 71
     3
 72
    11
 73
     7
 74
     5
 42
0.0000000001
 43
0.0000000001
 44
0.00000001
 40
0.0
 40
0.0
 40
0.0
 40
0.0
 40
4.201872109351507
 40
8.403744218535554
 40
12.6065679596517
 40
16.80939170093542
 40
16.80939170093542
 40
16.80939170093542
 40
16.80939170093542
 10
200.5566243270506
 20
529.306623862945
 30
0.0
 10
200.877985838221
 20
527.9413705229551
 30
0.0
 10
201.5207088605491
 20
525.21086384303
 30
0.0
 10
201.8065847802885
 20
521.0006404659146
 30
0.0
 10
201.5209011790495
 20
516.7900726662801
 30
0.0
 10
200.8780499443714
 20
514.0589416468327
 30
0.0
 10
200.5566243270259
 20
512.6933761370819
 30
0.0
 11
200.5566243270506
 21
529.306623862945
 31
0.0
 11
201.4076704949466
 21
525.1918395862841
 31
0.0
 11
201.7113248494874
 21
521.0009538499621
 31
0.0
 11
201.4078058978899
 21
516.8091041812704
 31
0.0
 11
200.5566243270259
 21
512.6933761370819
 31
0.0
  0
SPLINE
  5
4A5
330
1F
100
AcDbEntity
  8
0
  6
Continuous
 62
     3
100
AcDbSpline
210
0.0
220
0.0
230
1.0
 70
     8
 71
     3
 72
     9
 73
     5
 74
     3
 42
0.0000000001
 43
0.0000000001
 44
0.00000001
 40
0.0
 40
0.0
 40
0.0
 40
0.0
 40
3.31512942050603
 40
6.630258841011992
 40
6.630258841011992
 40
6.630258841011992
 40
6.630258841011992
 10
170.6697411849055
 20
512.999435981427
 30
0.0
 10
171.7747843173543
 20
512.9995699561028
 30
0.0
 10
173.9848705822519
 20
512.9998379054546
 30
0.0
 10
176.1949568607506
 20
512.9999459684849
 30
0.0
 10
177.2999999999999
 20
513.0
 30
0.0
 11
170.6697411849055
 21
512.999435981427
 31
0.0
 11
173.9848705856522
 21
512.9997979338742
 31
0.0
 11
177.2999999999999
 21
513.0
 31
0.0
  0
SPLINE
  5
4A6
330
1F
100
AcDbEntity
  8
0
  6
Continuous
 62
     3
100
AcDbSpline
210
0.0
220
0.0
230
1.0
 70
     8
 71
     3
 72
     9
 73
     5
 74
     3
 42
0.0000000001
 43
0.0000000001
 44
0.00000001
 40
0.0
 40
0.0
 40
0.0
 40
0.0
 40
2.70066079538457
 40
5.403917777889772
 40
5.403917777889772
 40
5.403917777889772
 40
5.403917777889772
 10
186.8
 20
512.6933761370819
 30
0.0
 10
186.5805040309624
 20
513.5673627742992
 30
0.0
 10
186.1413010880069
 20
515.3161762256473
 30
0.0
 10
185.9154981086601
 20
517.1051055919877
 30
0.0
 10
185.8025423780813
 20
517.9999999999959
 30
0.0
 11
186.8
 21
512.6933761370819
 31
0.0
 11
186.1948108345684
 21
515.3253553934157
 31
0.0
 11
185.8025423780813
 21
517.9999999999959
 31
0.0
  0
SPLINE
  5
4A7
330
1F
100
AcDbEntity
  8
0
  6
Continuous
 62
     3
100
AcDbSpline
210
0.0
220
0.0
230
1.0
 70
     8
 71
     3
 72
     9
 73
     5
 74
     3
 42
0.0000000001
 43
0.0000000001
 44
0.00000001
 40
0.0
 40
0.0
 40
0.0
 40
0.0
 40
3.315121723795246
 40
6.630243447590521
 40
6.630243447590521
 40
6.630243447590521
 40
6.630243447590521
 10
116.7
 20
513.0
 30
0.0
 10
117.8050405736791
 20
512.999945968759
 30
0.0
 10
120.0151217210373
 20
512.999837906277
 30
0.0
 10
122.2252028547944
 20
512.9995699573676
 30
0.0
 10
123.330243421673
 20
512.9994359829129
 30
0.0
 11
116.7
 21
513.0
 31
0.0
 11
120.015121717637
 21
512.9997979346701
 31
0.0
 11
123.330243421673
 21
512.9994359829129
 31
0.0
  0
SPLINE
  5
4A8
330
1F
100
AcDbEntity
  8
0
  6
Continuous
 62
     3
100
AcDbSpline
210
0.0
220
0.0
230
1.0
 70
     8
 71
     3
 72
     9
 73
     5
 74
     3
 42
0.0000000001
 43
0.0000000001
 44
0.00000001
 40
0.0
 40
0.0
 40
0.0
 40
0.0
 40
3.315121723795246
 40
6.630243447590521
 40
6.630243447590521
 40
6.630243447590521
 40
6.630243447590521
 10
116.7
 20
551.0
 30
0.0
 10
117.8050405736791
 20
551.000054031241
 30
0.0
 10
120.0151217210373
 20
551.000162093723
 30
0.0
 10
122.2252028547944
 20
551.0004300426324
 30
0.0
 10
123.330243421673
 20
551.000564017087
 30
0.0
 11
116.7
 21
551.0
 31
0.0
 11
120.015121717637
 21
551.0002020653299
 31
0.0
 11
123.330243421673
 21
551.000564017087
 31
0.0
  0
SPLINE
  5
4A9
330
1F
100
AcDbEntity
  8
0
  6
Continuous
 62
     3
100
AcDbSpline
210
0.0
220
0.0
230
1.0
 70
     8
 71
     3
 72
     9
 73
     5
 74
     3
 42
0.0000000001
 43
0.0000000001
 44
0.00000001
 40
0.0
 40
0.0
 40
0.0
 40
0.0
 40
2.70066079538722
 40
5.403917777895005
 40
5.403917777895005
 40
5.403917777895005
 40
5.403917777895005
 10
186.8
 20
551.3066238629181
 30
0.0
 10
186.5805040309623
 20
550.4326372257
 30
0.0
 10
186.1413010880064
 20
548.6838237743502
 30
0.0
 10
185.9154981086597
 20
546.8948944080078
 30
0.0
 10
185.8025423780809
 20
545.9999999999989
 30
0.0
 11
186.8
 21
551.3066238629181
 31
0.0
 11
186.194810834568
 21
548.6746446065816
 31
0.0
 11
185.8025423780809
 21
545.9999999999989
 31
0.0
  0
SPLINE
  5
4AA
330
1F
100
AcDbEntity
  8
0
  6
Continuous
 62
     3
100
AcDbSpline
210
0.0
220
0.0
230
1.0
 70
     8
 71
     3
 72
     9
 73
     5
 74
     3
 42
0.0000000001
 43
0.0000000001
 44
0.00000001
 40
0.0
 40
0.0
 40
0.0
 40
0.0
 40
3.31512942050603
 40
6.630258841011992
 40
6.630258841011992
 40
6.630258841011992
 40
6.630258841011992
 10
170.6697411849055
 20
551.000564018573
 30
0.0
 10
171.7747843173543
 20
551.000430043897
 30
0.0
 10
173.9848705822519
 20
551.0001620945454
 30
0.0
 10
176.1949568607506
 20
551.0000540315152
 30
0.0
 10
177.2999999999999
 20
551.0
 30
0.0
 11
170.6697411849055
 21
551.000564018573
 31
0.0
 11
173.9848705856522
 21
551.0002020661258
 31
0.0
 11
177.2999999999999
 21
551.0
 31
0.0
  0
SPLINE
  5
4AB
330
1F
100
AcDbEntity
  8
0
  6
Continuous
 62
     3
100
AcDbSpline
210
0.0
220
0.0
230
1.0
 70
     8
 71
     3
 72
    11
 73
     7
 74
     5
 42
0.0000000001
 43
0.0000000001
 44
0.00000001
 40
0.0
 40
0.0
 40
0.0
 40
0.0
 40
4.201872109351402
 40
8.403744218535557
 40
12.6065679596517
 40
16.80939170093542
 40
16.80939170093542
 40
16.80939170093542
 40
16.80939170093542
 10
200.5566243270506
 20
534.693376137055
 30
0.0
 10
200.877985838221
 20
536.0586294770447
 30
0.0
 10
201.5207088605492
 20
538.7891361569698
 30
0.0
 10
201.8065847802884
 20
542.9993595340853
 30
0.0
 10
201.5209011790496
 20
547.20992733372
 30
0.0
 10
200.8780499443714
 20
549.9410583531673
 30
0.0
 10
200.5566243270259
 20
551.3066238629181
 30
0.0
 11
200.5566243270506
 21
534.693376137055
 31
0.0
 11
201.4076704949466
 21
538.8081604137158
 31
0.0
 11
201.7113248494873
 21
542.9990461500379
 31
0.0
 11
201.4078058978899
 21
547.1908958187296
 31
0.0
 11
200.5566243270259
 21
551.3066238629181
 31
0.0
  0
SPLINE
  5
4AC
330
1F
100
AcDbEntity
  8
0
  6
Continuous
 62
     3
100
AcDbSpline
210
0.0
220
0.0
230
1.0
 70
     8
 71
     3
 72
     9
 73
     5
 74
     3
 42
0.0000000001
 43
0.0000000001
 44
0.00000001
 40
0.0
 40
0.0
 40
0.0
 40
0.0
 40
2.703258022391126
 40
5.403917929117297
 40
5.403917929117297
 40
5.403917929117297
 40
5.403917929117297
 10
108.1974567503849
 20
545.9999999999915
 30
0.0
 10
108.0845030288008
 20
546.8948950771864
 30
0.0
 10
107.8587041460554
 20
548.6838251431574
 30
0.0
 10
107.4194976609119
 20
550.4326378898863
 30
0.0
 10
107.2
 20
551.3066238629181
 30
0.0
 11
108.1974567503849
 21
545.9999999999915
 31
0.0
 11
107.8051923712523
 21
548.674646255571
 31
0.0
 11
107.2
 21
551.3066238629181
 31
0.0
  0
SPLINE
  5
4AD
330
1F
100
AcDbEntity
  8
0
  6
Continuous
 62
     3
100
AcDbSpline
210
0.0
220
0.0
230
1.0
 70
     8
 71
     3
 72
    11
 73
     7
 74
     5
 42
0.0000000001
 43
0.0000000001
 44
0.00000001
 40
0.0
 40
0.0
 40
0.0
 40
0.0
 40
4.201872109339931
 40
8.403744218512715
 40
12.60656795962943
 40
16.80939170091324
 40
16.80939170091324
 40
16.80939170091324
 40
16.80939170091324
 10
93.44337567297407
 20
551.3066238629181
 30
0.0
 10
93.1220141617955
 20
549.941370522934
 30
0.0
 10
92.4792911394511
 20
547.2108638430202
 30
0.0
 10
92.19341521971158
 20
543.000640465911
 30
0.0
 10
92.47909882095053
 20
538.7900726662806
 30
0.0
 10
93.12195005562859
 20
536.0589416468327
 30
0.0
 10
93.44337567297407
 20
534.6933761370819
 30
0.0
 11
93.44337567297407
 21
551.3066238629181
 31
0.0
 11
92.59232950505773
 21
547.1918395862732
 31
0.0
 11
92.28867515051274
 21
543.0009538499628
 31
0.0
 11
92.59219410211011
 21
538.8091041812705
 31
0.0
 11
93.44337567297407
 21
534.6933761370819
 31
0.0
  0
SPLINE
  5
4AE
330
1F
100
AcDbEntity
  8
0
  6
Continuous
 62
     3
100
AcDbSpline
210
0.0
220
0.0
230
1.0
 70
     8
 71
     3
 72
    11
 73
     7
 74
     5
 42
0.0000000001
 43
0.0000000001
 44
0.00000001
 40
0.0
 40
0.0
 40
0.0
 40
0.0
 40
4.201872109340031
 40
8.403744218512738
 40
12.60656795962912
 40
16.80939170091319
 40
16.80939170091319
 40
16.80939170091319
 40
16.80939170091319
 10
200.5566243270241
 20
243.6933761370819
 30
0.0
 10
200.8779858382026
 20
245.058629477066
 30
0.0
 10
201.5207088605469
 20
247.7891361569798
 30
0.0
 10
201.8065847802869
 20
251.9993595340891
 30
0.0
 10
201.5209011790475
 20
256.2099273337193
 30
0.0
 10
200.8780499443695
 20
258.941058353167
 30
0.0
 10
200.5566243270241
 20
260.306623862918
 30
0.0
 11
200.5566243270241
 21
243.6933761370819
 31
0.0
 11
201.4076704949404
 21
247.8081604137269
 31
0.0
 11
201.7113248494855
 21
251.9990461500372
 31
0.0
 11
201.407805897888
 21
256.1908958187291
 31
0.0
 11
200.5566243270241
 21
260.306623862918
 31
0.0
  0
SPLINE
  5
4AF
330
1F
100
AcDbEntity
  8
0
  6
Continuous
 62
     3
100
AcDbSpline
210
0.0
220
0.0
230
1.0
 70
     8
 71
     3
 72
    11
 73
     7
 74
     5
 42
0.0000000001
 43
0.0000000001
 44
0.00000001
 40
0.0
 40
0.0
 40
0.0
 40
0.0
 40
4.201872109351091
 40
8.403744218534797
 40
12.60656795965123
 40
16.80939170093524
 40
16.80939170093524
 40
16.80939170093524
 40
16.80939170093524
 10
186.7999999999737
 20
260.3066238629448
 30
0.0
 10
186.4786384888032
 20
258.9413705229552
 30
0.0
 10
185.835915466475
 20
256.2108638430303
 30
0.0
 10
185.5500395467357
 20
252.0006404659149
 30
0.0
 10
185.8357231479745
 20
247.7900726662804
 30
0.0
 10
186.4785743826527
 20
245.0589416468329
 30
0.0
 10
186.7999999999982
 20
243.6933761370819
 30
0.0
 11
186.7999999999737
 21
260.3066238629448
 31
0.0
 11
185.9489538320776
 21
256.1918395862843
 31
0.0
 11
185.6452994775368
 21
252.0009538499627
 31
0.0
 11
185.9488184291342
 21
247.8091041812707
 31
0.0
 11
186.7999999999982
 21
243.6933761370819
 31
0.0
  0
SPLINE
  5
4B0
330
1F
100
AcDbEntity
  8
0
  6
Continuous
 62
     3
100
AcDbSpline
210
0.0
220
0.0
230
1.0
 70
     8
 71
     3
 72
    11
 73
     7
 74
     5
 42
0.0000000001
 43
0.0000000001
 44
0.00000001
 40
0.0
 40
0.0
 40
0.0
 40
0.0
 40
4.201872109351096
 40
8.403744218534804
 40
12.60656795965124
 40
16.80939170093525
 40
16.80939170093525
 40
16.80939170093525
 40
16.80939170093525
 10
107.2000000000263
 20
260.3066238629448
 30
0.0
 10
107.5213615111968
 20
258.9413705229551
 30
0.0
 10
108.164084533525
 20
256.2108638430303
 30
0.0
 10
108.4499604532644
 20
252.0006404659148
 30
0.0
 10
108.1642768520254
 20
247.7900726662804
 30
0.0
 10
107.5214256173473
 20
245.058941646833
 30
0.0
 10
107.2000000000018
 20
243.6933761370819
 30
0.0
 11
107.2000000000263
 21
260.3066238629448
 31
0.0
 11
108.0510461679225
 21
256.1918395862843
 31
0.0
 11
108.3547005224632
 21
252.0009538499627
 31
0.0
 11
108.0511815708658
 21
247.8091041812707
 31
0.0
 11
107.2000000000018
 21
243.6933761370819
 31
0.0
  0
SPLINE
  5
4B1
330
1F
100
AcDbEntity
  8
0
  6
Continuous
 62
     3
100
AcDbSpline
210
0.0
220
0.0
230
1.0
 70
     8
 71
     3
 72
    11
 73
     7
 74
     5
 42
0.0000000001
 43
0.0000000001
 44
0.00000001
 40
0.0
 40
0.0
 40
0.0
 40
0.0
 40
4.201872109337748
 40
8.403744218508198
 40
12.60656795962457
 40
16.80939170090861
 40
16.80939170090861
 40
16.80939170090861
 40
16.80939170090861
 10
93.44337567295119
 20
243.6933761370819
 30
0.0
 10
93.12201416178124
 20
245.058629477067
 30
0.0
 10
92.4792911394542
 20
247.789136156983
 30
0.0
 10
92.19341521971293
 20
251.9993595340895
 30
0.0
 10
92.47909882095252
 20
256.2099273337195
 30
0.0
 10
93.12195005563049
 20
258.941058353167
 30
0.0
 10
93.44337567297589
 20
260.306623862918
 30
0.0
 11
93.44337567295119
 21
243.6933761370819
 31
0.0
 11
92.59232950505621
 21
247.808160413729
 31
0.0
 11
92.2886751505145
 21
251.9990461500373
 31
0.0
 11
92.59219410211193
 21
256.1908958187292
 31
0.0
 11
93.44337567297589
 21
260.306623862918
 31
0.0
  0
SPLINE
  5
4B2
330
1F
100
AcDbEntity
  8
0
  6
Continuous
 62
     3
100
AcDbSpline
210
0.0
220
0.0
230
1.0
 70
     8
 71
     3
 72
    75
 73
    71
 74
    69
 42
0.0000000001
 43
0.0000000001
 44
0.00000001
 40
0.0
 40
0.0
 40
0.0
 40
0.0
 40
0.3451518987349917
 40
0.6903037974697892
 40
0.7286860913297695
 40
0.7670654585619735
 40
0.8054417006431022
 40
0.8438187261395331
 40
0.8821954171543948
 40
0.9205718996310538
 40
0.958949547958941
 40
0.9973272480506503
 40
1.035703051413502
 40
1.074078843722671
 40
1.112454378224014
 40
1.150829915815682
 40
1.189205977247835
 40
1.227582038105011
 40
1.265958146719071
 40
1.304334254126083
 40
1.342830836292262
 40
1.381327425954384
 40
1.419824049575142
 40
1.458320670912803
 40
1.496817302111046
 40
1.535313934984675
 40
1.573810526455242
 40
1.612307113479841
 40
1.650802752680503
 40
1.689298396249078
 40
1.727794083866734
 40
1.766289769970156
 40
1.804785270880087
 40
1.843280773562259
 40
1.881776227368192
 40
1.920271675476952
 40
1.958708507778439
 40
1.997145342859449
 40
2.035582221009553
 40
2.074019098009263
 40
2.112456639943653
 40
2.150894183531108
 40
2.189331660614804
 40
2.227769132588405
 40
2.26620776525307
 40
2.304646404461778
 40
2.343085182261218
 40
2.381523951417154
 40
2.419960218540554
 40
2.458396514431362
 40
2.496832465677261
 40
2.53526830935081
 40
2.569496086795125
 40
2.603723780174259
 40
2.637950951803486
 40
2.672178157338791
 40
2.706407003864296
 40
2.740635798244377
 40
2.774865483038774
 40
2.809095343144028
 40
2.851640530968191
 40
2.894185914464753
 40
2.936730952010387
 40
2.979276170210493
 40
3.021821402345299
 40
3.064365719339939
 40
3.106913110467175
 40
3.14946397835627
 40
3.494057609011403
 40
3.83865123992705
 40
3.83865123992705
 40
3.83865123992705
 40
3.83865123992705
 10
164.4127479542029
 20
279.8921908983253
 30
0.0
 10
164.2978464857034
 20
279.8836146773671
 30
0.0
 10
164.0680435487044
 20
279.8664622354506
 30
0.0
 10
163.8314487365687
 20
279.8056920222308
 30
0.0
 10
163.697898844502
 20
279.7616681390034
 30
0.0
 10
163.6616413474505
 20
279.7490735660537
 30
0.0
 10
163.6255837314678
 20
279.7359297237194
 30
0.0
 10
163.5897328611282
 20
279.7222326746402
 30
0.0
 10
163.5540963492377
 20
279.7079874921288
 30
0.0
 10
163.5186824012871
 20
279.6931970127108
 30
0.0
 10
163.4834992744839
 20
279.6778647461149
 30
0.0
 10
163.448555903735
 20
279.6619941824666
 30
0.0
 10
163.4138610785306
 20
279.6455888336352
 30
0.0
 10
163.3794228650762
 20
279.6286530660734
 30
0.0
 10
163.3452486556639
 20
279.6111908988958
 30
0.0
 10
163.3113462406401
 20
279.5932065458907
 30
0.0
 10
163.2777234920686
 20
279.5747042498252
 30
0.0
 10
163.2443883727416
 20
279.5556882384807
 30
0.0
 10
163.211349015295
 20
279.5361628437001
 30
0.0
 10
163.1785791598756
 20
279.516111354851
 30
0.0
 10
163.1460879742454
 20
279.495536203839
 30
0.0
 10
163.1138840627465
 20
279.4744408641203
 30
0.0
 10
163.0820087991169
 20
279.4528521222684
 30
0.0
 10
163.0504696181429
 20
279.4307752731325
 30
0.0
 10
163.0192739573968
 20
279.4082156146101
 30
0.0
 10
162.9884292577473
 20
279.3851784438359
 30
0.0
 10
162.9579429580857
 20
279.3616690579109
 30
0.0
 10
162.9278227505588
 20
279.337692954916
 30
0.0
 10
162.8980760765519
 20
279.3132554537331
 30
0.0
 10
162.8687096648632
 20
279.2883627513941
 30
0.0
 10
162.8397300055717
 20
279.2630208252937
 30
0.0
 10
162.8111438703345
 20
279.2372358874603
 30
0.0
 10
162.7829579861111
 20
279.2110141154462
 30
0.0
 10
162.7551790872377
 20
279.1843616807369
 30
0.0
 10
162.7278138593481
 20
279.1572847065626
 30
0.0
 10
162.700882716569
 20
279.1298033199334
 30
0.0
 10
162.674391646122
 20
279.10192443024
 30
0.0
 10
162.6483458164143
 20
279.0736556743627
 30
0.0
 10
162.6227376933313
 20
279.0449897906809
 30
0.0
 10
162.5975730494218
 20
279.0159335069853
 30
0.0
 10
162.5728578158215
 20
278.9864937173056
 30
0.0
 10
162.5485979100351
 20
278.9566773393152
 30
0.0
 10
162.5247993734003
 20
278.9264914588248
 30
0.0
 10
162.5014678782123
 20
278.895942691266
 30
0.0
 10
162.4786093492305
 20
278.8650379457522
 30
0.0
 10
162.4562287350379
 20
278.8337848346139
 30
0.0
 10
162.4343312128617
 20
278.8021913109154
 30
0.0
 10
162.4129221784466
 20
278.7702657006758
 30
0.0
 10
162.3920065382105
 20
278.7380156829579
 30
0.0
 10
162.3715893097072
 20
278.7054489438854
 30
0.0
 10
162.3516750562854
 20
278.6725724070492
 30
0.0
 10
162.3329769856597
 20
278.6406044578569
 30
0.0
 10
162.3154367018555
 20
278.6095892314994
 30
0.0
 10
162.2989967492174
 20
278.5795671286877
 30
0.0
 10
162.2829695555129
 20
278.5493228874784
 30
0.0
 10
162.2673577906027
 20
278.5188616941786
 30
0.0
 10
162.2521643508214
 20
278.4881891009313
 30
0.0
 10
162.2373920231314
 20
278.4573105769748
 30
0.0
 10
162.2230439215083
 20
278.42623226989
 30
0.0
 10
162.2079956947045
 20
278.3924276904099
 30
0.0
 10
162.1923805184798
 20
278.355845531859
 30
0.0
 10
162.176345595572
 20
278.316435531876
 30
0.0
 10
162.1609829545738
 20
278.2767585821962
 30
0.0
 10
162.1462969355611
 20
278.2368263689847
 30
0.0
 10
162.1322910501383
 20
278.1966505705856
 30
0.0
 10
162.1189719169988
 20
278.1562419848655
 30
0.0
 10
162.1063351596097
 20
278.1156098264091
 30
0.0
 10
162.066221324782
 20
277.9781323820327
 30
0.0
 10
162.0136204970985
 20
277.738548163064
 30
0.0
 10
162.0045382682171
 20
277.5086586082354
 30
0.0
 10
161.9999971537747
 20
277.3937138307776
 30
0.0
 11
164.4127479542029
 21
279.8921908983253
 31
0.0
 11
164.0694611367125
 21
279.8563580343919
 31
0.0
 11
163.7343771123372
 21
279.7736021898328
 31
0.0
 11
163.6979291781136
 21
279.7615710397304
 31
0.0
 11
163.6616734032447
 21
279.7489815751748
 31
0.0
 11
163.6256182940189
 21
279.7358375630404
 31
0.0
 11
163.589768496285
 21
279.7221412829471
 31
0.0
 11
163.5541334106689
 21
279.7078965966964
 31
0.0
 11
163.5187212804402
 21
279.6931068894665
 31
0.0
 11
163.4835392156513
 21
279.6777750204229
 31
0.0
 11
163.4485966608183
 21
279.6619047423512
 31
0.0
 11
163.4139037351657
 21
279.6455003772796
 31
0.0
 11
163.3794667757247
 21
279.6285652876779
 31
0.0
 11
163.3452939687499
 21
279.6111038756007
 31
0.0
 11
163.3113930310659
 21
279.593120318956
 31
0.0
 11
163.2777714578833
 21
279.5746186458486
 31
0.0
 11
163.2444376823638
 21
279.5556033505175
 31
0.0
 11
163.2113996434824
 21
279.5360786559174
 31
0.0
 11
163.1786653797508
 21
279.5160488382032
 31
0.0
 11
163.1461415121346
 21
279.4954530892787
 31
0.0
 11
163.1139388486258
 21
279.4743586379099
 31
0.0
 11
163.0820648141724
 21
279.452770771923
 31
0.0
 11
163.0505268746102
 21
279.4306948071064
 31
0.0
 11
163.0193324500388
 21
279.4081360285652
 31
0.0
 11
162.9884889781317
 21
279.3850997314815
 31
0.0
 11
162.9580039290591
 21
279.361591236466
 31
0.0
 11
162.9278847195286
 21
279.3376158234394
 31
0.0
 11
162.8981394160868
 21
279.3131795561176
 31
0.0
 11
162.8687741366996
 21
279.2882878920457
 31
0.0
 11
162.8397955866759
 21
279.2629469843334
 31
0.0
 11
162.8112105257403
 21
279.2371630331257
 31
0.0
 11
162.7830258080112
 21
279.2109423299155
 31
0.0
 11
162.7552480186338
 21
279.1842909107402
 31
0.0
 11
162.7278839240387
 21
279.1572149751015
 31
0.0
 11
162.7009402329137
 21
279.1297206659875
 31
0.0
 11
162.6744636120437
 21
279.101857094345
 31
0.0
 11
162.6484187788347
 21
279.073589498866
 31
0.0
 11
162.6228116320106
 21
279.0449247533857
 31
0.0
 11
162.5976481189402
 21
279.015869786109
 31
0.0
 11
162.5729337256212
 21
278.9864309785103
 31
0.0
 11
162.5486747886079
 21
278.9566157352273
 31
0.0
 11
162.5248772492762
 21
278.9264310244234
 31
0.0
 11
162.5015469771631
 21
278.8958837224992
 31
0.0
 11
162.4786890460227
 21
278.8649799449775
 31
0.0
 11
162.4563092813541
 21
278.8337281431479
 31
0.0
 11
162.4344125525604
 21
278.8021358512581
 31
0.0
 11
162.4130038757058
 21
278.7702108214295
 31
0.0
 11
162.3920895270388
 21
278.737962772648
 31
0.0
 11
162.3716730663211
 21
278.7053971930651
 31
0.0
 11
162.3517596857623
 21
278.67252198017
 31
0.0
 11
162.3323542700521
 21
278.6393445191458
 31
0.0
 11
162.3155049737628
 21
278.6095511983619
 31
0.0
 11
162.2990654447781
 21
278.5795299245578
 31
0.0
 11
162.2830388277488
 21
278.5492867960105
 31
0.0
 11
162.2674277982041
 21
278.5188270298376
 31
0.0
 11
162.2522345891095
 21
278.4881548872343
 31
0.0
 11
162.2374628776031
 21
278.4572775994019
 31
0.0
 11
162.223115159146
 21
278.4262000464706
 31
0.0
 11
162.2091946230339
 21
278.3949286218599
 31
0.0
 11
162.1924919505368
 21
278.3557991733787
 31
0.0
 11
162.1764576006353
 21
278.3163909346448
 31
0.0
 11
162.1610957430415
 21
278.2767160868061
 31
0.0
 11
162.1464102797141
 21
278.2367857379652
 31
0.0
 11
162.1324054482864
 21
278.1966115985956
 31
0.0
 11
162.1190860524031
 21
278.1562059974759
 31
0.0
 11
162.1064556151956
 21
278.1155765432871
 31
0.0
 11
162.0945189009172
 21
278.0747342709415
 31
0.0
 11
162.0237354569643
 21
277.7374888494007
 31
0.0
 11
161.9999971537747
 21
277.3937138307776
 31
0.0
  0
SPLINE
  5
4B3
330
1F
100
AcDbEntity
  8
0
  6
Continuous
 62
     3
100
AcDbSpline
210
0.0
220
0.0
230
1.0
 70
     8
 71
     3
 72
   107
 73
   103
 74
   101
 42
0.0000000001
 43
0.0000000001
 44
0.00000001
 40
0.0
 40
0.0
 40
0.0
 40
0.0
 40
0.1500832031026871
 40
0.3001664062056059
 40
0.3194879806833736
 40
0.3388090741503698
 40
0.3581297074887497
 40
0.377450469918255
 40
0.3967716106049915
 40
0.416092715865566
 40
0.4354140163553617
 40
0.4547353295155779
 40
0.4743639179795279
 40
0.4939925065864104
 40
0.5136210584236541
 40
0.5332496103231708
 40
0.5528781113254769
 40
0.5725066119683958
 40
0.592135124229814
 40
0.611763637842866
 40
0.6316455290601877
 40
0.6515274241812964
 40
0.6714093315506818
 40
0.691291238049199
 40
0.7111733455983651
 40
0.7310554527334843
 40
0.7509375655153869
 40
0.770819680826151
 40
0.79089606170817
 40
0.810972444074299
 40
0.8310488330103165
 40
0.8511252215468349
 40
0.8712014889088712
 40
0.8912777563841402
 40
0.9113540183404992
 40
0.9314302802377366
 40
0.9516384497055297
 40
0.9718466220598211
 40
0.9920548078440831
 40
1.012262992947547
 40
1.03247137027862
 40
1.052679747450534
 40
1.072888125712412
 40
1.093096505295322
 40
1.113371576001959
 40
1.133646646799956
 40
1.153921720555886
 40
1.174196794185298
 40
1.194471703140323
 40
1.214746612507627
 40
1.235021511970421
 40
1.255296409905563
 40
1.275571602328504
 40
1.295846796285453
 40
1.316122000137113
 40
1.336397203575366
 40
1.356672571579249
 40
1.376947939708319
 40
1.397223304874932
 40
1.417498669956891
 40
1.437707897117773
 40
1.457917122962926
 40
1.478126347698982
 40
1.498335572593332
 40
1.518544605273119
 40
1.538753638631797
 40
1.55896265857267
 40
1.57917167563568
 40
1.599249235547278
 40
1.619326795521167
 40
1.639404360985572
 40
1.659481926336446
 40
1.679559612661877
 40
1.699637299385252
 40
1.719714979549496
 40
1.73979265823623
 40
1.759676358879302
 40
1.77956005699693
 40
1.799443749441627
 40
1.819327442300106
 40
1.839210934243124
 40
1.859094427054916
 40
1.878977907642398
 40
1.898861384334704
 40
1.918491561689521
 40
1.938121737692555
 40
1.95775190206084
 40
1.977382066788634
 40
1.99701228219198
 40
2.016642497532887
 40
2.036272749585074
 40
2.055903001495137
 40
2.075225815837204
 40
2.094548617525982
 40
2.11387122428111
 40
2.133193866402591
 40
2.152516130830058
 40
2.171838266389261
 40
2.191160861292089
 40
2.210483936373837
 40
2.360573200051267
 40
2.510662463728284
 40
2.510662463728284
 40
2.510662463728284
 40
2.510662463728284
 10
126.4999999999999
 20
275.6469662896008
 30
0.0
 10
126.4989202741261
 20
275.5969284401699
 30
0.0
 10
126.4967608223786
 20
275.496852741308
 30
0.0
 10
126.4842411472255
 20
275.3909157388745
 30
0.0
 10
126.474541307393
 20
275.3287621678788
 30
0.0
 10
126.4713709339742
 20
275.3097023252515
 30
0.0
 10
126.4680179871039
 20
275.2906744395482
 30
0.0
 10
126.4644807540392
 20
275.2716798185595
 30
0.0
 10
126.4607602844817
 20
275.2527201087668
 30
0.0
 10
126.45685690037
 20
275.2337970189056
 30
0.0
 10
126.4527711544713
 20
275.2149124076013
 30
0.0
 10
126.4484808842144
 20
275.19596810292
 30
0.0
 10
126.4439831990918
 20
275.176966679129
 30
0.0
 10
126.4392750277272
 20
275.1579108019797
 30
0.0
 10
126.4343802926025
 20
275.1389020027269
 30
0.0
 10
126.4292993301859
 20
275.1199421616926
 30
0.0
 10
126.4240324708068
 20
275.1010331348277
 30
0.0
 10
126.4185800441294
 20
275.0821767923372
 30
0.0
 10
126.4129423769622
 20
275.0633749967374
 30
0.0
 10
126.4070947485222
 20
275.0445489753935
 30
0.0
 10
126.401034703597
 20
275.0257015013754
 30
0.0
 10
126.3947602962142
 20
275.0068352680129
 30
0.0
 10
126.3882982351326
 20
274.9880324783153
 30
0.0
 10
126.38164935149
 20
274.9692948620347
 30
0.0
 10
126.3748144955807
 20
274.9506242089572
 30
0.0
 10
126.3677945133705
 20
274.9320222977663
 30
0.0
 10
126.3605902744073
 20
274.9134909653119
 30
0.0
 10
126.3531785637826
 20
274.8949718626984
 30
0.0
 10
126.3455581382988
 20
274.8764676011764
 30
0.0
 10
126.3377275443813
 20
274.8579809445642
 30
0.0
 10
126.3297120835668
 20
274.83957368531
 30
0.0
 10
126.3215124176992
 20
274.8212477810036
 30
0.0
 10
126.3131291963465
 20
274.8030051580794
 30
0.0
 10
126.3045630711518
 20
274.7848477484098
 30
0.0
 10
126.2958146777616
 20
274.7667774522675
 30
0.0
 10
126.2868651142487
 20
274.7487568329432
 30
0.0
 10
126.2777136482093
 20
274.7307885368883
 30
0.0
 10
126.2683600916975
 20
274.7128749854557
 30
0.0
 10
126.2588256013966
 20
274.6950570724828
 30
0.0
 10
126.2491113444602
 20
274.6773364498465
 30
0.0
 10
126.23921851515
 20
274.6597148230044
 30
0.0
 10
126.229148302111
 20
274.6421938873057
 30
0.0
 10
126.2189019242929
 20
274.6247753876457
 30
0.0
 10
126.2084691035672
 20
274.6074419621257
 30
0.0
 10
126.1978503528037
 20
274.590195697579
 30
0.0
 10
126.1870459624803
 20
274.573038841907
 30
0.0
 10
126.1760685517831
 20
274.5559921687285
 30
0.0
 10
126.1649191178201
 20
274.5390575717898
 30
0.0
 10
126.1535986328687
 20
274.5222369035737
 30
0.0
 10
126.1421080740604
 20
274.5055320241488
 30
0.0
 10
126.1304483890295
 20
274.4889447529064
 30
0.0
 10
126.1186205024818
 20
274.4724768812014
 30
0.0
 10
126.1066253970565
 20
274.4561302875085
 30
0.0
 10
126.094464553182
 20
274.4399064889454
 30
0.0
 10
126.0821395081001
 20
274.4238070745911
 30
0.0
 10
126.0696517023866
 20
274.407833505628
 30
0.0
 10
126.0570026060363
 20
274.3919872837225
 30
0.0
 10
126.044193683237
 20
274.3762699034532
 30
0.0
 10
126.0312264295932
 20
274.3606828956324
 30
0.0
 10
126.0181165733637
 20
274.345244548341
 30
0.0
 10
126.0048661605035
 20
274.3299558342972
 30
0.0
 10
125.9914770147639
 20
274.3148178880145
 30
0.0
 10
125.9779359352479
 20
274.2998156949886
 30
0.0
 10
125.9642442067203
 20
274.2849509506258
 30
0.0
 10
125.9504030761134
 20
274.2702253060546
 30
0.0
 10
125.9364137981302
 20
274.2556404207602
 30
0.0
 10
125.9222775848176
 20
274.2411979117452
 30
0.0
 10
125.9080266628816
 20
274.2269304506117
 30
0.0
 10
125.8936633913559
 20
274.2128386081721
 30
0.0
 10
125.8791905113791
 20
274.1989225079178
 30
0.0
 10
125.8645783909676
 20
274.1851526831373
 30
0.0
 10
125.8498286420161
 20
274.1715303226816
 30
0.0
 10
125.8349429013609
 20
274.1580566402571
 30
0.0
 10
125.8199228012215
 20
274.1447328458267
 30
0.0
 10
125.8047699994901
 20
274.1315601705472
 30
0.0
 10
125.7895353404527
 20
274.1185817457021
 30
0.0
 10
125.7742219007984
 20
274.1057970441341
 30
0.0
 10
125.7588325465325
 20
274.0932056920648
 30
0.0
 10
125.7433190644461
 20
274.0807675992445
 30
0.0
 10
125.7276829324388
 20
274.0684841572402
 30
0.0
 10
125.7119255803463
 20
274.0563567171301
 30
0.0
 10
125.6960484471319
 20
274.0443866374699
 30
0.0
 10
125.6800529205581
 20
274.0325752399596
 30
0.0
 10
125.6640088640968
 20
274.0209733663582
 30
0.0
 10
125.6479194401776
 20
274.0095799985384
 30
0.0
 10
125.6317880439673
 20
273.9983936601408
 30
0.0
 10
125.6155474581089
 20
273.9873664537496
 30
0.0
 10
125.5991993516948
 20
273.9764992637249
 30
0.0
 10
125.582745400121
 20
273.965792979439
 30
0.0
 10
125.5661872649913
 20
273.9552484864404
 30
0.0
 10
125.5495266290377
 20
273.9448666835766
 30
0.0
 10
125.5328526593161
 20
273.934701800565
 30
0.0
 10
125.5161688407659
 20
273.9247517401578
 30
0.0
 10
125.4994785147448
 20
273.9150145495667
 30
0.0
 10
125.482695160799
 20
273.9054387065182
 30
0.0
 10
125.465820373199
 20
273.896025309417
 30
0.0
 10
125.4488556753598
 20
273.88677519101
 30
0.0
 10
125.431802306123
 20
273.8776898560948
 30
0.0
 10
125.4146620385782
 20
273.86876808048
 30
0.0
 10
125.3585721016995
 20
273.8402820675498
 30
0.0
 10
125.2617286803505
 20
273.7955423238343
 30
0.0
 10
125.1672497673607
 20
273.7624615572668
 30
0.0
 10
125.1200103108658
 20
273.745921173983
 30
0.0
 11
126.4999999999999
 21
275.6469662896008
 31
0.0
 11
126.4943600536448
 21
275.4969890951389
 31
0.0
 11
126.4774935566069
 21
275.347856640149
 31
0.0
 11
126.4745094039099
 21
275.3287669027757
 31
0.0
 11
126.4713404717178
 21
275.3097074557344
 31
0.0
 11
126.4679872811008
 21
275.2906800285493
 31
0.0
 11
126.464450243186
 21
275.2716857866943
 31
0.0
 11
126.4607298022423
 21
275.2527262298266
 31
0.0
 11
126.4568265221867
 21
275.2338035050414
 31
0.0
 11
126.4527408410076
 21
275.2149191236133
 31
0.0
 11
126.4484732727492
 21
275.1960749997707
 31
0.0
 11
126.4439520496992
 21
275.176974213734
 31
0.0
 11
126.4392439302721
 21
275.1579186344419
 31
0.0
 11
126.4343492534853
 21
275.1389101577439
 31
0.0
 11
126.429268342137
 21
275.1199506116116
 31
0.0
 11
126.4240015423062
 21
275.1010419133185
 31
0.0
 11
126.4185491720069
 21
275.0821858878728
 31
0.0
 11
126.4129115593987
 21
275.0633844034187
 31
0.0
 11
126.407089040353
 21
275.0446393555761
 31
0.0
 11
126.4010032860703
 21
275.0257117779924
 31
0.0
 11
126.3947290221762
 21
275.0068458466294
 31
0.0
 11
126.3882671018839
 21
274.9880433514019
 31
0.0
 11
126.3816183826007
 21
274.9693060960557
 31
0.0
 11
126.3747836450916
 21
274.9506356765698
 31
0.0
 11
126.36776380474
 21
274.9320340630492
 31
0.0
 11
126.3605597064809
 21
274.9135030248444
 31
0.0
 11
126.3531721973456
 21
274.8950443353458
 31
0.0
 11
126.3455272203864
 21
274.876480515787
 31
0.0
 11
126.3376967342634
 21
274.8579941798604
 31
0.0
 11
126.3296813800581
 21
274.8395872385155
 31
0.0
 11
126.3214818056501
 21
274.8212616183024
 31
0.0
 11
126.3130987094495
 21
274.8030193539341
 31
0.0
 11
126.304532692195
 21
274.7848622653973
 31
0.0
 11
126.2957844088776
 21
274.7667922949175
 31
0.0
 11
126.2868545128084
 21
274.7488113814824
 31
0.0
 11
126.277683293206
 21
274.7308041928001
 31
0.0
 11
126.2683299385631
 21
274.7128909299252
 31
0.0
 11
126.2587956456502
 21
274.6950732973287
 31
0.0
 11
126.249081618641
 21
274.6773530144743
 31
0.0
 11
126.2391889564228
 21
274.6597316141726
 31
0.0
 11
126.2291189415603
 21
274.6422109604008
 31
0.0
 11
126.2188727614499
 21
274.6247927416308
 31
0.0
 11
126.2084516016688
 21
274.607478642342
 31
0.0
 11
126.1978213555818
 21
274.5902137542656
 31
0.0
 11
126.1870171263681
 21
274.5730572066245
 31
0.0
 11
126.1760398762701
 21
274.5560108405574
 31
0.0
 11
126.1648905738445
 21
274.5390765066142
 31
0.0
 11
126.1535702818961
 21
274.5222561937949
 31
0.0
 11
126.1420798841218
 21
274.5055516222996
 31
0.0
 11
126.1304203643271
 21
274.4889646651832
 31
0.0
 11
126.1185926999515
 21
274.472497186879
 31
0.0
 11
126.1065977843458
 21
274.4561507674729
 31
0.0
 11
126.0944371886748
 21
274.4399272227641
 31
0.0
 11
126.082112387195
 21
274.4238280563351
 31
0.0
 11
126.0696248602756
 21
274.4078547803436
 31
0.0
 11
126.0569759739251
 21
274.3920087643842
 31
0.0
 11
126.044167294032
 21
274.376291631307
 31
0.0
 11
126.0312002839973
 21
274.3607048714321
 31
0.0
 11
126.0180764001188
 21
274.3452499660248
 31
0.0
 11
126.004840631488
 21
274.3299781851465
 31
0.0
 11
125.9914516921379
 21
274.3148405131874
 31
0.0
 11
125.9779108198448
 21
274.2998385952443
 31
0.0
 11
125.9642192554859
 21
274.2849740792335
 31
0.0
 11
125.9503783772361
 21
274.2702487578065
 31
0.0
 11
125.9363893051919
 21
274.2556641463055
 31
0.0
 11
125.9222533041878
 21
274.2412219178561
 31
0.0
 11
125.9079716269994
 21
274.2269237337988
 31
0.0
 11
125.8936399102825
 21
274.212862784046
 31
0.0
 11
125.8791673061845
 21
274.1989468886337
 31
0.0
 11
125.8645554580047
 21
274.1851772652638
 31
0.0
 11
125.8498060114647
 21
274.1715551341096
 31
0.0
 11
125.8349205129391
 21
274.1580816259611
 31
0.0
 11
125.8199006823275
 21
274.1447580306295
 31
0.0
 11
125.8047481523763
 21
274.1315855564179
 31
0.0
 11
125.7894645430189
 21
274.1185654002568
 31
0.0
 11
125.7742009746933
 21
274.1058223616383
 31
0.0
 11
125.7588118567574
 21
274.09323123381
 31
0.0
 11
125.7432986138952
 21
274.0807933673879
 31
0.0
 11
125.7276626674663
 21
274.0685101096375
 31
0.0
 11
125.7119056077068
 21
274.0563829368597
 31
0.0
 11
125.6960287109596
 21
274.0444130815525
 31
0.0
 11
125.6800334271495
 21
274.0326019132739
 31
0.0
 11
125.6639211942868
 21
274.020950793261
 31
0.0
 11
125.6479009592875
 21
274.0096063702458
 31
0.0
 11
125.6317698419167
 21
273.9984201795502
 31
0.0
 11
125.6155295399421
 21
273.9873931244174
 31
0.0
 11
125.5991817273139
 21
273.9765260921862
 31
0.0
 11
125.5827280402547
 21
273.9658199472714
 31
0.0
 11
125.5661701935906
 21
273.9552756090665
 31
0.0
 11
125.549509824626
 21
273.9448939472729
 31
0.0
 11
125.5327486300126
 21
273.9346758679433
 31
0.0
 11
125.5161530731934
 21
273.9247784618207
 31
0.0
 11
125.4994629455275
 21
273.9150414035585
 31
0.0
 11
125.482679906104
 21
273.9054657720117
 31
0.0
 11
125.4658052549724
 21
273.8960524491264
 31
0.0
 11
125.4488408567777
 21
273.8868026331013
 31
0.0
 11
125.4317879984745
 21
273.8777172081658
 31
0.0
 11
125.4146476601204
 21
273.8687969237038
 31
0.0
 11
125.3974213230888
 21
273.8600428079238
 31
0.0
 11
125.2608555638436
 21
273.7977806165633
 31
0.0
 11
125.1200103108658
 21
273.745921173983
 31
0.0
  0
SPLINE
  5
4B4
330
1F
100
AcDbEntity
  8
0
  6
Continuous
 62
     3
100
AcDbSpline
210
0.0
220
0.0
230
1.0
 70
    24
 71
     3
 72
    43
 73
    39
 74
    37
 42
0.0000000001
 43
0.0000000001
 44
0.00000001
 40
0.0
 40
0.0
 40
0.0
 40
0.0
 40
1.837557378088336
 40
3.675114756176733
 40
3.904809428437773
 40
4.134504100698767
 40
4.364198772959784
 40
4.593893445220841
 40
4.823588117481806
 40
5.053282789742845
 40
5.282977462003897
 40
5.512672134264914
 40
5.742366806525993
 40
5.97206147878705
 40
6.201756151048165
 40
6.431450823309177
 40
6.661145495570256
 40
6.890840167831233
 40
7.120534840092308
 40
7.350229512353303
 40
7.579924184614417
 40
7.809618856875474
 40
8.039313529136576
 40
8.269008201397634
 40
8.498702873658754
 40
8.728397545919748
 40
8.958092218180788
 40
9.187786890441805
 40
9.417481562702822
 40
9.647176234963862
 40
9.87687090722494
 40
10.10656557948594
 40
10.33626025174694
 40
10.56595492400785
 40
10.79564959626897
 40
11.02534426853001
 40
12.86290164661839
 40
14.70045902470679
 40
14.70045902470679
 40
14.70045902470679
 40
14.70045902470679
 10
175.9437420020795
 20
231.9412182612879
 30
0.0
 10
175.4609247620734
 20
231.564300243007
 30
0.0
 10
174.4952902820612
 20
230.8104642064452
 30
0.0
 10
173.4693036470485
 20
230.0095134175983
 30
0.0
 10
172.8657820970407
 20
229.5383658947471
 30
0.0
 10
172.6847256320385
 20
229.3970216378919
 30
0.0
 10
172.5036691670362
 20
229.2556773810365
 30
0.0
 10
172.322612702034
 20
229.1143331241811
 30
0.0
 10
172.1415562370318
 20
228.9729888673261
 30
0.0
 10
171.9604997720294
 20
228.8316446104705
 30
0.0
 10
171.7794433070272
 20
228.6903003536154
 30
0.0
 10
171.5983868420248
 20
228.5489560967598
 30
0.0
 10
171.4173303770227
 20
228.4076118399046
 30
0.0
 10
171.2362739120202
 20
228.2662675830491
 30
0.0
 10
171.0552174470181
 20
228.1249233261939
 30
0.0
 10
170.8741609820157
 20
227.9835790693384
 30
0.0
 10
170.6931045170135
 20
227.8422348124832
 30
0.0
 10
170.5120480520112
 20
227.7008905556278
 30
0.0
 10
170.330991587009
 20
227.5595462987724
 30
0.0
 10
170.1499351220068
 20
227.4182020419171
 30
0.0
 10
169.9688786570044
 20
227.2768577850618
 30
0.0
 10
169.7878221920021
 20
227.1355135282064
 30
0.0
 10
169.6067657269998
 20
226.9941692713511
 30
0.0
 10
169.4257092619974
 20
226.8528250144957
 30
0.0
 10
169.2446527969952
 20
226.7114807576404
 30
0.0
 10
169.0635963319929
 20
226.5701365007849
 30
0.0
 10
168.8825398669907
 20
226.4287922439297
 30
0.0
 10
168.7014834019884
 20
226.2874479870744
 30
0.0
 10
168.5204269369862
 20
226.146103730219
 30
0.0
 10
168.3393704719838
 20
226.0047594733638
 30
0.0
 10
168.1583140069816
 20
225.8634152165084
 30
0.0
 10
167.9772575419793
 20
225.7220709596531
 30
0.0
 10
167.7962010769771
 20
225.5807267027978
 30
0.0
 10
167.6151446119748
 20
225.4393824459425
 30
0.0
 10
167.4340881469726
 20
225.2980381890872
 30
0.0
 10
166.8305665969648
 20
224.826890666236
 30
0.0
 10
165.8045799619521
 20
224.0259398773891
 30
0.0
 10
164.8389454819398
 20
223.2721038408273
 30
0.0
 10
164.3561282419337
 20
222.8951858225464
 30
0.0
 11
175.9437420020795
 21
231.9412182612879
 31
0.0
 11
174.4952902820613
 21
230.8104642064452
 31
0.0
 11
173.046838562043
 21
229.6797101516025
 31
0.0
 11
172.8657820970407
 21
229.5383658947472
 31
0.0
 11
172.6847256320385
 21
229.3970216378918
 31
0.0
 11
172.5036691670363
 21
229.2556773810365
 31
0.0
 11
172.322612702034
 21
229.1143331241812
 31
0.0
 11
172.1415562370317
 21
228.9729888673259
 31
0.0
 11
171.9604997720294
 21
228.8316446104706
 31
0.0
 11
171.7794433070272
 21
228.6903003536152
 31
0.0
 11
171.5983868420249
 21
228.5489560967599
 31
0.0
 11
171.4173303770226
 21
228.4076118399046
 31
0.0
 11
171.2362739120203
 21
228.2662675830492
 31
0.0
 11
171.055217447018
 21
228.1249233261938
 31
0.0
 11
170.8741609820158
 21
227.9835790693385
 31
0.0
 11
170.6931045170135
 21
227.8422348124831
 31
0.0
 11
170.5120480520112
 21
227.7008905556278
 31
0.0
 11
170.330991587009
 21
227.5595462987725
 31
0.0
 11
170.1499351220067
 21
227.4182020419171
 31
0.0
 11
169.9688786570044
 21
227.2768577850617
 31
0.0
 11
169.7878221920021
 21
227.1355135282064
 31
0.0
 11
169.6067657269998
 21
226.994169271351
 31
0.0
 11
169.4257092619975
 21
226.8528250144957
 31
0.0
 11
169.2446527969952
 21
226.7114807576403
 31
0.0
 11
169.0635963319929
 21
226.570136500785
 31
0.0
 11
168.8825398669906
 21
226.4287922439297
 31
0.0
 11
168.7014834019884
 21
226.2874479870744
 31
0.0
 11
168.5204269369861
 21
226.146103730219
 31
0.0
 11
168.3393704719838
 21
226.0047594733637
 31
0.0
 11
168.1583140069815
 21
225.8634152165084
 31
0.0
 11
167.9772575419793
 21
225.7220709596531
 31
0.0
 11
167.796201076977
 21
225.5807267027978
 31
0.0
 11
167.6151446119748
 21
225.4393824459425
 31
0.0
 11
167.4340881469725
 21
225.2980381890871
 31
0.0
 11
167.2530316819702
 21
225.1566939322318
 31
0.0
 11
165.804579961952
 21
224.0259398773891
 31
0.0
 11
164.3561282419337
 21
222.8951858225464
 31
0.0
  0
SPLINE
  5
4B5
330
1F
100
AcDbEntity
  8
0
  6
Continuous
 62
     3
100
AcDbSpline
210
0.0
220
0.0
230
1.0
 70
     8
 71
     3
 72
   107
 73
   103
 74
   101
 42
0.0000000001
 43
0.0000000001
 44
0.00000001
 40
0.0
 40
0.0
 40
0.0
 40
0.0
 40
0.1799220911517661
 40
0.3598441823037065
 40
0.3829472748260775
 40
0.4060498377343899
 40
0.4291518924911319
 40
0.4522540893626545
 40
0.4753566863857711
 40
0.4984592444914666
 40
0.5215620167631979
 40
0.5446648026462418
 40
0.5681019058797223
 40
0.5915390089754715
 40
0.6149760705475977
 40
0.6384131322549967
 40
0.6618501422106154
 40
0.6852871517951238
 40
0.7087241741661944
 40
0.7321611978625736
 40
0.7558733374545882
 40
0.7795854809279869
 40
0.803297636242145
 40
0.8270097906903913
 40
0.8507221466984247
 40
0.8744345022949783
 40
0.8981468635901592
 40
0.9218592273982525
 40
0.9457822907334683
 40
0.9697053555207673
 40
0.993628426693174
 40
1.017551497473724
 40
1.041474446270706
 40
1.065397395181779
 40
1.089320338593625
 40
1.113243281935193
 40
1.137309265869435
 40
1.161375252657764
 40
1.185441252701556
 40
1.209507252072658
 40
1.23357344255954
 40
1.257639632887001
 40
1.281705824317438
 40
1.305772017061435
 40
1.329910726321106
 40
1.35404943566267
 40
1.378188147844364
 40
1.402326859903576
 40
1.4264654080876
 40
1.450603956677272
 40
1.474742495500309
 40
1.498881032818471
 40
1.523020350893206
 40
1.547159670488346
 40
1.57129899982222
 40
1.595438328747405
 40
1.619577821244104
 40
1.643717313860026
 40
1.66785680362008
 40
1.691996293314323
 40
1.716064735126763
 40
1.740133175638892
 40
1.764201614997848
 40
1.788270054514052
 40
1.812338302910411
 40
1.836406551974911
 40
1.860474787808388
 40
1.884543020808371
 40
1.908469414043792
 40
1.932395807357027
 40
1.956322206097302
 40
1.980248604722515
 40
2.004175124802782
 40
2.028101645271129
 40
2.052028159375237
 40
2.075954672043151
 40
2.099671259636614
 40
2.123387844725297
 40
2.147104424049275
 40
2.170821003783891
 40
2.194537382256772
 40
2.218253761590491
 40
2.241970129135241
 40
2.265686492819831
 40
2.289127963124234
 40
2.312569432102838
 40
2.336010888259197
 40
2.359452344786744
 40
2.382893852509256
 40
2.406335360096437
 40
2.429776909032714
 40
2.453218458107031
 40
2.476325271462596
 40
2.499432071253892
 40
2.522538657710506
 40
2.545645282917862
 40
2.568751509370052
 40
2.591857594327517
 40
2.614964185226711
 40
2.638071303425739
 40
2.818009746885107
 40
2.997948190344308
 40
2.997948190344308
 40
2.997948190344308
 40
2.997948190344308
 10
161.5
 20
219.8487567160913
 30
0.0
 10
161.5012422088014
 20
219.9087419274231
 30
0.0
 10
161.5037266264042
 20
220.0287123500867
 30
0.0
 10
161.5181323351513
 20
220.1557440774083
 30
0.0
 10
161.5292903329679
 20
220.2302865222825
 30
0.0
 10
161.53292936051
 20
220.2531013781837
 30
0.0
 10
161.5367776138927
 20
220.2758811204389
 30
0.0
 10
161.5408370895611
 20
220.298624308708
 30
0.0
 10
161.5451066245149
 20
220.3213291354743
 30
0.0
 10
161.5495858893267
 20
220.3439937236059
 30
0.0
 10
161.5542742944781
 20
220.3666160357863
 30
0.0
 10
161.559194972858
 20
220.3893030854333
 30
0.0
 10
161.5643509312601
 20
220.4120521213358
 30
0.0
 10
161.5697453720466
 20
220.4348603046165
 30
0.0
 10
161.5753533177547
 20
220.4576169200347
 30
0.0
 10
161.581174417072
 20
220.4803199147192
 30
0.0
 10
161.5872083250328
 20
220.5029672619241
 30
0.0
 10
161.593454697361
 20
220.5255569194269
 30
0.0
 10
161.5999131925071
 20
220.5480868526331
 30
0.0
 10
161.6066095626033
 20
220.5706429169094
 30
0.0
 10
161.6135463635478
 20
220.5932221706074
 30
0.0
 10
161.6207256132309
 20
220.6158217548801
 30
0.0
 10
161.6281194816311
 20
220.6383520402312
 30
0.0
 10
161.6357270940846
 20
220.6608111275178
 30
0.0
 10
161.643547557585
 20
220.6831970573989
 30
0.0
 10
161.6515799833434
 20
220.7055078816995
 30
0.0
 10
161.6598234599224
 20
220.7277415936524
 30
0.0
 10
161.6683021369208
 20
220.7499618721977
 30
0.0
 10
161.6770173027661
 20
220.772165942436
 30
0.0
 10
161.6859704717371
 20
220.794350876255
 30
0.0
 10
161.6951353129898
 20
220.8164492101458
 30
0.0
 10
161.7045111385719
 20
220.8384588159464
 30
0.0
 10
161.7140972724648
 20
220.860377597226
 30
0.0
 10
161.7238930366715
 20
220.8822034521378
 30
0.0
 10
161.7338977687074
 20
220.9039343110937
 30
0.0
 10
161.7441311420505
 20
220.9256111778109
 30
0.0
 10
161.7545939241014
 20
220.9472312416298
 30
0.0
 10
161.7652863107732
 20
220.968791917626
 30
0.0
 10
161.7761862774127
 20
220.9902484043944
 30
0.0
 10
161.7872926024066
 20
221.0115988813999
 30
0.0
 10
161.798604038342
 20
221.0328414744317
 30
0.0
 10
161.8101193432264
 20
221.0539743195403
 30
0.0
 10
161.8218372461926
 20
221.074995502924
 30
0.0
 10
161.8337684796805
 20
221.0959241709856
 30
0.0
 10
161.8459125117224
 20
221.1167580704573
 30
0.0
 10
161.8582690482731
 20
221.1374947860325
 30
0.0
 10
161.8708249149849
 20
221.1581114214108
 30
0.0
 10
161.883579078592
 20
221.1786059131435
 30
0.0
 10
161.8965305296453
 20
221.1989762395529
 30
0.0
 10
161.9096782541227
 20
221.2192203714135
 30
0.0
 10
161.9230212662951
 20
221.2393363208855
 30
0.0
 10
161.9365586936392
 20
221.2593222634364
 30
0.0
 10
161.9502895217152
 20
221.2791761488098
 30
0.0
 10
161.9642122092334
 20
221.2988962872867
 30
0.0
 10
161.9783250635582
 20
221.3184807854013
 30
0.0
 10
161.9926265770477
 20
221.3379280133955
 30
0.0
 10
162.0071152140304
 20
221.3572363005881
 30
0.0
 10
162.0217894444557
 20
221.3764039836122
 30
0.0
 10
162.0366477082758
 20
221.3954293621977
 30
0.0
 10
162.051673725332
 20
221.414292260447
 30
0.0
 10
162.0668653535781
 20
221.4329915298595
 30
0.0
 10
162.0822206886129
 20
221.4515258582891
 30
0.0
 10
162.0977533755054
 20
221.4699118112903
 30
0.0
 10
162.1134620812195
 20
221.4881475219693
 30
0.0
 10
162.1293455090126
 20
221.5062311687176
 30
0.0
 10
162.1454023547922
 20
221.5241609214628
 30
0.0
 10
162.1616313554309
 20
221.5419349939185
 30
0.0
 10
162.1779989864675
 20
221.5595169411249
 30
0.0
 10
162.1945027704696
 20
221.5769060118549
 30
0.0
 10
162.2111398141845
 20
221.5941019043342
 30
0.0
 10
162.2279409360347
 20
221.6111375225637
 30
0.0
 10
162.2449044407908
 20
221.62801151071
 30
0.0
 10
162.2620286091451
 20
221.6447224871852
 30
0.0
 10
162.2793117263471
 20
221.661269074439
 30
0.0
 10
162.2967520527648
 20
221.6776498726612
 30
0.0
 10
162.3142964220254
 20
221.6938160967897
 30
0.0
 10
162.3319415595345
 20
221.7097681020121
 30
0.0
 10
162.3496844164939
 20
221.7255060870172
 30
0.0
 10
162.367575411168
 20
221.7410754589822
 30
0.0
 10
162.3856130002016
 20
221.756474653071
 30
0.0
 10
162.4037956868321
 20
221.771702146924
 30
0.0
 10
162.4221219656391
 20
221.7867564104181
 30
0.0
 10
162.4405903808283
 20
221.8016359524635
 30
0.0
 10
162.4591275242658
 20
221.8162824279212
 30
0.0
 10
162.4777300029928
 20
221.8306966889975
 30
0.0
 10
162.4963941543289
 20
221.8448800563
 30
0.0
 10
162.5151906184672
 20
221.8588875946613
 30
0.0
 10
162.5341176233642
 20
221.8727182583421
 30
0.0
 10
162.5531733911681
 20
221.8863709965369
 30
0.0
 10
162.5723561587866
 20
221.8998447635134
 30
0.0
 10
162.591664141445
 20
221.9131384984154
 30
0.0
 10
162.6110030814376
 20
221.9261887400261
 30
0.0
 10
162.6303691753339
 20
221.9389974532614
 30
0.0
 10
162.6497587738098
 20
221.9515664504911
 30
0.0
 10
162.6692633565876
 20
221.9639561517548
 30
0.0
 10
162.6888812418856
 20
221.9761652783862
 30
0.0
 10
162.7086108027123
 20
221.9881928514669
 30
0.0
 10
162.728450778513
 20
222.0000371420773
 30
0.0
 10
162.7483991060034
 20
222.0116994920925
 30
0.0
 10
162.8138359849562
 20
222.0491203458561
 30
0.0
 10
162.9270145427987
 20
222.108602371002
 30
0.0
 10
163.0379241043157
 20
222.1544358640142
 30
0.0
 10
163.0933788850741
 20
222.1773526105203
 30
0.0
 11
161.5
 21
219.8487567160913
 31
0.0
 11
161.5064896761843
 21
220.0285617298908
 31
0.0
 11
161.5259012044153
 21
220.2074336154856
 31
0.0
 11
161.5293268808667
 21
220.2302813205114
 31
0.0
 11
161.5329642668254
 21
220.2530957421854
 31
0.0
 11
161.5368128089445
 21
220.2758749796077
 31
0.0
 11
161.5408720704027
 21
220.2986177564106
 31
0.0
 11
161.5451415759416
 21
220.3213224103755
 31
0.0
 11
161.5496207297907
 21
220.3439865973634
 31
0.0
 11
161.5543090662439
 21
220.3666086571268
 31
0.0
 11
161.5592060395012
 21
220.3891864862624
 31
0.0
 11
161.5643865734075
 21
220.4120438674865
 31
0.0
 11
161.5697809599905
 21
220.4348517256699
 31
0.0
 11
161.5753888446095
 21
220.4576079882197
 31
0.0
 11
161.5812098902728
 21
220.4803106596233
 31
0.0
 11
161.5872437363494
 21
220.5029576492066
 31
0.0
 11
161.5934900498014
 21
220.5255469605401
 31
0.0
 11
161.599948488043
 21
220.5480765542582
 31
0.0
 11
161.606618700489
 21
220.5705443611309
 31
0.0
 11
161.6135822823844
 21
220.5932109464763
 31
0.0
 11
161.6207613815518
 21
220.6158102005181
 31
0.0
 11
161.6281551019488
 21
220.6383401629755
 31
0.0
 11
161.6357625437822
 21
220.6607988605631
 31
0.0
 11
161.6435828808811
 21
220.6831845290836
 31
0.0
 11
161.6516151576788
 21
220.7054950274506
 31
0.0
 11
161.6598584864277
 21
220.7277284169657
 31
0.0
 11
161.6683119773807
 21
220.7498827548722
 31
0.0
 11
161.6770526927349
 21
220.7721518557619
 31
0.0
 11
161.6860057494886
 21
220.7943364405807
 31
0.0
 11
161.6951704796238
 21
220.8164344281784
 31
0.0
 11
161.7045462087633
 21
220.8384437220943
 31
0.0
 11
161.7141322136731
 21
220.8603621159454
 31
0.0
 11
161.7239278655271
 21
220.8821876214231
 31
0.0
 11
161.7339324831811
 21
220.9039181264123
 31
0.0
 11
161.74414538714
 21
220.9255515221432
 31
0.0
 11
161.7546287290052
 21
220.9472141887856
 31
0.0
 11
161.7653209050684
 21
220.9687745480388
 31
0.0
 11
161.7762206653579
 21
220.9902307262572
 31
0.0
 11
161.7873267529687
 21
221.0115808350089
 31
0.0
 11
161.7986380115098
 21
221.0328231737401
 31
0.0
 11
161.810153109335
 21
221.0539557088211
 31
0.0
 11
161.8218708057072
 21
221.0749765832487
 31
0.0
 11
161.8337898616726
 21
221.0958839441075
 31
0.0
 11
161.8459459002007
 21
221.1167383923627
 31
0.0
 11
161.8583022693979
 21
221.1374747717222
 31
0.0
 11
161.8708579692207
 21
221.1580910717721
 31
0.0
 11
161.8836119937577
 21
221.1785852728541
 31
0.0
 11
161.8965632469777
 21
221.1989552151334
 31
0.0
 11
161.9097108041899
 21
221.2191990109081
 31
0.0
 11
161.9230536451239
 21
221.2393146180906
 31
0.0
 11
161.9365907555987
 21
221.2593000033472
 31
0.0
 11
161.9503214729654
 21
221.2791538210584
 31
0.0
 11
161.9642439014664
 21
221.2988736774257
 31
0.0
 11
161.9783565011457
 21
221.3184578994165
 31
0.0
 11
161.9926577263728
 21
221.3379048055448
 31
0.0
 11
162.007146140885
 21
221.3572128593804
 31
0.0
 11
162.0218201173657
 21
221.376380267082
 31
0.0
 11
162.036678126614
 21
221.3954053696324
 31
0.0
 11
162.0517186462008
 21
221.4142865171944
 31
0.0
 11
162.0668951273069
 21
221.4329671037086
 31
0.0
 11
162.082250247584
 21
221.451501129444
 31
0.0
 11
162.0977827189072
 21
221.4698867789504
 31
0.0
 11
162.1134912503149
 21
221.4881222340244
 31
0.0
 11
162.1293744193353
 21
221.5062055280479
 31
0.0
 11
162.1454310508012
 21
221.5241349786529
 31
0.0
 11
162.1616598310818
 21
221.5419087420906
 31
0.0
 11
162.1780594580693
 21
221.5595249867078
 31
0.0
 11
162.1945304048752
 21
221.5768795309131
 31
0.0
 11
162.2111671590671
 21
221.5940751904509
 31
0.0
 11
162.2279679948883
 21
221.6111105792749
 31
0.0
 11
162.2449311844005
 21
221.6279843089381
 31
0.0
 11
162.2620550959374
 21
221.6446950844086
 31
0.0
 11
162.2793379297215
 21
221.6612414446764
 31
0.0
 11
162.2967779706433
 21
221.6776220139529
 31
0.0
 11
162.3143735157878
 21
221.6938354281373
 31
0.0
 11
162.3319664984508
 21
221.7097402540748
 31
0.0
 11
162.349709107884
 21
221.7254779864008
 31
0.0
 11
162.3675998521857
 21
221.7410471033688
 31
0.0
 11
162.3856372428469
 21
221.7564460868561
 31
0.0
 11
162.4038196276822
 21
221.7716732825786
 31
0.0
 11
162.4221456587226
 21
221.7867272931741
 31
0.0
 11
162.4406138202778
 21
221.8016065773735
 31
0.0
 11
162.4592226075984
 21
221.8163096022622
 31
0.0
 11
162.4777523548542
 21
221.8306675616112
 31
0.0
 11
162.496416210489
 21
221.844850754507
 31
0.0
 11
162.5152123734189
 21
221.8588581142097
 31
0.0
 11
162.5341390677085
 21
221.8726885924156
 31
0.0
 11
162.5531945536549
 21
221.8863411650541
 31
0.0
 11
162.572377014758
 21
221.8998147489867
 31
0.0
 11
162.591684714224
 21
221.913108317276
 31
0.0
 11
162.61111585027
 21
221.9262207989239
 31
0.0
 11
162.6303886181128
 21
221.9389677688825
 31
0.0
 11
162.6497780064991
 21
221.9515366118921
 31
0.0
 11
162.6692822563962
 21
221.9639260660216
 31
0.0
 11
162.6888999913921
 21
221.976135103744
 31
0.0
 11
162.7086292471049
 21
221.9881623299362
 31
0.0
 11
162.7284686491853
 21
222.0000067078073
 31
0.0
 11
162.7484171672804
 21
222.0116673754036
 31
0.0
 11
162.7684732336574
 21
222.0231431373802
 31
0.0
 11
162.9281544344065
 21
222.1060874413553
 31
0.0
 11
163.0933788850741
 21
222.1773526105203
 31
0.0
  0
SPLINE
  5
4B6
330
1F
100
AcDbEntity
  8
0
  6
Continuous
 62
     3
100
AcDbSpline
210
0.0
220
0.0
230
1.0
 70
    24
 71
     3
 72
    59
 73
    55
 74
    53
 42
0.0000000001
 43
0.0000000001
 44
0.00000001
 40
0.0
 40
0.0
 40
0.0
 40
0.0
 40
0.503853293218186
 40
1.007706586436349
 40
1.070688248088584
 40
1.133669909740881
 40
1.196651571393116
 40
1.25963323304531
 40
1.322614894697598
 40
1.385596556349846
 40
1.448578218002126
 40
1.511559879654387
 40
1.574541541306649
 40
1.63752320295896
 40
1.700504864611203
 40
1.763486526263438
 40
1.826468187915704
 40
1.889449849567956
 40
1.952431511220191
 40
2.015413172872502
 40
2.141376496176989
 40
2.267339819481512
 40
2.393303142785999
 40
2.519266466090548
 40
2.64522978939508
 40
2.77119311269963
 40
2.897156436004148
 40
3.023119759308694
 40
3.149083082613208
 40
3.27504640591773
 40
3.401009729222307
 40
3.526973052526839
 40
3.652936375831357
 40
3.778899699135903
 40
3.904863022440466
 40
4.030826345744953
 40
4.156789669049485
 40
4.282752992354017
 40
4.408716315658549
 40
4.534679638963095
 40
4.660642962267613
 40
4.786606285572128
 40
4.91256960887666
 40
5.038532932181178
 40
5.164496255485683
 40
5.290459578790156
 40
5.416422902094692
 40
5.542386225399238
 40
5.668349548703756
 40
5.794312872008271
 40
5.920276195312803
 40
6.046239518617353
 40
7.053946105053544
 40
8.061652691489714
 40
8.061652691489714
 40
8.061652691489714
 40
8.061652691489714
 10
117.4556278138902
 20
271.2464242129411
 30
0.0
 10
117.6153024492439
 20
271.2984970662962
 30
0.0
 10
117.9346517199513
 20
271.4026427730062
 30
0.0
 10
118.2739603200776
 20
271.513297586386
 30
0.0
 10
118.4735536142699
 20
271.5783886530795
 30
0.0
 10
118.5334316025275
 20
271.5979159730878
 30
0.0
 10
118.5933095907851
 20
271.6174432930958
 30
0.0
 10
118.6531875790427
 20
271.6369706131039
 30
0.0
 10
118.7130655673002
 20
271.6564979331122
 30
0.0
 10
118.772943555558
 20
271.6760252531203
 30
0.0
 10
118.8328215438155
 20
271.6955525731285
 30
0.0
 10
118.8926995320732
 20
271.7150798931365
 30
0.0
 10
118.9525775203309
 20
271.7346072131445
 30
0.0
 10
119.0124555085885
 20
271.7541345331528
 30
0.0
 10
119.0723334968461
 20
271.7736618531609
 30
0.0
 10
119.1322114851037
 20
271.793189173169
 30
0.0
 10
119.1920894733613
 20
271.8127164931772
 30
0.0
 10
119.2519674616189
 20
271.8322438131854
 30
0.0
 10
119.3118454498765
 20
271.8517711331933
 30
0.0
 10
119.3916827675534
 20
271.8778075598709
 30
0.0
 10
119.4914794146494
 20
271.9103530932177
 30
0.0
 10
119.6112353911646
 20
271.9494077332342
 30
0.0
 10
119.7309913676799
 20
271.9884623732503
 30
0.0
 10
119.8507473441951
 20
272.0275170132667
 30
0.0
 10
119.9705033207104
 20
272.0665716532829
 30
0.0
 10
120.0902592972256
 20
272.1056262932992
 30
0.0
 10
120.2100152737408
 20
272.1446809333156
 30
0.0
 10
120.3297712502561
 20
272.1837355733318
 30
0.0
 10
120.4495272267714
 20
272.222790213348
 30
0.0
 10
120.5692832032866
 20
272.2618448533644
 30
0.0
 10
120.6890391798019
 20
272.3008994933808
 30
0.0
 10
120.8087951563171
 20
272.339954133397
 30
0.0
 10
120.9285511328324
 20
272.3790087734133
 30
0.0
 10
121.0483071093476
 20
272.4180634134295
 30
0.0
 10
121.1680630858629
 20
272.4571180534459
 30
0.0
 10
121.2878190623781
 20
272.496172693462
 30
0.0
 10
121.4075750388934
 20
272.5352273334784
 30
0.0
 10
121.5273310154086
 20
272.5742819734947
 30
0.0
 10
121.6470869919239
 20
272.6133366135109
 30
0.0
 10
121.7668429684391
 20
272.6523912535271
 30
0.0
 10
121.8865989449543
 20
272.6914458935435
 30
0.0
 10
122.0063549214696
 20
272.7305005335597
 30
0.0
 10
122.1261108979849
 20
272.769555173576
 30
0.0
 10
122.2458668745001
 20
272.8086098135922
 30
0.0
 10
122.3656228510153
 20
272.8476644536086
 30
0.0
 10
122.4853788275305
 20
272.8867190936246
 30
0.0
 10
122.6051348040458
 20
272.9257737336411
 30
0.0
 10
122.724890780561
 20
272.9648283736573
 30
0.0
 10
122.8446467570763
 20
273.0038830136737
 30
0.0
 10
122.9644027335915
 20
273.0429376536898
 30
0.0
 10
123.0841587101068
 20
273.0819922937061
 30
0.0
 10
123.4833452984907
 20
273.2121744270938
 30
0.0
 10
124.161962498744
 20
273.4334840538527
 30
0.0
 10
124.8006610401585
 20
273.6417754672729
 30
0.0
 10
125.1200103108658
 20
273.745921173983
 30
0.0
 11
117.4556278138902
 21
271.2464242129411
 31
0.0
 11
117.9346517199512
 21
271.4026427730063
 31
0.0
 11
118.4136756260122
 21
271.5588613330715
 31
0.0
 11
118.4735536142699
 21
271.5783886530796
 31
0.0
 11
118.5334316025275
 21
271.5979159730878
 31
0.0
 11
118.5933095907851
 21
271.6174432930958
 31
0.0
 11
118.6531875790427
 21
271.6369706131039
 31
0.0
 11
118.7130655673003
 21
271.6564979331122
 31
0.0
 11
118.7729435555579
 21
271.6760252531203
 31
0.0
 11
118.8328215438156
 21
271.6955525731284
 31
0.0
 11
118.8926995320732
 21
271.7150798931365
 31
0.0
 11
118.9525775203308
 21
271.7346072131446
 31
0.0
 11
119.0124555085885
 21
271.7541345331528
 31
0.0
 11
119.0723334968461
 21
271.7736618531609
 31
0.0
 11
119.1322114851037
 21
271.793189173169
 31
0.0
 11
119.1920894733613
 21
271.8127164931772
 31
0.0
 11
119.2519674616189
 21
271.8322438131853
 31
0.0
 11
119.3118454498765
 21
271.8517711331934
 31
0.0
 11
119.3717234381342
 21
271.8712984532016
 31
0.0
 11
119.4914794146494
 21
271.9103530932178
 31
0.0
 11
119.6112353911646
 21
271.9494077332341
 31
0.0
 11
119.7309913676798
 21
271.9884623732503
 31
0.0
 11
119.8507473441951
 21
272.0275170132667
 31
0.0
 11
119.9705033207103
 21
272.0665716532829
 31
0.0
 11
120.0902592972256
 21
272.1056262932993
 31
0.0
 11
120.2100152737408
 21
272.1446809333156
 31
0.0
 11
120.3297712502561
 21
272.1837355733318
 31
0.0
 11
120.4495272267714
 21
272.222790213348
 31
0.0
 11
120.5692832032866
 21
272.2618448533644
 31
0.0
 11
120.6890391798019
 21
272.3008994933807
 31
0.0
 11
120.8087951563171
 21
272.339954133397
 31
0.0
 11
120.9285511328323
 21
272.3790087734133
 31
0.0
 11
121.0483071093476
 21
272.4180634134295
 31
0.0
 11
121.1680630858629
 21
272.4571180534459
 31
0.0
 11
121.2878190623781
 21
272.4961726934621
 31
0.0
 11
121.4075750388933
 21
272.5352273334784
 31
0.0
 11
121.5273310154086
 21
272.5742819734946
 31
0.0
 11
121.6470869919238
 21
272.6133366135109
 31
0.0
 11
121.7668429684391
 21
272.6523912535272
 31
0.0
 11
121.8865989449543
 21
272.6914458935435
 31
0.0
 11
122.0063549214696
 21
272.7305005335597
 31
0.0
 11
122.1261108979848
 21
272.769555173576
 31
0.0
 11
122.2458668745001
 21
272.8086098135922
 31
0.0
 11
122.3656228510153
 21
272.8476644536085
 31
0.0
 11
122.4853788275305
 21
272.8867190936247
 31
0.0
 11
122.6051348040457
 21
272.9257737336411
 31
0.0
 11
122.724890780561
 21
272.9648283736573
 31
0.0
 11
122.8446467570762
 21
273.0038830136736
 31
0.0
 11
122.9644027335915
 21
273.0429376536898
 31
0.0
 11
123.0841587101067
 21
273.0819922937061
 31
0.0
 11
123.203914686622
 21
273.1210469337224
 31
0.0
 11
124.1619624987439
 21
273.4334840538527
 31
0.0
 11
125.1200103108658
 21
273.745921173983
 31
0.0
  0
LWPOLYLINE
  5
4B7
330
1F
100
AcDbEntity
  8
3
  6
Continuous
 62
     3
100
AcDbPolyline
 90
        7
 70
     0
 43
0.0
 10
123.9490440252201
 20
435.5447385184633
 10
125.0796897832171
 20
435.5447385184633
 42
0.09122267891982
 10
127.5710331943082
 20
436.0030867386741
 10
134.5464244361167
 20
438.6596168621134
 42
-0.2247461153704
 10
140.5184041512503
 20
438.1912813855474
 10
143.519363695958
 20
436.4714222152394
 42
0.13084094293331
 10
147.0
 20
435.5447385184609
  0
LWPOLYLINE
  5
4B8
330
1F
100
AcDbEntity
  8
3
  6
Continuous
 62
     3
100
AcDbPolyline
 90
        4
 70
     0
 43
0.0
 10
125.8400361650335
 20
440.6764117470793
 42
0.26230105055339
 10
122.9490440252193
 20
435.5447385184633
 10
122.9490440252201
 20
427.4999999999993
 42
0.41421356237314
 10
124.9490440252201
 20
425.4999999999996
  0
LWPOLYLINE
  5
4B9
330
1F
100
AcDbEntity
  8
3
  6
Continuous
 62
     3
100
AcDbPolyline
 90
        2
 70
     0
 43
0.0
 10
122.9359018541215
 20
439.1283290684773
 42
0.19873478621276
 10
117.2091822141048
 20
436.9758447138081
  0
LWPOLYLINE
  5
4BA
330
1F
100
AcDbEntity
  8
3
  6
Continuous
 62
     3
100
AcDbPolyline
 90
        4
 70
     0
 43
0.0
 10
169.0509559747795
 20
425.4999999999993
 42
0.4142135623731
 10
171.0509559747795
 20
427.4999999999993
 10
171.0509559747795
 20
435.5447385184633
 42
0.26230105055339
 10
168.1599638349664
 20
440.6764117470776
  0
LWPOLYLINE
  5
4BB
330
1F
100
AcDbEntity
  8
3
  6
Continuous
 62
     3
100
AcDbPolyline
 90
        7
 70
     0
 43
0.0
 10
147.0
 20
435.5447385184633
 42
0.13084094293333
 10
150.480636304042
 20
436.47142221524
 10
153.4815958487499
 20
438.1912813855474
 42
-0.2247461153704
 10
159.4535755638835
 20
438.6596168621134
 10
166.4289668056916
 20
436.0030867386734
 42
0.09122267891984
 10
168.9203102167835
 20
435.5447385184624
 10
170.0509559747795
 20
435.5447385184633
  0
LWPOLYLINE
  5
4BC
330
1F
100
AcDbEntity
  8
3
  6
Continuous
 62
     3
100
AcDbPolyline
 90
        2
 70
     0
 43
0.0
 10
176.7908177858954
 20
436.9758447138073
 42
0.19873478621275
 10
171.0640981458795
 20
439.1283290684772
  0
LWPOLYLINE
  5
4BD
330
1F
100
AcDbEntity
  8
3
  6
Continuous
 62
     3
100
AcDbPolyline
 90
        7
 70
     0
 43
0.0
 10
286.9999873064539
 20
435.5447827484306
 42
0.13084094293333
 10
290.4806236104959
 20
436.4714664452073
 10
293.4815831552039
 20
438.1913256155146
 42
-0.2247461153704
 10
299.4535628703373
 20
438.6596610920807
 10
306.4289541121454
 20
436.0031309686407
 42
0.09122267891984
 10
308.9202975232374
 20
435.5447827484297
 10
310.0509432812333
 20
435.5447827484306
  0
LWPOLYLINE
  5
4BE
330
1F
100
AcDbEntity
  8
3
  6
Continuous
 62
     3
100
AcDbPolyline
 90
        2
 70
     0
 43
0.0
 10
262.9358891605753
 20
439.1283732984447
 42
0.19873478621276
 10
257.2091695205586
 20
436.9758889437755
  0
LWPOLYLINE
  5
4BF
330
1F
100
AcDbEntity
  8
3
  6
Continuous
 62
     3
100
AcDbPolyline
 90
        2
 70
     0
 43
0.0
 10
316.7908050923494
 20
436.9758889437746
 42
0.19873478621275
 10
311.0640854523334
 20
439.1283732984445
  0
LWPOLYLINE
  5
4C0
330
1F
100
AcDbEntity
  8
3
  6
Continuous
 62
     3
100
AcDbPolyline
 90
        7
 70
     0
 43
0.0
 10
263.949031331674
 20
435.5447827484306
 10
265.079677089671
 20
435.5447827484306
 42
0.09122267891982
 10
267.5710205007622
 20
436.0031309686414
 10
274.5464117425706
 20
438.6596610920807
 42
-0.2247461153704
 10
280.5183914577042
 20
438.1913256155146
 10
283.5193510024119
 20
436.4714664452067
 42
0.13084094293331
 10
286.9999873064539
 20
435.5447827484282
  0
LWPOLYLINE
  5
4C1
330
1F
100
AcDbEntity
  8
3
  6
Continuous
 62
     3
100
AcDbPolyline
 90
        4
 70
     0
 43
0.0
 10
265.8400234714874
 20
440.6764559770467
 42
0.2623010505534
 10
262.9490313316732
 20
435.5447827484306
 10
262.949031331674
 20
427.5000442299667
 42
0.41421356237314
 10
264.949031331674
 20
425.500044229967
  0
LWPOLYLINE
  5
4C2
330
1F
100
AcDbEntity
  8
3
  6
Continuous
 62
     3
100
AcDbPolyline
 90
        4
 70
     0
 43
0.0
 10
309.0509432812333
 20
425.5000442299667
 42
0.4142135623731
 10
311.0509432812333
 20
427.5000442299667
 10
311.0509432812333
 20
435.5447827484306
 42
0.26230105055338
 10
308.1599511414203
 20
440.6764559770448
  0
LINE
  5
4C3
330
1F
100
AcDbEntity
  8
1
 62
     4
100
AcDbLine
 10
147.0
 20
182.9999997744018
 30
0.0
 11
149.0156283319081
 21
181.5471433392292
 31
0.0
  0
LINE
  5
4C4
330
1F
100
AcDbEntity
  8
1
 62
     4
100
AcDbLine
 10
147.0
 20
182.9999997744018
 30
0.0
 11
148.0191571224338
 21
180.7339750275366
 31
0.0
  0
LEADER
  5
4C5
330
1F
100
AcDbEntity
  8
1
  6
Continuous
 62
     4
100
AcDbLeader
  3
Standard
 71
     0
 76
     3
 10
147.0
 20
182.9999997744018
 30
0.0
 10
160.0524260393247
 20
167.0053199830718
 30
0.0
 10
174.1020439327336
 20
167.0053199830718
 30
0.0
  0
LINE
  5
4C6
330
1F
100
AcDbEntity
  8
1
 62
     4
100
AcDbLine
 10
119.0
 20
217.0
 30
0.0
 11
116.6
 21
216.3569219381653
 31
0.0
  0
LINE
  5
4C7
330
1F
100
AcDbEntity
  8
1
 62
     4
100
AcDbLine
 10
119.0
 20
217.0
 30
0.0
 11
116.6
 21
217.6430780618347
 31
0.0
  0
LEADER
  5
4C8
330
1F
100
AcDbEntity
  8
1
  6
Continuous
 62
     4
100
AcDbLeader
  3
Standard
 71
     0
 76
     2
 10
119.0
 20
217.0
 30
0.0
 10
91.00000000000001
 20
217.0
 30
0.0
  0
LINE
  5
4C9
330
1F
100
AcDbEntity
  8
1
 62
     4
100
AcDbLine
 10
197.0000000000003
 20
298.9999999999982
 30
0.0
 11
199.2554196139872
 21
297.9575836923474
 31
0.0
  0
LINE
  5
4CA
330
1F
100
AcDbEntity
  8
1
 62
     4
100
AcDbLine
 10
197.0000000000003
 20
298.9999999999982
 30
0.0
 11
198.4320425280813
 21
296.96953118926
 31
0.0
  0
LEADER
  5
4CB
330
1F
100
AcDbEntity
  8
1
  6
Continuous
 62
     4
100
AcDbLeader
  3
Standard
 71
     0
 76
     3
 10
197.0000000000003
 20
298.9999999999982
 30
0.0
 10
203.0
 20
294.0
 30
0.0
 10
217.0496178934089
 20
294.0
 30
0.0
  0
LINE
  5
4CC
330
1F
100
AcDbEntity
  8
1
 62
     4
100
AcDbLine
 10
96.9999999999998
 20
329.9999999999982
 30
0.0
 11
95.56795747191882
 21
327.96953118926
 31
0.0
  0
LINE
  5
4CD
330
1F
100
AcDbEntity
  8
1
 62
     4
100
AcDbLine
 10
96.9999999999998
 20
329.9999999999982
 30
0.0
 11
94.74458038601288
 21
328.9575836923474
 31
0.0
  0
LEADER
  5
4CE
330
1F
100
AcDbEntity
  8
1
  6
Continuous
 62
     4
100
AcDbLeader
  3
Standard
 71
     0
 76
     3
 10
96.9999999999998
 20
329.9999999999982
 30
0.0
 10
91.00000000000009
 20
325.0
 30
0.0
 10
76.9503821065912
 20
325.0
 30
0.0
  0
LINE
  5
4CF
330
1F
100
AcDbEntity
  8
1
 62
     4
100
AcDbLine
 10
201.9999999999983
 20
252.0
 30
0.0
 11
204.2296539342322
 21
250.9035545033298
 31
0.0
  0
LINE
  5
4D0
330
1F
100
AcDbEntity
  8
1
 62
     4
100
AcDbLine
 10
201.9999999999983
 20
252.0
 30
0.0
 11
203.3827142003577
 21
249.9356233789017
 31
0.0
  0
LEADER
  5
4D1
330
1F
100
AcDbEntity
  8
1
  6
Continuous
 62
     4
100
AcDbLeader
  3
Standard
 71
     0
 76
     3
 10
201.9999999999983
 20
252.0
 30
0.0
 10
210.0
 20
245.0
 30
0.0
 10
218.2751432759279
 20
245.0
 30
0.0
  0
LINE
  5
4D2
330
1F
100
AcDbEntity
  8
1
 62
     4
100
AcDbLine
 10
92.0000000000017
 20
252.0
 30
0.0
 11
90.6172857996423
 21
249.9356233789016
 31
0.0
  0
LINE
  5
4D3
330
1F
100
AcDbEntity
  8
1
 62
     4
100
AcDbLine
 10
92.0000000000017
 20
252.0
 30
0.0
 11
89.7703460657678
 21
250.9035545033298
 31
0.0
  0
LEADER
  5
4D4
330
1F
100
AcDbEntity
  8
1
  6
Continuous
 62
     4
100
AcDbLeader
  3
Standard
 71
     0
 76
     3
 10
92.0000000000017
 20
252.0
 30
0.0
 10
84.0
 20
245.0
 30
0.0
 10
75.72485672407208
 20
245.0
 30
0.0
  0
ENDSEC
  0
SECTION
  2
OBJECTS
  0
DICTIONARY
  5
C
330
0
100
AcDbDictionary
281
     1
  3
ACAD_GROUP
350
D
  3
ACAD_LAYOUT
350
1A
  3
ACAD_MATERIAL
350
3B
  3
ACAD_MLEADERSTYLE
350
4D7
  3
ACAD_MLINESTYLE
350
17
  3
ACAD_PLOTSETTINGS
350
19
  3
ACAD_PLOTSTYLENAME
350
E
  3
ACAD_VISUALSTYLE
350
2A
  3
AcDbVariableDictionary
350
4D5
  0
DICTIONARY
  5
D
102
{ACAD_REACTORS
330
C
102
}
330
C
100
AcDbDictionary
281
     1
  0
DICTIONARY
  5
1A
102
{ACAD_REACTORS
330
C
102
}
330
C
100
AcDbDictionary
281
     1
  3
Layout1
350
1E
  3
Layout2
350
26
  3
Model
350
22
  0
DICTIONARY
  5
3B
102
{ACAD_REACTORS
330
C
102
}
330
C
100
AcDbDictionary
281
     1
  3
ByBlock
350
3D
  3
ByLayer
350
3C
  3
Global
350
3E
  0
DICTIONARY
  5
4D7
102
{ACAD_REACTORS
330
C
102
}
330
C
100
AcDbDictionary
281
     1
  0
DICTIONARY
  5
17
102
{ACAD_REACTORS
330
C
102
}
330
C
100
AcDbDictionary
281
     1
  3
Standard
350
18
  0
DICTIONARY
  5
19
102
{ACAD_REACTORS
330
C
102
}
330
C
100
AcDbDictionary
281
     1
  0
ACDBDICTIONARYWDFLT
  5
E
102
{ACAD_REACTORS
330
C
102
}
330
C
100
AcDbDictionary
281
     1
  3
Normal
350
F
100
AcDbDictionaryWithDefault
340
F
  0
DICTIONARY
  5
2A
102
{ACAD_REACTORS
330
C
102
}
330
C
100
AcDbDictionary
281
     1
  3
2dWireframe
350
2F
  3
3D Hidden
350
31
  3
3dWireframe
350
30
  3
Basic
350
32
  3
Brighten
350
36
  3
ColorChange
350
3A
  3
Conceptual
350
34
  3
Dim
350
35
  3
Facepattern
350
39
  3
Flat
350
2B
  3
FlatWithEdges
350
2C
  3
Gouraud
350
2D
  3
GouraudWithEdges
350
2E
  3
Linepattern
350
38
  3
Realistic
350
33
  3
Thicken
350
37
  0
DICTIONARY
  5
4D5
102
{ACAD_REACTORS
330
C
102
}
330
C
100
AcDbDictionary
281
     1
  3
DIMASSOC
350
4D8
  3
HIDETEXT
350
4D9
  0
LAYOUT
  5
1E
102
{ACAD_REACTORS
330
1A
102
}
330
1A
100
AcDbPlotSettings
  1

  2
none_device
  4

  6

 40
0.0
 41
0.0
 42
0.0
 43
0.0
 44
0.0
 45
0.0
 46
0.0
 47
0.0
 48
0.0
 49
0.0
140
0.0
141
0.0
142
1.0
143
1.0
 70
   688
 72
     0
 73
     0
 74
     5
  7

 75
    16
147
1.0
148
0.0
149
0.0
100
AcDbLayout
  1
Layout1
 70
     1
 71
     1
 10
0.0
 20
0.0
 11
12.0
 21
9.0
 12
0.0
 22
0.0
 32
0.0
 14
1.00000000000000E+20
 24
1.00000000000000E+20
 34
1.00000000000000E+20
 15
-1.00000000000000E+20
 25
-1.00000000000000E+20
 35
-1.00000000000000E+20
146
0.0
 13
0.0
 23
0.0
 33
0.0
 16
1.0
 26
0.0
 36
0.0
 17
0.0
 27
1.0
 37
0.0
 76
     0
330
1B
  0
LAYOUT
  5
26
102
{ACAD_REACTORS
330
1A
102
}
330
1A
100
AcDbPlotSettings
  1

  2
none_device
  4

  6

 40
0.0
 41
0.0
 42
0.0
 43
0.0
 44
0.0
 45
0.0
 46
0.0
 47
0.0
 48
0.0
 49
0.0
140
0.0
141
0.0
142
1.0
143
1.0
 70
   688
 72
     0
 73
     0
 74
     5
  7

 75
    16
147
1.0
148
0.0
149
0.0
100
AcDbLayout
  1
Layout2
 70
     1
 71
     2
 10
0.0
 20
0.0
 11
0.0
 21
0.0
 12
0.0
 22
0.0
 32
0.0
 14
0.0
 24
0.0
 34
0.0
 15
0.0
 25
0.0
 35
0.0
146
0.0
 13
0.0
 23
0.0
 33
0.0
 16
1.0
 26
0.0
 36
0.0
 17
0.0
 27
1.0
 37
0.0
 76
     0
330
23
  0
LAYOUT
  5
22
102
{ACAD_REACTORS
330
1A
102
}
330
1A
100
AcDbPlotSettings
  1

  2
none_device
  4

  6

 40
0.0
 41
0.0
 42
0.0
 43
0.0
 44
0.0
 45
0.0
 46
0.0
 47
0.0
 48
0.0
 49
0.0
140
0.0
141
0.0
142
1.0
143
1.0
 70
  1712
 72
     0
 73
     0
 74
     0
  7

 75
     0
147
1.0
148
0.0
149
0.0
100
AcDbLayout
  1
Model
 70
     1
 71
     0
 10
0.0
 20
0.0
 11
12.0
 21
9.0
 12
0.0
 22
0.0
 32
0.0
 14
75.72485672407208
 24
154.0
 34
0.0
 15
317.9999873064534
 25
566.0
 35
0.0
146
0.0
 13
0.0
 23
0.0
 33
0.0
 16
1.0
 26
0.0
 36
0.0
 17
0.0
 27
1.0
 37
0.0
 76
     0
330
1F
331
29
  0
MATERIAL
  5
3D
102
{ACAD_REACTORS
330
3B
102
}
102
{ACAD_XDICTIONARY
360
4FC
102
}
330
3B
100
AcDbMaterial
  1
ByBlock
  0
MATERIAL
  5
3C
102
{ACAD_REACTORS
330
3B
102
}
102
{ACAD_XDICTIONARY
360
4FA
102
}
330
3B
100
AcDbMaterial
  1
ByLayer
  0
MATERIAL
  5
3E
102
{ACAD_REACTORS
330
3B
102
}
102
{ACAD_XDICTIONARY
360
4FE
102
}
330
3B
100
AcDbMaterial
  1
Global
  0
MLINESTYLE
  5
18
102
{ACAD_REACTORS
330
17
102
}
330
17
100
AcDbMlineStyle
  2
Standard
 70
     0
  3

 62
   256
 51
90.0
 52
90.0
 71
     2
 49
0.5
 62
   256
  6
BYLAYER
 49
-0.5
 62
   256
  6
BYLAYER
  0
ACDBPLACEHOLDER
  5
F
102
{ACAD_REACTORS
330
E
102
}
330
E
  0
VISUALSTYLE
  5
2F
102
{ACAD_REACTORS
330
2A
102
}
102
{ACAD_XDICTIONARY
360
4E2
102
}
330
2A
100
AcDbVisualStyle
  2
2dWireframe
 70
     4
 71
     0
 72
     2
 73
     0
 90
        0
 40
-0.6
 41
-30.0
 62
     5
 63
     7
 74
     1
 91
        4
 64
     7
 65
   257
 75
     1
175
     1
 42
1.0
 92
        0
 66
   257
 43
1.0
 76
     1
 77
     6
 78
     2
 67
     7
 79
     5
170
     0
171
     0
290
     0
174
     0
 93
        1
 44
0.0
173
     0
291
     0
 45
0.0
1001
ACAD
1000
AcDbSavedByObjectVersion
1070
     0
  0
VISUALSTYLE
  5
31
102
{ACAD_REACTORS
330
2A
102
}
102
{ACAD_XDICTIONARY
360
4E6
102
}
330
2A
100
AcDbVisualStyle
  2
3D Hidden
 70
     6
 71
     1
 72
     2
 73
     2
 90
        0
 40
-0.6
 41
-30.0
 62
     5
 63
     7
 74
     2
 91
        2
 64
     7
 65
   257
 75
     2
175
     1
 42
40.0
 92
        0
 66
   257
 43
1.0
 76
     1
 77
     6
 78
     2
 67
     7
 79
     3
170
     0
171
     0
290
     0
174
     0
 93
        1
 44
0.0
173
     0
291
     0
 45
0.0
1001
ACAD
1000
AcDbSavedByObjectVersion
1070
     0
  0
VISUALSTYLE
  5
30
102
{ACAD_REACTORS
330
2A
102
}
102
{ACAD_XDICTIONARY
360
4E4
102
}
330
2A
100
AcDbVisualStyle
  2
3dWireframe
 70
     5
 71
     0
 72
     2
 73
     0
 90
        0
 40
-0.6
 41
-30.0
 62
     5
 63
     7
 74
     1
 91
        4
 64
     7
 65
   257
 75
     1
175
     1
 42
1.0
 92
        0
 66
   257
 43
1.0
 76
     1
 77
     6
 78
     2
 67
     7
 79
     5
170
     0
171
     0
290
     0
174
     0
 93
        1
 44
0.0
173
     0
291
     0
 45
0.0
1001
ACAD
1000
AcDbSavedByObjectVersion
1070
     0
  0
VISUALSTYLE
  5
32
102
{ACAD_REACTORS
330
2A
102
}
102
{ACAD_XDICTIONARY
360
4E8
102
}
330
2A
100
AcDbVisualStyle
  2
Basic
 70
     7
 71
     1
 72
     0
 73
     1
 90
        0
 40
-0.6
 41
-30.0
 62
     5
 63
     7
 74
     0
 91
        4
 64
     7
 65
   257
 75
     1
175
     1
 42
1.0
 92
        8
 66
     7
 43
1.0
 76
     1
 77
     6
 78
     2
 67
     7
 79
     5
170
     0
171
     0
290
     0
174
     0
 93
        1
 44
0.0
173
     0
291
     1
 45
0.0
1001
ACAD
1000
AcDbSavedByObjectVersion
1070
     0
  0
VISUALSTYLE
  5
36
102
{ACAD_REACTORS
330
2A
102
}
102
{ACAD_XDICTIONARY
360
4F0
102
}
330
2A
100
AcDbVisualStyle
  2
Brighten
 70
    12
 71
     2
 72
     2
 73
     0
 90
        0
 40
-0.6
 41
-30.0
 62
     5
 63
     7
 74
     1
 91
        4
 64
     7
 65
   257
 75
     1
175
     1
 42
1.0
 92
        8
 66
     7
 43
1.0
 76
     1
 77
     6
 78
     2
 67
     7
 79
     5
170
     0
171
     0
290
     0
174
     0
 93
        1
 44
50.0
173
     0
291
     1
 45
0.0
1001
ACAD
1000
AcDbSavedByObjectVersion
1070
     0
  0
VISUALSTYLE
  5
3A
102
{ACAD_REACTORS
330
2A
102
}
102
{ACAD_XDICTIONARY
360
4F8
102
}
330
2A
100
AcDbVisualStyle
  2
ColorChange
 70
    16
 71
     2
 72
     2
 73
     3
 90
        0
 40
-0.6
 41
-30.0
 62
     5
 63
     8
 74
     1
 91
        4
 64
     7
 65
   257
 75
     1
175
     1
 42
1.0
 92
        8
 66
     8
 43
1.0
 76
     1
 77
     6
 78
     2
 67
     7
 79
     5
170
     0
171
     0
290
     0
174
     0
 93
        1
 44
0.0
173
     0
291
     1
 45
0.0
1001
ACAD
1000
AcDbSavedByObjectVersion
1070
     0
  0
VISUALSTYLE
  5
34
102
{ACAD_REACTORS
330
2A
102
}
102
{ACAD_XDICTIONARY
360
4EC
102
}
330
2A
100
AcDbVisualStyle
  2
Conceptual
 70
     9
 71
     3
 72
     2
 73
     0
 90
        0
 40
-0.6
 41
-30.0
 62
     5
 63
     7
 74
     2
 91
        2
 64
     7
 65
   257
 75
     1
175
     1
 42
40.0
 92
        8
 66
     7
 43
1.0
 76
     1
 77
     6
 78
     2
 67
     7
 79
     3
170
     0
171
     0
290
     0
174
     0
 93
        1
 44
0.0
173
     0
291
     0
 45
0.0
1001
ACAD
1000
AcDbSavedByObjectVersion
1070
     0
  0
VISUALSTYLE
  5
35
102
{ACAD_REACTORS
330
2A
102
}
102
{ACAD_XDICTIONARY
360
4EE
102
}
330
2A
100
AcDbVisualStyle
  2
Dim
 70
    11
 71
     2
 72
     2
 73
     0
 90
        0
 40
-0.6
 41
-30.0
 62
     5
 63
     7
 74
     1
 91
        4
 64
     7
 65
   257
 75
     1
175
     1
 42
1.0
 92
        8
 66
     7
 43
1.0
 76
     1
 77
     6
 78
     2
 67
     7
 79
     5
170
     0
171
     0
290
     0
174
     0
 93
        1
 44
-50.0
173
     0
291
     1
 45
0.0
1001
ACAD
1000
AcDbSavedByObjectVersion
1070
     0
  0
VISUALSTYLE
  5
39
102
{ACAD_REACTORS
330
2A
102
}
102
{ACAD_XDICTIONARY
360
4F6
102
}
330
2A
100
AcDbVisualStyle
  2
Facepattern
 70
    15
 71
     2
 72
     2
 73
     0
 90
        0
 40
-0.6
 41
-30.0
 62
     5
 63
     7
 74
     1
 91
        4
 64
     7
 65
   257
 75
     1
175
     1
 42
1.0
 92
        8
 66
     7
 43
1.0
 76
     1
 77
     6
 78
     2
 67
     7
 79
     5
170
     0
171
     0
290
     0
174
     0
 93
        1
 44
0.0
173
     0
291
     1
 45
0.0
1001
ACAD
1000
AcDbSavedByObjectVersion
1070
     0
  0
VISUALSTYLE
  5
2B
102
{ACAD_REACTORS
330
2A
102
}
102
{ACAD_XDICTIONARY
360
4DA
102
}
330
2A
100
AcDbVisualStyle
  2
Flat
 70
     0
 71
     2
 72
     1
 73
     1
 90
        2
 40
-0.6
 41
30.0
 62
     5
 63
     7
 74
     0
 91
        4
 64
     7
 65
   257
 75
     1
175
     1
 42
1.0
 92
        8
 66
     7
 43
1.0
 76
     1
 77
     6
 78
     2
 67
     7
 79
     5
170
     0
171
     0
290
     0
174
     0
 93
       13
 44
0.0
173
     0
291
     1
 45
0.0
1001
ACAD
1000
AcDbSavedByObjectVersion
1070
     0
  0
VISUALSTYLE
  5
2C
102
{ACAD_REACTORS
330
2A
102
}
102
{ACAD_XDICTIONARY
360
4DC
102
}
330
2A
100
AcDbVisualStyle
  2
FlatWithEdges
 70
     1
 71
     2
 72
     1
 73
     1
 90
        2
 40
-0.6
 41
30.0
 62
     5
 63
     7
 74
     1
 91
        4
 64
     7
 65
   257
 75
     1
175
     1
 42
1.0
 92
        0
 66
   257
 43
1.0
 76
     1
 77
     6
 78
     2
 67
     7
 79
     5
170
     0
171
     0
290
     0
174
     0
 93
       13
 44
0.0
173
     0
291
     1
 45
0.0
1001
ACAD
1000
AcDbSavedByObjectVersion
1070
     0
  0
VISUALSTYLE
  5
2D
102
{ACAD_REACTORS
330
2A
102
}
102
{ACAD_XDICTIONARY
360
4DE
102
}
330
2A
100
AcDbVisualStyle
  2
Gouraud
 70
     2
 71
     2
 72
     2
 73
     1
 90
        2
 40
-0.6
 41
30.0
 62
     5
 63
     7
 74
     0
 91
        4
 64
     7
 65
   257
 75
     1
175
     1
 42
1.0
 92
        0
 66
     7
 43
1.0
 76
     1
 77
     6
 78
     2
 67
     7
 79
     5
170
     0
171
     0
290
     0
174
     0
 93
       13
 44
0.0
173
     0
291
     1
 45
0.0
1001
ACAD
1000
AcDbSavedByObjectVersion
1070
     0
  0
VISUALSTYLE
  5
2E
102
{ACAD_REACTORS
330
2A
102
}
102
{ACAD_XDICTIONARY
360
4E0
102
}
330
2A
100
AcDbVisualStyle
  2
GouraudWithEdges
 70
     3
 71
     2
 72
     2
 73
     1
 90
        2
 40
-0.6
 41
30.0
 62
     5
 63
     7
 74
     1
 91
        4
 64
     7
 65
   257
 75
     1
175
     1
 42
1.0
 92
        0
 66
   257
 43
1.0
 76
     1
 77
     6
 78
     2
 67
     7
 79
     5
170
     0
171
     0
290
     0
174
     0
 93
       13
 44
0.0
173
     0
291
     1
 45
0.0
1001
ACAD
1000
AcDbSavedByObjectVersion
1070
     0
  0
VISUALSTYLE
  5
38
102
{ACAD_REACTORS
330
2A
102
}
102
{ACAD_XDICTIONARY
360
4F4
102
}
330
2A
100
AcDbVisualStyle
  2
Linepattern
 70
    14
 71
     2
 72
     2
 73
     0
 90
        0
 40
-0.6
 41
-30.0
 62
     5
 63
     7
 74
     1
 91
        4
 64
     7
 65
   257
 75
     7
175
     7
 42
1.0
 92
        8
 66
     7
 43
1.0
 76
     1
 77
     6
 78
     2
 67
     7
 79
     5
170
     0
171
     0
290
     0
174
     0
 93
        1
 44
0.0
173
     0
291
     1
 45
0.0
1001
ACAD
1000
AcDbSavedByObjectVersion
1070
     0
  0
VISUALSTYLE
  5
33
102
{ACAD_REACTORS
330
2A
102
}
102
{ACAD_XDICTIONARY
360
4EA
102
}
330
2A
100
AcDbVisualStyle
  2
Realistic
 70
     8
 71
     2
 72
     2
 73
     0
 90
        0
 40
-0.6
 41
-30.0
 62
     5
 63
     7
 74
     1
 91
        0
 64
     7
 65
   257
 75
     1
175
     1
 42
1.0
 92
        8
 66
     8
 43
1.0
 76
     1
 77
     6
 78
     2
 67
     7
 79
     5
170
     0
171
     0
290
     0
174
     0
 93
       13
 44
0.0
173
     0
291
     0
 45
0.0
1001
ACAD
1000
AcDbSavedByObjectVersion
1070
     0
  0
VISUALSTYLE
  5
37
102
{ACAD_REACTORS
330
2A
102
}
102
{ACAD_XDICTIONARY
360
4F2
102
}
330
2A
100
AcDbVisualStyle
  2
Thicken
 70
    13
 71
     2
 72
     2
 73
     0
 90
        0
 40
-0.6
 41
-30.0
 62
     5
 63
     7
 74
     1
 91
        4
 64
     7
 65
   257
 75
     1
175
     1
 42
1.0
 92
       12
 66
     7
 43
1.0
 76
     1
 77
     6
 78
     2
 67
     7
 79
     5
170
     0
171
     0
290
     0
174
     0
 93
        1
 44
0.0
173
     0
291
     1
 45
0.0
1001
ACAD
1000
AcDbSavedByObjectVersion
1070
     0
  0
DICTIONARYVAR
  5
4D8
102
{ACAD_REACTORS
330
4D5
102
}
330
4D5
100
DictionaryVariables
280
     0
  1
2
  0
DICTIONARYVAR
  5
4D9
102
{ACAD_REACTORS
330
4D5
102
}
330
4D5
100
DictionaryVariables
280
     0
  1
1
  0
DICTIONARY
  5
4FC
330
3D
100
AcDbDictionary
280
     1
281
     1
  3
ACAD_XREC_ROUNDTRIP
360
4FD
  0
DICTIONARY
  5
4FA
330
3C
100
AcDbDictionary
280
     1
281
     1
  3
ACAD_XREC_ROUNDTRIP
360
4FB
  0
DICTIONARY
  5
4FE
330
3E
100
AcDbDictionary
280
     1
281
     1
  3
ACAD_XREC_ROUNDTRIP
360
4FF
  0
DICTIONARY
  5
4E2
330
2F
100
AcDbDictionary
280
     1
281
     1
  3
ACAD_XREC_ROUNDTRIP
360
4E3
  0
DICTIONARY
  5
4E6
330
31
100
AcDbDictionary
280
     1
281
     1
  3
ACAD_XREC_ROUNDTRIP
360
4E7
  0
DICTIONARY
  5
4E4
330
30
100
AcDbDictionary
280
     1
281
     1
  3
ACAD_XREC_ROUNDTRIP
360
4E5
  0
DICTIONARY
  5
4E8
330
32
100
AcDbDictionary
280
     1
281
     1
  3
ACAD_XREC_ROUNDTRIP
360
4E9
  0
DICTIONARY
  5
4F0
330
36
100
AcDbDictionary
280
     1
281
     1
  3
ACAD_XREC_ROUNDTRIP
360
4F1
  0
DICTIONARY
  5
4F8
330
3A
100
AcDbDictionary
280
     1
281
     1
  3
ACAD_XREC_ROUNDTRIP
360
4F9
  0
DICTIONARY
  5
4EC
330
34
100
AcDbDictionary
280
     1
281
     1
  3
ACAD_XREC_ROUNDTRIP
360
4ED
  0
DICTIONARY
  5
4EE
330
35
100
AcDbDictionary
280
     1
281
     1
  3
ACAD_XREC_ROUNDTRIP
360
4EF
  0
DICTIONARY
  5
4F6
330
39
100
AcDbDictionary
280
     1
281
     1
  3
ACAD_XREC_ROUNDTRIP
360
4F7
  0
DICTIONARY
  5
4DA
330
2B
100
AcDbDictionary
280
     1
281
     1
  3
ACAD_XREC_ROUNDTRIP
360
4DB
  0
DICTIONARY
  5
4DC
330
2C
100
AcDbDictionary
280
     1
281
     1
  3
ACAD_XREC_ROUNDTRIP
360
4DD
  0
DICTIONARY
  5
4DE
330
2D
100
AcDbDictionary
280
     1
281
     1
  3
ACAD_XREC_ROUNDTRIP
360
4DF
  0
DICTIONARY
  5
4E0
330
2E
100
AcDbDictionary
280
     1
281
     1
  3
ACAD_XREC_ROUNDTRIP
360
4E1
  0
DICTIONARY
  5
4F4
330
38
100
AcDbDictionary
280
     1
281
     1
  3
ACAD_XREC_ROUNDTRIP
360
4F5
  0
DICTIONARY
  5
4EA
330
33
100
AcDbDictionary
280
     1
281
     1
  3
ACAD_XREC_ROUNDTRIP
360
4EB
  0
DICTIONARY
  5
4F2
330
37
100
AcDbDictionary
280
     1
281
     1
  3
ACAD_XREC_ROUNDTRIP
360
4F3
  0
XRECORD
  5
4FD
102
{ACAD_REACTORS
330
4FC
102
}
330
4FC
100
AcDbXrecord
280
     1
102
MATERIAL
148
0.0
149
0.0
149
0.0
 93
        0
 94
      127
282
     0
 72
     1
 77
     1
171
     1
175
     1
179
     1
273
     0
  0
XRECORD
  5
4FB
102
{ACAD_REACTORS
330
4FA
102
}
330
4FA
100
AcDbXrecord
280
     1
102
MATERIAL
148
0.0
149
0.0
149
0.0
 93
        0
 94
      127
282
     0
 72
     1
 77
     1
171
     1
175
     1
179
     1
273
     0
  0
XRECORD
  5
4FF
102
{ACAD_REACTORS
330
4FE
102
}
330
4FE
100
AcDbXrecord
280
     1
102
MATERIAL
148
0.0
149
0.0
149
0.0
 93
        0
 94
      127
282
     0
 72
     1
 77
     1
171
     1
175
     1
179
     1
273
     0
  0
XRECORD
  5
4E3
102
{ACAD_REACTORS
330
4E2
102
}
330
4E2
100
AcDbXrecord
280
     1
102
RTVSPropertyOp0
 70
     1
102
RTVSPropertyOp1
 70
     1
102
RTVSPropertyOp2
 70
     1
102
RTVSPropertyOp3
 70
     1
102
RTVSPropertyOp4
 70
     1
102
RTVSPropertyOp5
 70
     1
102
RTVSPropertyOp6
 70
     1
102
RTVSPropertyOp7
 70
     1
102
RTVSPropertyOp8
 70
     1
102
RTVSPropertyOp9
 70
     1
102
RTVSPropertyOp10
 70
     1
102
RTVSPropertyOp11
 70
     1
102
RTVSPropertyOp12
 70
     1
102
RTVSPropertyOp13
 70
     1
102
RTVSPropertyOp14
 70
     1
102
RTVSPropertyOp15
 70
     1
102
RTVSPropertyOp16
 70
     1
102
RTVSPropertyOp17
 70
     1
102
RTVSPropertyOp18
 70
     1
102
RTVSPropertyOp19
 70
     1
102
RTVSPropertyOp20
 70
     1
102
RTVSPropertyOp21
 70
     1
102
RTVSPropertyOp22
 70
     1
102
RTVSPropertyOp23
 70
     1
102
RTVSPropertyOp24
 70
     1
102
RTVSPropertyOp25
 70
     1
102
RTVSPropertyOp26
 70
     1
102
RTVSPropertyOp27
 70
     1
  0
XRECORD
  5
4E7
102
{ACAD_REACTORS
330
4E6
102
}
330
4E6
100
AcDbXrecord
280
     1
102
RTVSPropertyOp0
 70
     1
102
RTVSPropertyOp1
 70
     1
102
RTVSPropertyOp2
 70
     1
102
RTVSPropertyOp3
 70
     1
102
RTVSPropertyOp4
 70
     1
102
RTVSPropertyOp5
 70
     1
102
RTVSPropertyOp6
 70
     1
102
RTVSPropertyOp7
 70
     1
102
RTVSPropertyOp8
 70
     1
102
RTVSPropertyOp9
 70
     1
102
RTVSPropertyOp10
 70
     1
102
RTVSPropertyOp11
 70
     1
102
RTVSPropertyOp12
 70
     1
102
RTVSPropertyOp13
 70
     1
102
RTVSPropertyOp14
 70
     1
102
RTVSPropertyOp15
 70
     1
102
RTVSPropertyOp16
 70
     1
102
RTVSPropertyOp17
 70
     1
102
RTVSPropertyOp18
 70
     1
102
RTVSPropertyOp19
 70
     1
102
RTVSPropertyOp20
 70
     1
102
RTVSPropertyOp21
 70
     1
102
RTVSPropertyOp22
 70
     1
102
RTVSPropertyOp23
 70
     1
102
RTVSPropertyOp24
 70
     1
102
RTVSPropertyOp25
 70
     1
102
RTVSPropertyOp26
 70
     1
102
RTVSPropertyOp27
 70
     1
  0
XRECORD
  5
4E5
102
{ACAD_REACTORS
330
4E4
102
}
330
4E4
100
AcDbXrecord
280
     1
102
RTVSPropertyOp0
 70
     1
102
RTVSPropertyOp1
 70
     1
102
RTVSPropertyOp2
 70
     1
102
RTVSPropertyOp3
 70
     1
102
RTVSPropertyOp4
 70
     1
102
RTVSPropertyOp5
 70
     1
102
RTVSPropertyOp6
 70
     1
102
RTVSPropertyOp7
 70
     1
102
RTVSPropertyOp8
 70
     1
102
RTVSPropertyOp9
 70
     1
102
RTVSPropertyOp10
 70
     1
102
RTVSPropertyOp11
 70
     1
102
RTVSPropertyOp12
 70
     1
102
RTVSPropertyOp13
 70
     1
102
RTVSPropertyOp14
 70
     1
102
RTVSPropertyOp15
 70
     1
102
RTVSPropertyOp16
 70
     1
102
RTVSPropertyOp17
 70
     1
102
RTVSPropertyOp18
 70
     1
102
RTVSPropertyOp19
 70
     1
102
RTVSPropertyOp20
 70
     1
102
RTVSPropertyOp21
 70
     1
102
RTVSPropertyOp22
 70
     1
102
RTVSPropertyOp23
 70
     1
102
RTVSPropertyOp24
 70
     1
102
RTVSPropertyOp25
 70
     1
102
RTVSPropertyOp26
 70
     1
102
RTVSPropertyOp27
 70
     1
  0
XRECORD
  5
4E9
102
{ACAD_REACTORS
330
4E8
102
}
330
4E8
100
AcDbXrecord
280
     1
102
RTVSPropertyOp0
 70
     1
102
RTVSPropertyOp1
 70
     1
102
RTVSPropertyOp2
 70
     1
102
RTVSPropertyOp3
 70
     1
102
RTVSPropertyOp4
 70
     1
102
RTVSPropertyOp5
 70
     1
102
RTVSPropertyOp6
 70
     1
102
RTVSPropertyOp7
 70
     1
102
RTVSPropertyOp8
 70
     1
102
RTVSPropertyOp9
 70
     1
102
RTVSPropertyOp10
 70
     1
102
RTVSPropertyOp11
 70
     1
102
RTVSPropertyOp12
 70
     1
102
RTVSPropertyOp13
 70
     1
102
RTVSPropertyOp14
 70
     1
102
RTVSPropertyOp15
 70
     1
102
RTVSPropertyOp16
 70
     1
102
RTVSPropertyOp17
 70
     1
102
RTVSPropertyOp18
 70
     1
102
RTVSPropertyOp19
 70
     1
102
RTVSPropertyOp20
 70
     1
102
RTVSPropertyOp21
 70
     1
102
RTVSPropertyOp22
 70
     1
102
RTVSPropertyOp23
 70
     1
102
RTVSPropertyOp24
 70
     1
102
RTVSPropertyOp25
 70
     1
102
RTVSPropertyOp26
 70
     1
102
RTVSPropertyOp27
 70
     1
  0
XRECORD
  5
4F1
102
{ACAD_REACTORS
330
4F0
102
}
330
4F0
100
AcDbXrecord
280
     1
102
RTVSPropertyOp0
 70
     1
102
RTVSPropertyOp1
 70
     1
102
RTVSPropertyOp2
 70
     1
102
RTVSPropertyOp3
 70
     1
102
RTVSPropertyOp4
 70
     1
102
RTVSPropertyOp5
 70
     1
102
RTVSPropertyOp6
 70
     1
102
RTVSPropertyOp7
 70
     1
102
RTVSPropertyOp8
 70
     1
102
RTVSPropertyOp9
 70
     1
102
RTVSPropertyOp10
 70
     1
102
RTVSPropertyOp11
 70
     1
102
RTVSPropertyOp12
 70
     1
102
RTVSPropertyOp13
 70
     1
102
RTVSPropertyOp14
 70
     1
102
RTVSPropertyOp15
 70
     1
102
RTVSPropertyOp16
 70
     1
102
RTVSPropertyOp17
 70
     1
102
RTVSPropertyOp18
 70
     1
102
RTVSPropertyOp19
 70
     1
102
RTVSPropertyOp20
 70
     1
102
RTVSPropertyOp21
 70
     1
102
RTVSPropertyOp22
 70
     1
102
RTVSPropertyOp23
 70
     1
102
RTVSPropertyOp24
 70
     1
102
RTVSPropertyOp25
 70
     1
102
RTVSPropertyOp26
 70
     1
102
RTVSPropertyOp27
 70
     1
  0
XRECORD
  5
4F9
102
{ACAD_REACTORS
330
4F8
102
}
330
4F8
100
AcDbXrecord
280
     1
102
RTVSPropertyOp0
 70
     1
102
RTVSPropertyOp1
 70
     1
102
RTVSPropertyOp2
 70
     1
102
RTVSPropertyOp3
 70
     1
102
RTVSPropertyOp4
 70
     1
102
RTVSPropertyOp5
 70
     1
102
RTVSPropertyOp6
 70
     1
102
RTVSPropertyOp7
 70
     1
102
RTVSPropertyOp8
 70
     1
102
RTVSPropertyOp9
 70
     1
102
RTVSPropertyOp10
 70
     1
102
RTVSPropertyOp11
 70
     1
102
RTVSPropertyOp12
 70
     1
102
RTVSPropertyOp13
 70
     1
102
RTVSPropertyOp14
 70
     1
102
RTVSPropertyOp15
 70
     1
102
RTVSPropertyOp16
 70
     1
102
RTVSPropertyOp17
 70
     1
102
RTVSPropertyOp18
 70
     1
102
RTVSPropertyOp19
 70
     1
102
RTVSPropertyOp20
 70
     1
102
RTVSPropertyOp21
 70
     1
102
RTVSPropertyOp22
 70
     1
102
RTVSPropertyOp23
 70
     1
102
RTVSPropertyOp24
 70
     1
102
RTVSPropertyOp25
 70
     1
102
RTVSPropertyOp26
 70
     1
102
RTVSPropertyOp27
 70
     1
  0
XRECORD
  5
4ED
102
{ACAD_REACTORS
330
4EC
102
}
330
4EC
100
AcDbXrecord
280
     1
102
RTVSPropertyOp0
 70
     1
102
RTVSPropertyOp1
 70
     1
102
RTVSPropertyOp2
 70
     1
102
RTVSPropertyOp3
 70
     1
102
RTVSPropertyOp4
 70
     1
102
RTVSPropertyOp5
 70
     1
102
RTVSPropertyOp6
 70
     1
102
RTVSPropertyOp7
 70
     1
102
RTVSPropertyOp8
 70
     1
102
RTVSPropertyOp9
 70
     1
102
RTVSPropertyOp10
 70
     1
102
RTVSPropertyOp11
 70
     1
102
RTVSPropertyOp12
 70
     1
102
RTVSPropertyOp13
 70
     1
102
RTVSPropertyOp14
 70
     1
102
RTVSPropertyOp15
 70
     1
102
RTVSPropertyOp16
 70
     1
102
RTVSPropertyOp17
 70
     1
102
RTVSPropertyOp18
 70
     1
102
RTVSPropertyOp19
 70
     1
102
RTVSPropertyOp20
 70
     1
102
RTVSPropertyOp21
 70
     1
102
RTVSPropertyOp22
 70
     1
102
RTVSPropertyOp23
 70
     1
102
RTVSPropertyOp24
 70
     1
102
RTVSPropertyOp25
 70
     1
102
RTVSPropertyOp26
 70
     1
102
RTVSPropertyOp27
 70
     1
  0
XRECORD
  5
4EF
102
{ACAD_REACTORS
330
4EE
102
}
330
4EE
100
AcDbXrecord
280
     1
102
RTVSPropertyOp0
 70
     1
102
RTVSPropertyOp1
 70
     1
102
RTVSPropertyOp2
 70
     1
102
RTVSPropertyOp3
 70
     1
102
RTVSPropertyOp4
 70
     1
102
RTVSPropertyOp5
 70
     1
102
RTVSPropertyOp6
 70
     1
102
RTVSPropertyOp7
 70
     1
102
RTVSPropertyOp8
 70
     1
102
RTVSPropertyOp9
 70
     1
102
RTVSPropertyOp10
 70
     1
102
RTVSPropertyOp11
 70
     1
102
RTVSPropertyOp12
 70
     1
102
RTVSPropertyOp13
 70
     1
102
RTVSPropertyOp14
 70
     1
102
RTVSPropertyOp15
 70
     1
102
RTVSPropertyOp16
 70
     1
102
RTVSPropertyOp17
 70
     1
102
RTVSPropertyOp18
 70
     1
102
RTVSPropertyOp19
 70
     1
102
RTVSPropertyOp20
 70
     1
102
RTVSPropertyOp21
 70
     1
102
RTVSPropertyOp22
 70
     1
102
RTVSPropertyOp23
 70
     1
102
RTVSPropertyOp24
 70
     1
102
RTVSPropertyOp25
 70
     1
102
RTVSPropertyOp26
 70
     1
102
RTVSPropertyOp27
 70
     1
  0
XRECORD
  5
4F7
102
{ACAD_REACTORS
330
4F6
102
}
330
4F6
100
AcDbXrecord
280
     1
102
RTVSPropertyOp0
 70
     1
102
RTVSPropertyOp1
 70
     1
102
RTVSPropertyOp2
 70
     1
102
RTVSPropertyOp3
 70
     1
102
RTVSPropertyOp4
 70
     1
102
RTVSPropertyOp5
 70
     1
102
RTVSPropertyOp6
 70
     1
102
RTVSPropertyOp7
 70
     1
102
RTVSPropertyOp8
 70
     1
102
RTVSPropertyOp9
 70
     1
102
RTVSPropertyOp10
 70
     1
102
RTVSPropertyOp11
 70
     1
102
RTVSPropertyOp12
 70
     1
102
RTVSPropertyOp13
 70
     1
102
RTVSPropertyOp14
 70
     1
102
RTVSPropertyOp15
 70
     1
102
RTVSPropertyOp16
 70
     1
102
RTVSPropertyOp17
 70
     1
102
RTVSPropertyOp18
 70
     1
102
RTVSPropertyOp19
 70
     1
102
RTVSPropertyOp20
 70
     1
102
RTVSPropertyOp21
 70
     1
102
RTVSPropertyOp22
 70
     1
102
RTVSPropertyOp23
 70
     1
102
RTVSPropertyOp24
 70
     1
102
RTVSPropertyOp25
 70
     1
102
RTVSPropertyOp26
 70
     1
102
RTVSPropertyOp27
 70
     1
  0
XRECORD
  5
4DB
102
{ACAD_REACTORS
330
4DA
102
}
330
4DA
100
AcDbXrecord
280
     1
102
RTVSPropertyOp0
 70
     1
102
RTVSPropertyOp1
 70
     1
102
RTVSPropertyOp2
 70
     1
102
RTVSPropertyOp3
 70
     1
102
RTVSPropertyOp4
 70
     1
102
RTVSPropertyOp5
 70
     1
102
RTVSPropertyOp6
 70
     1
102
RTVSPropertyOp7
 70
     1
102
RTVSPropertyOp8
 70
     1
102
RTVSPropertyOp9
 70
     1
102
RTVSPropertyOp10
 70
     1
102
RTVSPropertyOp11
 70
     1
102
RTVSPropertyOp12
 70
     1
102
RTVSPropertyOp13
 70
     1
102
RTVSPropertyOp14
 70
     1
102
RTVSPropertyOp15
 70
     1
102
RTVSPropertyOp16
 70
     1
102
RTVSPropertyOp17
 70
     1
102
RTVSPropertyOp18
 70
     1
102
RTVSPropertyOp19
 70
     1
102
RTVSPropertyOp20
 70
     1
102
RTVSPropertyOp21
 70
     1
102
RTVSPropertyOp22
 70
     1
102
RTVSPropertyOp23
 70
     1
102
RTVSPropertyOp24
 70
     1
102
RTVSPropertyOp25
 70
     1
102
RTVSPropertyOp26
 70
     1
102
RTVSPropertyOp27
 70
     1
  0
XRECORD
  5
4DD
102
{ACAD_REACTORS
330
4DC
102
}
330
4DC
100
AcDbXrecord
280
     1
102
RTVSPropertyOp0
 70
     1
102
RTVSPropertyOp1
 70
     1
102
RTVSPropertyOp2
 70
     1
102
RTVSPropertyOp3
 70
     1
102
RTVSPropertyOp4
 70
     1
102
RTVSPropertyOp5
 70
     1
102
RTVSPropertyOp6
 70
     1
102
RTVSPropertyOp7
 70
     1
102
RTVSPropertyOp8
 70
     1
102
RTVSPropertyOp9
 70
     1
102
RTVSPropertyOp10
 70
     1
102
RTVSPropertyOp11
 70
     1
102
RTVSPropertyOp12
 70
     1
102
RTVSPropertyOp13
 70
     1
102
RTVSPropertyOp14
 70
     1
102
RTVSPropertyOp15
 70
     1
102
RTVSPropertyOp16
 70
     1
102
RTVSPropertyOp17
 70
     1
102
RTVSPropertyOp18
 70
     1
102
RTVSPropertyOp19
 70
     1
102
RTVSPropertyOp20
 70
     1
102
RTVSPropertyOp21
 70
     1
102
RTVSPropertyOp22
 70
     1
102
RTVSPropertyOp23
 70
     1
102
RTVSPropertyOp24
 70
     1
102
RTVSPropertyOp25
 70
     1
102
RTVSPropertyOp26
 70
     1
102
RTVSPropertyOp27
 70
     1
  0
XRECORD
  5
4DF
102
{ACAD_REACTORS
330
4DE
102
}
330
4DE
100
AcDbXrecord
280
     1
102
RTVSPropertyOp0
 70
     1
102
RTVSPropertyOp1
 70
     1
102
RTVSPropertyOp2
 70
     1
102
RTVSPropertyOp3
 70
     1
102
RTVSPropertyOp4
 70
     1
102
RTVSPropertyOp5
 70
     1
102
RTVSPropertyOp6
 70
     1
102
RTVSPropertyOp7
 70
     1
102
RTVSPropertyOp8
 70
     1
102
RTVSPropertyOp9
 70
     1
102
RTVSPropertyOp10
 70
     1
102
RTVSPropertyOp11
 70
     1
102
RTVSPropertyOp12
 70
     1
102
RTVSPropertyOp13
 70
     1
102
RTVSPropertyOp14
 70
     1
102
RTVSPropertyOp15
 70
     1
102
RTVSPropertyOp16
 70
     1
102
RTVSPropertyOp17
 70
     1
102
RTVSPropertyOp18
 70
     1
102
RTVSPropertyOp19
 70
     1
102
RTVSPropertyOp20
 70
     1
102
RTVSPropertyOp21
 70
     1
102
RTVSPropertyOp22
 70
     1
102
RTVSPropertyOp23
 70
     1
102
RTVSPropertyOp24
 70
     1
102
RTVSPropertyOp25
 70
     1
102
RTVSPropertyOp26
 70
     1
102
RTVSPropertyOp27
 70
     1
  0
XRECORD
  5
4E1
102
{ACAD_REACTORS
330
4E0
102
}
330
4E0
100
AcDbXrecord
280
     1
102
RTVSPropertyOp0
 70
     1
102
RTVSPropertyOp1
 70
     1
102
RTVSPropertyOp2
 70
     1
102
RTVSPropertyOp3
 70
     1
102
RTVSPropertyOp4
 70
     1
102
RTVSPropertyOp5
 70
     1
102
RTVSPropertyOp6
 70
     1
102
RTVSPropertyOp7
 70
     1
102
RTVSPropertyOp8
 70
     1
102
RTVSPropertyOp9
 70
     1
102
RTVSPropertyOp10
 70
     1
102
RTVSPropertyOp11
 70
     1
102
RTVSPropertyOp12
 70
     1
102
RTVSPropertyOp13
 70
     1
102
RTVSPropertyOp14
 70
     1
102
RTVSPropertyOp15
 70
     1
102
RTVSPropertyOp16
 70
     1
102
RTVSPropertyOp17
 70
     1
102
RTVSPropertyOp18
 70
     1
102
RTVSPropertyOp19
 70
     1
102
RTVSPropertyOp20
 70
     1
102
RTVSPropertyOp21
 70
     1
102
RTVSPropertyOp22
 70
     1
102
RTVSPropertyOp23
 70
     1
102
RTVSPropertyOp24
 70
     1
102
RTVSPropertyOp25
 70
     1
102
RTVSPropertyOp26
 70
     1
102
RTVSPropertyOp27
 70
     1
  0
XRECORD
  5
4F5
102
{ACAD_REACTORS
330
4F4
102
}
330
4F4
100
AcDbXrecord
280
     1
102
RTVSPropertyOp0
 70
     1
102
RTVSPropertyOp1
 70
     1
102
RTVSPropertyOp2
 70
     1
102
RTVSPropertyOp3
 70
     1
102
RTVSPropertyOp4
 70
     1
102
RTVSPropertyOp5
 70
     1
102
RTVSPropertyOp6
 70
     1
102
RTVSPropertyOp7
 70
     1
102
RTVSPropertyOp8
 70
     1
102
RTVSPropertyOp9
 70
     1
102
RTVSPropertyOp10
 70
     1
102
RTVSPropertyOp11
 70
     1
102
RTVSPropertyOp12
 70
     1
102
RTVSPropertyOp13
 70
     1
102
RTVSPropertyOp14
 70
     1
102
RTVSPropertyOp15
 70
     1
102
RTVSPropertyOp16
 70
     1
102
RTVSPropertyOp17
 70
     1
102
RTVSPropertyOp18
 70
     1
102
RTVSPropertyOp19
 70
     1
102
RTVSPropertyOp20
 70
     1
102
RTVSPropertyOp21
 70
     1
102
RTVSPropertyOp22
 70
     1
102
RTVSPropertyOp23
 70
     1
102
RTVSPropertyOp24
 70
     1
102
RTVSPropertyOp25
 70
     1
102
RTVSPropertyOp26
 70
     1
102
RTVSPropertyOp27
 70
     1
  0
XRECORD
  5
4EB
102
{ACAD_REACTORS
330
4EA
102
}
330
4EA
100
AcDbXrecord
280
     1
102
RTVSPropertyOp0
 70
     1
102
RTVSPropertyOp1
 70
     1
102
RTVSPropertyOp2
 70
     1
102
RTVSPropertyOp3
 70
     1
102
RTVSPropertyOp4
 70
     1
102
RTVSPropertyOp5
 70
     1
102
RTVSPropertyOp6
 70
     1
102
RTVSPropertyOp7
 70
     1
102
RTVSPropertyOp8
 70
     1
102
RTVSPropertyOp9
 70
     1
102
RTVSPropertyOp10
 70
     1
102
RTVSPropertyOp11
 70
     1
102
RTVSPropertyOp12
 70
     1
102
RTVSPropertyOp13
 70
     1
102
RTVSPropertyOp14
 70
     1
102
RTVSPropertyOp15
 70
     1
102
RTVSPropertyOp16
 70
     1
102
RTVSPropertyOp17
 70
     1
102
RTVSPropertyOp18
 70
     1
102
RTVSPropertyOp19
 70
     1
102
RTVSPropertyOp20
 70
     1
102
RTVSPropertyOp21
 70
     1
102
RTVSPropertyOp22
 70
     1
102
RTVSPropertyOp23
 70
     1
102
RTVSPropertyOp24
 70
     1
102
RTVSPropertyOp25
 70
     1
102
RTVSPropertyOp26
 70
     1
102
RTVSPropertyOp27
 70
     1
  0
XRECORD
  5
4F3
102
{ACAD_REACTORS
330
4F2
102
}
330
4F2
100
AcDbXrecord
280
     1
102
RTVSPropertyOp0
 70
     1
102
RTVSPropertyOp1
 70
     1
102
RTVSPropertyOp2
 70
     1
102
RTVSPropertyOp3
 70
     1
102
RTVSPropertyOp4
 70
     1
102
RTVSPropertyOp5
 70
     1
102
RTVSPropertyOp6
 70
     1
102
RTVSPropertyOp7
 70
     1
102
RTVSPropertyOp8
 70
     1
102
RTVSPropertyOp9
 70
     1
102
RTVSPropertyOp10
 70
     1
102
RTVSPropertyOp11
 70
     1
102
RTVSPropertyOp12
 70
     1
102
RTVSPropertyOp13
 70
     1
102
RTVSPropertyOp14
 70
     1
102
RTVSPropertyOp15
 70
     1
102
RTVSPropertyOp16
 70
     1
102
RTVSPropertyOp17
 70
     1
102
RTVSPropertyOp18
 70
     1
102
RTVSPropertyOp19
 70
     1
102
RTVSPropertyOp20
 70
     1
102
RTVSPropertyOp21
 70
     1
102
RTVSPropertyOp22
 70
     1
102
RTVSPropertyOp23
 70
     1
102
RTVSPropertyOp24
 70
     1
102
RTVSPropertyOp25
 70
     1
102
RTVSPropertyOp26
 70
     1
102
RTVSPropertyOp27
 70
     1
  0
ENDSEC
  0
EOF
