  0
SECTION
  2
HEADER
  9
$ACADVER
  1
AC1015
  9
$ACADMAINTVER
 70
     6
  9
$DWGCODEPAGE
  3
ANSI_932
  9
$INSBASE
 10
0.0
 20
0.0
 30
0.0
  9
$EXTMIN
 10
34.0624551644257
 20
-186.797763454545
 30
0.0
  9
$EXTMAX
 10
240.345855479367
 20
587.050097172737
 30
0.0
  9
$LIMMIN
 10
0.0
 20
0.0
  9
$LIMMAX
 10
12.0
 20
9.0
  9
$ORTHOMODE
 70
     0
  9
$REGENMODE
 70
     1
  9
$FILLMODE
 70
     1
  9
$QTEXTMODE
 70
     0
  9
$MIRRTEXT
 70
     1
  9
$LTSCALE
 40
1.0
  9
$ATTMODE
 70
     1
  9
$TEXTSIZE
 40
0.2
  9
$TRACEWID
 40
0.05
  9
$TEXTSTYLE
  7
Standard
  9
$CLAYER
  8
0
  9
$CELTYPE
  6
ByLayer
  9
$CECOLOR
 62
   256
  9
$CELTSCALE
 40
1.0
  9
$DISPSILH
 70
     0
  9
$DIMSCALE
 40
1.0
  9
$DIMASZ
 40
0.18
  9
$DIMEXO
 40
0.0625
  9
$DIMDLI
 40
0.38
  9
$DIMRND
 40
0.0
  9
$DIMDLE
 40
0.0
  9
$DIMEXE
 40
0.18
  9
$DIMTP
 40
0.0
  9
$DIMTM
 40
0.0
  9
$DIMTXT
 40
0.18
  9
$DIMCEN
 40
0.09
  9
$DIMTSZ
 40
0.0
  9
$DIMTOL
 70
     0
  9
$DIMLIM
 70
     0
  9
$DIMTIH
 70
     1
  9
$DIMTOH
 70
     1
  9
$DIMSE1
 70
     0
  9
$DIMSE2
 70
     0
  9
$DIMTAD
 70
     0
  9
$DIMZIN
 70
     0
  9
$DIMBLK
  1

  9
$DIMASO
 70
     1
  9
$DIMSHO
 70
     1
  9
$DIMPOST
  1

  9
$DIMAPOST
  1

  9
$DIMALT
 70
     0
  9
$DIMALTD
 70
     2
  9
$DIMALTF
 40
25.4
  9
$DIMLFAC
 40
1.0
  9
$DIMTOFL
 70
     0
  9
$DIMTVP
 40
0.0
  9
$DIMTIX
 70
     0
  9
$DIMSOXD
 70
     0
  9
$DIMSAH
 70
     0
  9
$DIMBLK1
  1

  9
$DIMBLK2
  1

  9
$DIMSTYLE
  2
Standard
  9
$DIMCLRD
 70
     0
  9
$DIMCLRE
 70
     0
  9
$DIMCLRT
 70
     0
  9
$DIMTFAC
 40
1.0
  9
$DIMGAP
 40
0.09
  9
$DIMJUST
 70
     0
  9
$DIMSD1
 70
     0
  9
$DIMSD2
 70
     0
  9
$DIMTOLJ
 70
     1
  9
$DIMTZIN
 70
     0
  9
$DIMALTZ
 70
     0
  9
$DIMALTTZ
 70
     0
  9
$DIMUPT
 70
     0
  9
$DIMDEC
 70
     4
  9
$DIMTDEC
 70
     4
  9
$DIMALTU
 70
     2
  9
$DIMALTTD
 70
     2
  9
$DIMTXSTY
  7
Standard
  9
$DIMAUNIT
 70
     0
  9
$DIMADEC
 70
     0
  9
$DIMALTRND
 40
0.0
  9
$DIMAZIN
 70
     0
  9
$DIMDSEP
 70
    46
  9
$DIMATFIT
 70
     3
  9
$DIMFRAC
 70
     0
  9
$DIMLDRBLK
  1

  9
$DIMLUNIT
 70
     2
  9
$DIMLWD
 70
    -2
  9
$DIMLWE
 70
    -2
  9
$DIMTMOVE
 70
     0
  9
$LUNITS
 70
     2
  9
$LUPREC
 70
     4
  9
$SKETCHINC
 40
0.1
  9
$FILLETRAD
 40
0.5
  9
$AUNITS
 70
     0
  9
$AUPREC
 70
     0
  9
$MENU
  1
.
  9
$ELEVATION
 40
0.0
  9
$PELEVATION
 40
0.0
  9
$THICKNESS
 40
0.0
  9
$LIMCHECK
 70
     0
  9
$CHAMFERA
 40
0.5
  9
$CHAMFERB
 40
0.5
  9
$CHAMFERC
 40
1.0
  9
$CHAMFERD
 40
0.0
  9
$SKPOLY
 70
     0
  9
$TDCREATE
 40
2457624.736717639
  9
$TDUCREATE
 40
2457624.361717639
  9
$TDUPDATE
 40
2457624.736717651
  9
$TDUUPDATE
 40
2457624.361717651
  9
$TDINDWG
 40
0.0000000116
  9
$TDUSRTIMER
 40
0.0000000116
  9
$USRTIMER
 70
     1
  9
$ANGBASE
 50
0.0
  9
$ANGDIR
 70
     0
  9
$PDMODE
 70
     0
  9
$PDSIZE
 40
0.0
  9
$PLINEWID
 40
0.0
  9
$SPLFRAME
 70
     0
  9
$SPLINETYPE
 70
     6
  9
$SPLINESEGS
 70
     8
  9
$HANDSEED
  5
2C3
  9
$SURFTAB1
 70
     6
  9
$SURFTAB2
 70
     6
  9
$SURFTYPE
 70
     6
  9
$SURFU
 70
     6
  9
$SURFV
 70
     6
  9
$UCSBASE
  2

  9
$UCSNAME
  2

  9
$UCSORG
 10
0.0
 20
0.0
 30
0.0
  9
$UCSXDIR
 10
1.0
 20
0.0
 30
0.0
  9
$UCSYDIR
 10
0.0
 20
1.0
 30
0.0
  9
$UCSORTHOREF
  2

  9
$UCSORTHOVIEW
 70
     0
  9
$UCSORGTOP
 10
0.0
 20
0.0
 30
0.0
  9
$UCSORGBOTTOM
 10
0.0
 20
0.0
 30
0.0
  9
$UCSORGLEFT
 10
0.0
 20
0.0
 30
0.0
  9
$UCSORGRIGHT
 10
0.0
 20
0.0
 30
0.0
  9
$UCSORGFRONT
 10
0.0
 20
0.0
 30
0.0
  9
$UCSORGBACK
 10
0.0
 20
0.0
 30
0.0
  9
$PUCSBASE
  2

  9
$PUCSNAME
  2

  9
$PUCSORG
 10
0.0
 20
0.0
 30
0.0
  9
$PUCSXDIR
 10
1.0
 20
0.0
 30
0.0
  9
$PUCSYDIR
 10
0.0
 20
1.0
 30
0.0
  9
$PUCSORTHOREF
  2

  9
$PUCSORTHOVIEW
 70
     0
  9
$PUCSORGTOP
 10
0.0
 20
0.0
 30
0.0
  9
$PUCSORGBOTTOM
 10
0.0
 20
0.0
 30
0.0
  9
$PUCSORGLEFT
 10
0.0
 20
0.0
 30
0.0
  9
$PUCSORGRIGHT
 10
0.0
 20
0.0
 30
0.0
  9
$PUCSORGFRONT
 10
0.0
 20
0.0
 30
0.0
  9
$PUCSORGBACK
 10
0.0
 20
0.0
 30
0.0
  9
$USERI1
 70
     0
  9
$USERI2
 70
     0
  9
$USERI3
 70
     0
  9
$USERI4
 70
     0
  9
$USERI5
 70
     0
  9
$USERR1
 40
18.0
  9
$USERR2
 40
0.0
  9
$USERR3
 40
0.0
  9
$USERR4
 40
0.0
  9
$USERR5
 40
0.0
  9
$WORLDVIEW
 70
     1
  9
$SHADEDGE
 70
     3
  9
$SHADEDIF
 70
    70
  9
$TILEMODE
 70
     1
  9
$MAXACTVP
 70
    64
  9
$PINSBASE
 10
0.0
 20
0.0
 30
0.0
  9
$PLIMCHECK
 70
     0
  9
$PEXTMIN
 10
1.00000000000000E+20
 20
1.00000000000000E+20
 30
1.00000000000000E+20
  9
$PEXTMAX
 10
-1.00000000000000E+20
 20
-1.00000000000000E+20
 30
-1.00000000000000E+20
  9
$PLIMMIN
 10
0.0
 20
0.0
  9
$PLIMMAX
 10
12.0
 20
9.0
  9
$UNITMODE
 70
     0
  9
$VISRETAIN
 70
     1
  9
$PLINEGEN
 70
     0
  9
$PSLTSCALE
 70
     1
  9
$TREEDEPTH
 70
  3020
  9
$CMLSTYLE
  2
Standard
  9
$CMLJUST
 70
     0
  9
$CMLSCALE
 40
1.0
  9
$PROXYGRAPHICS
 70
     1
  9
$MEASUREMENT
 70
     1
  9
$CELWEIGHT
370
    -1
  9
$ENDCAPS
280
     0
  9
$JOINSTYLE
280
     0
  9
$LWDISPLAY
290
     0
  9
$INSUNITS
 70
     1
  9
$HYPERLINKBASE
  1

  9
$STYLESHEET
  1

  9
$XEDIT
290
     1
  9
$CEPSNTYPE
380
     0
  9
$PSTYLEMODE
290
     1
  9
$FINGERPRINTGUID
  2
{85E8415D-71A9-4AF3-B891-B3F8E704E934}
  9
$VERSIONGUID
  2
{FAEB1C32-E019-11D5-929B-00C0DF256EC4}
  9
$EXTNAMES
290
     1
  9
$PSVPSCALE
 40
0.0
  9
$OLESTARTUP
290
     0
  0
ENDSEC
  0
SECTION
  2
CLASSES
  0
CLASS
  1
ACDBDICTIONARYWDFLT
  2
AcDbDictionaryWithDefault
  3
ObjectDBX Classes
 90
        0
280
     0
281
     0
  0
CLASS
  1
VISUALSTYLE
  2
AcDbVisualStyle
  3
ObjectDBX Classes
 90
     4095
280
     0
281
     0
  0
CLASS
  1
MATERIAL
  2
AcDbMaterial
  3
ObjectDBX Classes
 90
     1153
280
     0
281
     0
  0
CLASS
  1

  2
exOdDbCircle
  3

 90
        0
280
     0
281
     1
  0
CLASS
  1

  2
exOdDbSpline
  3

 90
        0
280
     0
281
     1
  0
CLASS
  1

  2
exOdDbPolyline
  3

 90
        0
280
     0
281
     1
  0
CLASS
  1
DICTIONARYVAR
  2
AcDbDictionaryVar
  3
ObjectDBX Classes
 90
        0
280
     0
281
     0
  0
CLASS
  1
ACDBPLACEHOLDER
  2
AcDbPlaceHolder
  3
ObjectDBX Classes
 90
        0
280
     0
281
     0
  0
CLASS
  1
LAYOUT
  2
AcDbLayout
  3
ObjectDBX Classes
 90
        0
280
     0
281
     0
  0
ENDSEC
  0
SECTION
  2
TABLES
  0
TABLE
  2
VPORT
  5
8
330
0
100
AcDbSymbolTable
 70
     1
  0
VPORT
  5
29
330
8
100
AcDbSymbolTableRecord
100
AcDbViewportTableRecord
  2
*Active
 70
     0
 10
0.0
 20
0.0
 11
1.0
 21
1.0
 12
137.2041553218963
 22
200.126166859096
 13
0.0
 23
0.0
 14
0.5
 24
0.5
 15
0.5
 25
0.5
 16
0.0
 26
0.0
 36
1.0
 17
0.0
 27
0.0
 37
0.0
 40
851.2326466900103
 41
1.60267857142857
 42
50.0
 43
0.0
 44
0.0
 50
0.0
 51
0.0
 71
     0
 72
   100
 73
     1
 74
     3
 75
     0
 76
     0
 77
     0
 78
     0
281
     0
 65
     1
110
0.0
120
0.0
130
0.0
111
1.0
121
0.0
131
0.0
112
0.0
122
1.0
132
0.0
 79
     0
146
0.0
  0
ENDTAB
  0
TABLE
  2
LTYPE
  5
5
330
0
100
AcDbSymbolTable
 70
     8
  0
LTYPE
  5
14
330
5
100
AcDbSymbolTableRecord
100
AcDbLinetypeTableRecord
  2
ByBlock
 70
     0
  3

 72
    65
 73
     0
 40
0.0
  0
LTYPE
  5
15
330
5
100
AcDbSymbolTableRecord
100
AcDbLinetypeTableRecord
  2
ByLayer
 70
     0
  3

 72
    65
 73
     0
 40
0.0
  0
LTYPE
  5
16
330
5
100
AcDbSymbolTableRecord
100
AcDbLinetypeTableRecord
  2
Continuous
 70
     0
  3
Solid line
 72
    65
 73
     0
 40
0.0
  0
LTYPE
  5
3F
330
5
100
AcDbSymbolTableRecord
100
AcDbLinetypeTableRecord
  2
DASHED
 70
     0
  3
Dashed
 72
    65
 73
     2
 40
15.0
 49
7.0
 74
     0
 49
-8.0
 74
     0
  0
LTYPE
  5
40
330
5
100
AcDbSymbolTableRecord
100
AcDbLinetypeTableRecord
  2
DOTTED
 70
     0
  3
Dotted
 72
    65
 73
     2
 40
1.0
 49
0.0
 74
     0
 49
-1.0
 74
     0
  0
LTYPE
  5
41
330
5
100
AcDbSymbolTableRecord
100
AcDbLinetypeTableRecord
  2
DOT_CENTER
 70
     0
  3
Dot_Center
 72
    65
 73
     4
 40
14.0
 49
12.0
 74
     0
 49
-1.0
 74
     0
 49
0.0
 74
     0
 49
-1.0
 74
     0
  0
LTYPE
  5
42
330
5
100
AcDbSymbolTableRecord
100
AcDbLinetypeTableRecord
  2
LONG_DASHED
 70
     0
  3
Long_Dashed
 72
    65
 73
     2
 40
15.0
 49
10.0
 74
     0
 49
-5.0
 74
     0
  0
LTYPE
  5
43
330
5
100
AcDbSymbolTableRecord
100
AcDbLinetypeTableRecord
  2
DASH_CENTER
 70
     0
  3
Dash_Center
 72
    65
 73
     4
 40
14.0
 49
11.0
 74
     0
 49
-1.0
 74
     0
 49
1.0
 74
     0
 49
-1.0
 74
     0
  0
LTYPE
  5
44
330
5
100
AcDbSymbolTableRecord
100
AcDbLinetypeTableRecord
  2
PHANTOM
 70
     0
  3
Phantom
 72
    65
 73
     6
 40
13.0
 49
10.0
 74
     0
 49
-1.0
 74
     0
 49
0.0
 74
     0
 49
-1.0
 74
     0
 49
0.0
 74
     0
 49
-1.0
 74
     0
  0
LTYPE
  5
45
330
5
100
AcDbSymbolTableRecord
100
AcDbLinetypeTableRecord
  2
CENTER_DASH_DASH
 70
     0
  3
Center_Dash_Dash
 72
    65
 73
     6
 40
14.0
 49
9.0
 74
     0
 49
-1.0
 74
     0
 49
1.0
 74
     0
 49
-1.0
 74
     0
 49
1.0
 74
     0
 49
-1.0
 74
     0
  0
ENDTAB
  0
TABLE
  2
LAYER
  5
2
330
0
100
AcDbSymbolTable
 70
     6
  0
LAYER
  5
10
330
2
100
AcDbSymbolTableRecord
100
AcDbLayerTableRecord
  2
0
 70
     0
 62
     7
  6
Continuous
370
    -3
390
F
  0
LAYER
  5
46
330
2
100
AcDbSymbolTableRecord
100
AcDbLayerTableRecord
  2
1
 70
     0
 62
     7
  6
Continuous
370
    -3
390
F
  0
LAYER
  5
47
330
2
100
AcDbSymbolTableRecord
100
AcDbLayerTableRecord
  2
11
 70
     0
 62
     7
  6
Continuous
370
    -3
390
F
  0
LAYER
  5
48
330
2
100
AcDbSymbolTableRecord
100
AcDbLayerTableRecord
  2
2
 70
     0
 62
     7
  6
Continuous
370
    -3
390
F
  0
LAYER
  5
49
330
2
100
AcDbSymbolTableRecord
100
AcDbLayerTableRecord
  2
3
 70
     0
 62
     7
  6
Continuous
370
    -3
390
F
  0
LAYER
  5
4A
330
2
100
AcDbSymbolTableRecord
100
AcDbLayerTableRecord
  2
5
 70
     0
 62
     7
  6
Continuous
370
    -3
390
F
  0
ENDTAB
  0
TABLE
  2
STYLE
  5
3
330
0
100
AcDbSymbolTable
 70
     1
  0
STYLE
  5
11
330
3
100
AcDbSymbolTableRecord
100
AcDbTextStyleTableRecord
  2
Standard
 70
     0
 40
0.0
 41
1.0
 50
0.0
 71
     0
 42
0.2
  3
txt
  4

  0
ENDTAB
  0
TABLE
  2
VIEW
  5
6
330
0
100
AcDbSymbolTable
 70
     0
  0
ENDTAB
  0
TABLE
  2
UCS
  5
7
330
0
100
AcDbSymbolTable
 70
     0
  0
ENDTAB
  0
TABLE
  2
APPID
  5
9
330
0
100
AcDbSymbolTable
 70
     1
  0
APPID
  5
12
330
9
100
AcDbSymbolTableRecord
100
AcDbRegAppTableRecord
  2
ACAD
 70
     0
  0
ENDTAB
  0
TABLE
  2
DIMSTYLE
  5
A
330
0
100
AcDbSymbolTable
 70
     1
100
AcDbDimStyleTable
  0
DIMSTYLE
105
27
330
A
100
AcDbSymbolTableRecord
100
AcDbDimStyleTableRecord
  2
Standard
 70
     0
340
11
  0
ENDTAB
  0
TABLE
  2
BLOCK_RECORD
  5
1
330
0
100
AcDbSymbolTable
 70
     1
  0
BLOCK_RECORD
  5
1F
330
1
100
AcDbSymbolTableRecord
100
AcDbBlockTableRecord
  2
*Model_Space
340
22
  0
BLOCK_RECORD
  5
1B
330
1
100
AcDbSymbolTableRecord
100
AcDbBlockTableRecord
  2
*Paper_Space
340
1E
  0
BLOCK_RECORD
  5
23
330
1
100
AcDbSymbolTableRecord
100
AcDbBlockTableRecord
  2
*Paper_Space0
340
26
  0
ENDTAB
  0
ENDSEC
  0
SECTION
  2
BLOCKS
  0
BLOCK
  5
20
330
1F
100
AcDbEntity
  8
0
100
AcDbBlockBegin
  2
*Model_Space
 70
     0
 10
0.0
 20
0.0
 30
0.0
  3
*Model_Space
  1

  0
ENDBLK
  5
21
330
1F
100
AcDbEntity
  8
0
100
AcDbBlockEnd
  0
BLOCK
  5
1C
330
1B
100
AcDbEntity
 67
     1
  8
0
100
AcDbBlockBegin
  2
*Paper_Space
 70
     0
 10
0.0
 20
0.0
 30
0.0
  3
*Paper_Space
  1

  0
ENDBLK
  5
1D
330
1B
100
AcDbEntity
 67
     1
  8
0
100
AcDbBlockEnd
  0
BLOCK
  5
24
330
23
100
AcDbEntity
  8
0
100
AcDbBlockBegin
  2
*Paper_Space0
 70
     0
 10
0.0
 20
0.0
 30
0.0
  3
*Paper_Space0
  1

  0
ENDBLK
  5
25
330
23
100
AcDbEntity
  8
0
100
AcDbBlockEnd
  0
ENDSEC
  0
SECTION
  2
ENTITIES
  0
POINT
  5
4B
330
1F
100
AcDbEntity
  8
1
 62
     3
100
AcDbPoint
 10
87.8661730328524
 20
-146.464824964266
 30
0.0
  0
POINT
  5
4C
330
1F
100
AcDbEntity
  8
1
 62
     3
100
AcDbPoint
 10
87.8661730328524
 20
-146.464824964266
 30
0.0
  0
POINT
  5
4D
330
1F
100
AcDbEntity
  8
1
 62
     3
100
AcDbPoint
 10
106.866173032852
 20
-146.464824964266
 30
0.0
  0
LINE
  5
4E
330
1F
100
AcDbEntity
  8
1
  6
Continuous
 62
     4
100
AcDbLine
 10
238.345855479367
 20
577.050097172737
 30
0.0
 11
236.345855479367
 21
577.050097172737
 31
0.0
  0
LINE
  5
4F
330
1F
100
AcDbEntity
  8
1
  6
Continuous
 62
     4
100
AcDbLine
 10
239.095855479367
 20
577.300097172737
 30
0.0
 11
238.345855479367
 21
577.050097172737
 31
0.0
  0
LINE
  5
50
330
1F
100
AcDbEntity
  8
1
  6
Continuous
 62
     4
100
AcDbLine
 10
239.845855479367
 20
577.800097172737
 30
0.0
 11
239.095855479367
 21
577.300097172737
 31
0.0
  0
LINE
  5
51
330
1F
100
AcDbEntity
  8
1
  6
Continuous
 62
     4
100
AcDbLine
 10
240.345855479367
 20
578.800097172737
 30
0.0
 11
239.845855479367
 21
577.800097172737
 31
0.0
  0
LINE
  5
52
330
1F
100
AcDbEntity
  8
1
  6
Continuous
 62
     4
100
AcDbLine
 10
240.345855479367
 20
587.050097172737
 30
0.0
 11
240.345855479367
 21
578.800097172737
 31
0.0
  0
LINE
  5
53
330
1F
100
AcDbEntity
  8
1
  6
Continuous
 62
     4
100
AcDbLine
 10
228.345855479367
 20
580.550097172737
 30
0.0
 11
233.345855479367
 21
580.550097172737
 31
0.0
  0
LINE
  5
54
330
1F
100
AcDbEntity
  8
1
  6
Continuous
 62
     4
100
AcDbLine
 10
218.345855479367
 20
580.050097172737
 30
0.0
 11
218.345855479367
 21
587.050097172737
 31
0.0
  0
LINE
  5
55
330
1F
100
AcDbEntity
  8
1
  6
Continuous
 62
     4
100
AcDbLine
 10
218.595855479367
 20
579.050097172737
 30
0.0
 11
218.345855479367
 21
580.050097172737
 31
0.0
  0
LINE
  5
56
330
1F
100
AcDbEntity
  8
1
  6
Continuous
 62
     4
100
AcDbLine
 10
219.095855479367
 20
578.300097172737
 30
0.0
 11
218.595855479367
 21
579.050097172737
 31
0.0
  0
LINE
  5
57
330
1F
100
AcDbEntity
  8
1
  6
Continuous
 62
     4
100
AcDbLine
 10
219.595855479367
 20
577.800097172737
 30
0.0
 11
219.095855479367
 21
578.300097172737
 31
0.0
  0
LINE
  5
58
330
1F
100
AcDbEntity
  8
1
  6
Continuous
 62
     4
100
AcDbLine
 10
220.345855479367
 20
577.300097172737
 30
0.0
 11
219.595855479367
 21
577.800097172737
 31
0.0
  0
LINE
  5
59
330
1F
100
AcDbEntity
  8
1
  6
Continuous
 62
     4
100
AcDbLine
 10
221.095855479367
 20
577.050097172737
 30
0.0
 11
220.345855479367
 21
577.300097172737
 31
0.0
  0
LINE
  5
5A
330
1F
100
AcDbEntity
  8
1
  6
Continuous
 62
     4
100
AcDbLine
 10
222.595855479367
 20
577.050097172737
 30
0.0
 11
221.095855479367
 21
577.050097172737
 31
0.0
  0
LINE
  5
5B
330
1F
100
AcDbEntity
  8
1
  6
Continuous
 62
     4
100
AcDbLine
 10
223.345855479367
 20
577.300097172737
 30
0.0
 11
222.595855479367
 21
577.050097172737
 31
0.0
  0
LINE
  5
5C
330
1F
100
AcDbEntity
  8
1
  6
Continuous
 62
     4
100
AcDbLine
 10
224.095855479367
 20
577.800097172737
 30
0.0
 11
223.345855479367
 21
577.300097172737
 31
0.0
  0
LINE
  5
5D
330
1F
100
AcDbEntity
  8
1
  6
Continuous
 62
     4
100
AcDbLine
 10
224.595855479367
 20
578.300097172737
 30
0.0
 11
224.095855479367
 21
577.800097172737
 31
0.0
  0
LINE
  5
5E
330
1F
100
AcDbEntity
  8
1
  6
Continuous
 62
     4
100
AcDbLine
 10
225.095855479367
 20
579.050097172737
 30
0.0
 11
224.595855479367
 21
578.300097172737
 31
0.0
  0
LINE
  5
5F
330
1F
100
AcDbEntity
  8
1
  6
Continuous
 62
     4
100
AcDbLine
 10
225.345855479367
 20
580.050097172737
 30
0.0
 11
225.095855479367
 21
579.050097172737
 31
0.0
  0
LINE
  5
60
330
1F
100
AcDbEntity
  8
1
  6
Continuous
 62
     4
100
AcDbLine
 10
225.345855479367
 20
587.050097172737
 30
0.0
 11
225.345855479367
 21
580.050097172737
 31
0.0
  0
LINE
  5
7D
330
1F
100
AcDbEntity
  8
1
  6
Continuous
 62
     3
100
AcDbLine
 10
54.8663863480383
 20
504.58494990774
 30
0.0
 11
53.8663863480383
 21
504.58494990774
 31
0.0
  0
LINE
  5
7E
330
1F
100
AcDbEntity
  8
1
  6
Continuous
 62
     3
100
AcDbLine
 10
54.8663863480383
 20
509.08494990774
 30
0.0
 11
53.8663863480383
 21
509.08494990774
 31
0.0
  0
LINE
  5
7F
330
1F
100
AcDbEntity
  8
1
  6
Continuous
 62
     3
100
AcDbLine
 10
56.6163863480383
 20
506.33494990774
 30
0.0
 11
56.6163863480383
 21
507.33494990774
 31
0.0
  0
LINE
  5
80
330
1F
100
AcDbEntity
  8
1
  6
Continuous
 62
     3
100
AcDbLine
 10
52.1163863480382
 20
506.33494990774
 30
0.0
 11
52.1163863480382
 21
507.33494990774
 31
0.0
  0
LINE
  5
81
330
1F
100
AcDbEntity
  8
1
  6
Continuous
 62
     3
100
AcDbLine
 10
56.6163863480383
 20
506.33494990774
 30
0.0
 11
55.8663863480383
 21
506.33494990774
 31
0.0
  0
LINE
  5
82
330
1F
100
AcDbEntity
  8
1
  6
Continuous
 62
     3
100
AcDbLine
 10
52.8663863480382
 20
506.33494990774
 30
0.0
 11
52.1163863480382
 21
506.33494990774
 31
0.0
  0
LINE
  5
83
330
1F
100
AcDbEntity
  8
1
  6
Continuous
 62
     3
100
AcDbLine
 10
56.6163863480383
 20
507.33494990774
 30
0.0
 11
55.8663863480383
 21
507.33494990774
 31
0.0
  0
LINE
  5
84
330
1F
100
AcDbEntity
  8
1
  6
Continuous
 62
     3
100
AcDbLine
 10
52.8663863480382
 20
507.33494990774
 30
0.0
 11
52.1163863480382
 21
507.33494990774
 31
0.0
  0
LINE
  5
85
330
1F
100
AcDbEntity
  8
1
  6
Continuous
 62
     3
100
AcDbLine
 10
53.8663863480383
 20
504.58494990774
 30
0.0
 11
53.8663863480383
 21
505.33494990774
 31
0.0
  0
LINE
  5
86
330
1F
100
AcDbEntity
  8
1
  6
Continuous
 62
     3
100
AcDbLine
 10
53.8663863480383
 20
508.33494990774
 30
0.0
 11
53.8663863480383
 21
509.08494990774
 31
0.0
  0
LINE
  5
87
330
1F
100
AcDbEntity
  8
1
  6
Continuous
 62
     3
100
AcDbLine
 10
54.8663863480383
 20
504.58494990774
 30
0.0
 11
54.8663863480383
 21
505.33494990774
 31
0.0
  0
LINE
  5
88
330
1F
100
AcDbEntity
  8
1
  6
Continuous
 62
     3
100
AcDbLine
 10
54.8663863480383
 20
508.33494990774
 30
0.0
 11
54.8663863480383
 21
509.08494990774
 31
0.0
  0
LINE
  5
89
330
1F
100
AcDbEntity
  8
1
  6
Continuous
 62
     3
100
AcDbLine
 10
98.8663863481363
 20
549.334949907605
 30
0.0
 11
99.6163863481363
 21
549.334949907605
 31
0.0
  0
LINE
  5
8A
330
1F
100
AcDbEntity
  8
1
  6
Continuous
 62
     3
100
AcDbLine
 10
95.1163863481363
 20
549.334949907605
 30
0.0
 11
95.8663863481363
 21
549.334949907605
 31
0.0
  0
LINE
  5
8B
330
1F
100
AcDbEntity
  8
1
  6
Continuous
 62
     3
100
AcDbLine
 10
98.8663863481363
 20
550.334949907605
 30
0.0
 11
99.6163863481363
 21
550.334949907605
 31
0.0
  0
LINE
  5
8C
330
1F
100
AcDbEntity
  8
1
  6
Continuous
 62
     3
100
AcDbLine
 10
95.1163863481363
 20
550.334949907605
 30
0.0
 11
95.8663863481363
 21
550.334949907605
 31
0.0
  0
LINE
  5
8D
330
1F
100
AcDbEntity
  8
1
  6
Continuous
 62
     3
100
AcDbLine
 10
97.8663863481363
 20
551.334949907605
 30
0.0
 11
97.8663863481363
 21
552.084949907605
 31
0.0
  0
LINE
  5
8E
330
1F
100
AcDbEntity
  8
1
  6
Continuous
 62
     3
100
AcDbLine
 10
97.8663863481363
 20
547.584949907605
 30
0.0
 11
97.8663863481363
 21
548.334949907605
 31
0.0
  0
LINE
  5
8F
330
1F
100
AcDbEntity
  8
1
  6
Continuous
 62
     3
100
AcDbLine
 10
96.8663863481363
 20
551.334949907605
 30
0.0
 11
96.8663863481363
 21
552.084949907605
 31
0.0
  0
LINE
  5
90
330
1F
100
AcDbEntity
  8
1
  6
Continuous
 62
     3
100
AcDbLine
 10
96.8663863481363
 20
547.584949907605
 30
0.0
 11
96.8663863481363
 21
548.334949907605
 31
0.0
  0
LINE
  5
91
330
1F
100
AcDbEntity
  8
1
  6
Continuous
 62
     3
100
AcDbLine
 10
96.8663863481363
 20
552.084949907605
 30
0.0
 11
97.8663863481363
 21
552.084949907605
 31
0.0
  0
LINE
  5
92
330
1F
100
AcDbEntity
  8
1
  6
Continuous
 62
     3
100
AcDbLine
 10
96.8663863481363
 20
547.584949907605
 30
0.0
 11
97.8663863481363
 21
547.584949907605
 31
0.0
  0
LINE
  5
93
330
1F
100
AcDbEntity
  8
1
  6
Continuous
 62
     3
100
AcDbLine
 10
99.6163863481363
 20
549.334949907605
 30
0.0
 11
99.6163863481363
 21
550.334949907605
 31
0.0
  0
LINE
  5
94
330
1F
100
AcDbEntity
  8
1
  6
Continuous
 62
     3
100
AcDbLine
 10
95.1163863481363
 20
549.334949907605
 30
0.0
 11
95.1163863481363
 21
550.334949907605
 31
0.0
  0
LINE
  5
95
330
1F
100
AcDbEntity
  8
1
  6
Continuous
 62
     3
100
AcDbLine
 10
139.866386348001
 20
509.084949907507
 30
0.0
 11
140.866386348001
 21
509.084949907507
 31
0.0
  0
LINE
  5
96
330
1F
100
AcDbEntity
  8
1
  6
Continuous
 62
     3
100
AcDbLine
 10
139.866386348001
 20
504.584949907507
 30
0.0
 11
140.866386348001
 21
504.584949907507
 31
0.0
  0
LINE
  5
97
330
1F
100
AcDbEntity
  8
1
  6
Continuous
 62
     3
100
AcDbLine
 10
138.116386348001
 20
507.334949907507
 30
0.0
 11
138.116386348001
 21
506.334949907507
 31
0.0
  0
LINE
  5
98
330
1F
100
AcDbEntity
  8
1
  6
Continuous
 62
     3
100
AcDbLine
 10
142.616386348001
 20
507.334949907507
 30
0.0
 11
142.616386348001
 21
506.334949907507
 31
0.0
  0
LINE
  5
99
330
1F
100
AcDbEntity
  8
1
  6
Continuous
 62
     3
100
AcDbLine
 10
138.116386348001
 20
507.334949907507
 30
0.0
 11
138.866386348001
 21
507.334949907507
 31
0.0
  0
LINE
  5
9A
330
1F
100
AcDbEntity
  8
1
  6
Continuous
 62
     3
100
AcDbLine
 10
141.866386348001
 20
507.334949907507
 30
0.0
 11
142.616386348001
 21
507.334949907507
 31
0.0
  0
LINE
  5
9B
330
1F
100
AcDbEntity
  8
1
  6
Continuous
 62
     3
100
AcDbLine
 10
138.116386348001
 20
506.334949907507
 30
0.0
 11
138.866386348001
 21
506.334949907507
 31
0.0
  0
LINE
  5
9C
330
1F
100
AcDbEntity
  8
1
  6
Continuous
 62
     3
100
AcDbLine
 10
141.866386348001
 20
506.334949907507
 30
0.0
 11
142.616386348001
 21
506.334949907507
 31
0.0
  0
LINE
  5
9D
330
1F
100
AcDbEntity
  8
1
  6
Continuous
 62
     3
100
AcDbLine
 10
140.866386348001
 20
509.084949907507
 30
0.0
 11
140.866386348001
 21
508.334949907507
 31
0.0
  0
LINE
  5
9E
330
1F
100
AcDbEntity
  8
1
  6
Continuous
 62
     3
100
AcDbLine
 10
140.866386348001
 20
505.334949907507
 30
0.0
 11
140.866386348001
 21
504.584949907507
 31
0.0
  0
LINE
  5
9F
330
1F
100
AcDbEntity
  8
1
  6
Continuous
 62
     3
100
AcDbLine
 10
139.866386348001
 20
509.084949907507
 30
0.0
 11
139.866386348001
 21
508.334949907507
 31
0.0
  0
LINE
  5
A0
330
1F
100
AcDbEntity
  8
1
  6
Continuous
 62
     3
100
AcDbLine
 10
139.866386348001
 20
505.334949907507
 30
0.0
 11
139.866386348001
 21
504.584949907507
 31
0.0
  0
LINE
  5
A1
330
1F
100
AcDbEntity
  8
1
  6
DOT_CENTER
 62
     1
100
AcDbLine
 10
102.416386347903
 20
463.834949907642
 30
0.0
 11
92.3163863479031
 21
463.834949907642
 31
0.0
  0
LINE
  5
A2
330
1F
100
AcDbEntity
  8
1
  6
DOT_CENTER
 62
     1
100
AcDbLine
 10
54.3657464025159
 20
336.61666836884
 30
0.0
 11
54.3657464025159
 21
360.61666836884
 31
0.0
  0
LINE
  5
A3
330
1F
100
AcDbEntity
  8
1
  6
DASHED
 62
     3
100
AcDbLine
 10
56.2657464025159
 20
354.385169411904
 30
0.0
 11
52.4657464025159
 21
354.385169411904
 31
0.0
  0
LINE
  5
A4
330
1F
100
AcDbEntity
  8
1
  6
DASHED
 62
     3
100
AcDbLine
 10
58.1657464025159
 20
356.535169411904
 30
0.0
 11
50.5657464025159
 21
356.535169411904
 31
0.0
  0
LINE
  5
A5
330
1F
100
AcDbEntity
  8
1
  6
DASHED
 62
     3
100
AcDbLine
 10
58.1657464025159
 20
356.535169411904
 30
0.0
 11
58.1657464025159
 21
356.285169411904
 31
0.0
  0
LINE
  5
A6
330
1F
100
AcDbEntity
  8
1
  6
DASHED
 62
     3
100
AcDbLine
 10
50.5657464025159
 20
356.535169411904
 30
0.0
 11
50.5657464025159
 21
356.285169411904
 31
0.0
  0
LINE
  5
A7
330
1F
100
AcDbEntity
  8
1
  6
DASHED
 62
     3
100
AcDbLine
 10
58.1657464025159
 20
356.285169411904
 30
0.0
 11
50.5657464025159
 21
356.285169411904
 31
0.0
  0
LINE
  5
A8
330
1F
100
AcDbEntity
  8
1
  6
DASHED
 62
     3
100
AcDbLine
 10
50.5657464025159
 20
356.285169411904
 30
0.0
 11
52.4657464025159
 21
354.385169411904
 31
0.0
  0
LINE
  5
A9
330
1F
100
AcDbEntity
  8
1
  6
DASHED
 62
     3
100
AcDbLine
 10
58.1657464025159
 20
356.285169411904
 30
0.0
 11
56.2657464025159
 21
354.385169411904
 31
0.0
  0
LINE
  5
AA
330
1F
100
AcDbEntity
  8
1
  6
Continuous
 62
     3
100
AcDbLine
 10
56.2657464025159
 20
351.235169411904
 30
0.0
 11
56.2657464025159
 21
353.035169411904
 31
0.0
  0
LINE
  5
AB
330
1F
100
AcDbEntity
  8
1
  6
Continuous
 62
     3
100
AcDbLine
 10
52.4657464025159
 20
351.235169411904
 30
0.0
 11
52.4657464025159
 21
353.035169411904
 31
0.0
  0
LINE
  5
AC
330
1F
100
AcDbEntity
  8
1
  6
Continuous
 62
     3
100
AcDbLine
 10
56.2657464025159
 20
351.235169411904
 30
0.0
 11
52.4657464025159
 21
351.235169411904
 31
0.0
  0
LINE
  5
AD
330
1F
100
AcDbEntity
  8
1
  6
Continuous
 62
     3
100
AcDbLine
 10
56.2657464025159
 20
351.235169411904
 30
0.0
 11
52.4657464025159
 21
350.435169411904
 31
0.0
  0
LINE
  5
AE
330
1F
100
AcDbEntity
  8
1
  6
Continuous
 62
     3
100
AcDbLine
 10
56.2657464025159
 20
349.635169411904
 30
0.0
 11
52.4657464025159
 21
348.835169411904
 31
0.0
  0
LINE
  5
AF
330
1F
100
AcDbEntity
  8
1
  6
Continuous
 62
     3
100
AcDbLine
 10
56.2657464025159
 20
348.035169411904
 30
0.0
 11
52.4657464025159
 21
347.235169411904
 31
0.0
  0
LINE
  5
B0
330
1F
100
AcDbEntity
  8
1
  6
Continuous
 62
     3
100
AcDbLine
 10
56.2657464025159
 20
346.435169411904
 30
0.0
 11
52.4657464025159
 21
345.635169411904
 31
0.0
  0
LINE
  5
B1
330
1F
100
AcDbEntity
  8
1
  6
Continuous
 62
     3
100
AcDbLine
 10
56.0218052106234
 20
344.783813371506
 30
0.0
 11
52.8865485402784
 21
344.123759335644
 31
0.0
  0
LINE
  5
B2
330
1F
100
AcDbEntity
  8
1
  6
Continuous
 62
     3
100
AcDbLine
 10
55.5674565318809
 20
343.088161018086
 30
0.0
 11
53.2923744632569
 21
342.60919637206
 31
0.0
  0
LINE
  5
B3
330
1F
100
AcDbEntity
  8
1
  6
Continuous
 62
     3
100
AcDbLine
 10
55.1131078531384
 20
341.392508664667
 30
0.0
 11
53.6982003862349
 21
341.094633408477
 31
0.0
  0
LINE
  5
B4
330
1F
100
AcDbEntity
  8
1
  6
Continuous
 62
     3
100
AcDbLine
 10
55.7657464025159
 20
345.760040542501
 30
0.0
 11
55.7657464025159
 21
351.235169411904
 31
0.0
  0
LINE
  5
B5
330
1F
100
AcDbEntity
  8
1
  6
Continuous
 62
     3
100
AcDbLine
 10
52.9657464025159
 20
345.760040542501
 30
0.0
 11
52.9657464025159
 21
351.235169411904
 31
0.0
  0
LINE
  5
B6
330
1F
100
AcDbEntity
  8
1
  6
Continuous
 62
     3
100
AcDbLine
 10
52.9657464025159
 20
345.760040542501
 30
0.0
 11
54.3657464025159
 21
340.535169411904
 31
0.0
  0
LINE
  5
B7
330
1F
100
AcDbEntity
  8
1
  6
Continuous
 62
     3
100
AcDbLine
 10
55.7657464025159
 20
345.760040542501
 30
0.0
 11
54.3657464025159
 21
340.535169411904
 31
0.0
  0
LINE
  5
B8
330
1F
100
AcDbEntity
  8
1
  6
DASHED
 62
     3
100
AcDbLine
 10
56.2657464025159
 20
354.385169411904
 30
0.0
 11
56.2657464025159
 21
353.035169411904
 31
0.0
  0
LINE
  5
B9
330
1F
100
AcDbEntity
  8
1
  6
DASHED
 62
     3
100
AcDbLine
 10
52.4657464025159
 20
354.385169411904
 30
0.0
 11
52.4657464025159
 21
353.035169411904
 31
0.0
  0
LINE
  5
BA
330
1F
100
AcDbEntity
  8
1
  6
DASHED
 62
     3
100
AcDbLine
 10
138.466173032851
 20
354.385169411904
 30
0.0
 11
138.466173032851
 21
353.035169411904
 31
0.0
  0
LINE
  5
BB
330
1F
100
AcDbEntity
  8
1
  6
DASHED
 62
     3
100
AcDbLine
 10
142.266173032851
 20
354.385169411904
 30
0.0
 11
142.266173032851
 21
353.035169411904
 31
0.0
  0
LINE
  5
BC
330
1F
100
AcDbEntity
  8
1
  6
Continuous
 62
     3
100
AcDbLine
 10
141.766173032851
 20
345.760040542501
 30
0.0
 11
140.366173032851
 21
340.535169411904
 31
0.0
  0
LINE
  5
BD
330
1F
100
AcDbEntity
  8
1
  6
Continuous
 62
     3
100
AcDbLine
 10
138.966173032851
 20
345.760040542501
 30
0.0
 11
140.366173032851
 21
340.535169411904
 31
0.0
  0
LINE
  5
BE
330
1F
100
AcDbEntity
  8
1
  6
Continuous
 62
     3
100
AcDbLine
 10
138.966173032851
 20
345.760040542501
 30
0.0
 11
138.966173032851
 21
351.235169411904
 31
0.0
  0
LINE
  5
BF
330
1F
100
AcDbEntity
  8
1
  6
Continuous
 62
     3
100
AcDbLine
 10
141.766173032851
 20
345.760040542501
 30
0.0
 11
141.766173032851
 21
351.235169411904
 31
0.0
  0
LINE
  5
C0
330
1F
100
AcDbEntity
  8
1
  6
Continuous
 62
     3
100
AcDbLine
 10
141.113534483473
 20
341.392508664667
 30
0.0
 11
139.69862701657
 21
341.094633408477
 31
0.0
  0
LINE
  5
C1
330
1F
100
AcDbEntity
  8
1
  6
Continuous
 62
     3
100
AcDbLine
 10
141.567883162216
 20
343.088161018086
 30
0.0
 11
139.292801093592
 21
342.60919637206
 31
0.0
  0
LINE
  5
C2
330
1F
100
AcDbEntity
  8
1
  6
Continuous
 62
     3
100
AcDbLine
 10
142.022231840958
 20
344.783813371506
 30
0.0
 11
138.886975170613
 21
344.123759335644
 31
0.0
  0
LINE
  5
C3
330
1F
100
AcDbEntity
  8
1
  6
Continuous
 62
     3
100
AcDbLine
 10
142.266173032851
 20
346.435169411904
 30
0.0
 11
138.466173032851
 21
345.635169411904
 31
0.0
  0
LINE
  5
C4
330
1F
100
AcDbEntity
  8
1
  6
Continuous
 62
     3
100
AcDbLine
 10
142.266173032851
 20
348.035169411904
 30
0.0
 11
138.466173032851
 21
347.235169411904
 31
0.0
  0
LINE
  5
C5
330
1F
100
AcDbEntity
  8
1
  6
Continuous
 62
     3
100
AcDbLine
 10
142.266173032851
 20
349.635169411904
 30
0.0
 11
138.466173032851
 21
348.835169411904
 31
0.0
  0
LINE
  5
C6
330
1F
100
AcDbEntity
  8
1
  6
Continuous
 62
     3
100
AcDbLine
 10
142.266173032851
 20
351.235169411904
 30
0.0
 11
138.466173032851
 21
350.435169411904
 31
0.0
  0
LINE
  5
C7
330
1F
100
AcDbEntity
  8
1
  6
Continuous
 62
     3
100
AcDbLine
 10
142.266173032851
 20
351.235169411904
 30
0.0
 11
138.466173032851
 21
351.235169411904
 31
0.0
  0
LINE
  5
C8
330
1F
100
AcDbEntity
  8
1
  6
Continuous
 62
     3
100
AcDbLine
 10
138.466173032851
 20
351.235169411904
 30
0.0
 11
138.466173032851
 21
353.035169411904
 31
0.0
  0
LINE
  5
C9
330
1F
100
AcDbEntity
  8
1
  6
Continuous
 62
     3
100
AcDbLine
 10
142.266173032851
 20
351.235169411904
 30
0.0
 11
142.266173032851
 21
353.035169411904
 31
0.0
  0
LINE
  5
CA
330
1F
100
AcDbEntity
  8
1
  6
DASHED
 62
     3
100
AcDbLine
 10
144.166173032851
 20
356.285169411904
 30
0.0
 11
142.266173032851
 21
354.385169411904
 31
0.0
  0
LINE
  5
CB
330
1F
100
AcDbEntity
  8
1
  6
DASHED
 62
     3
100
AcDbLine
 10
136.566173032851
 20
356.285169411904
 30
0.0
 11
138.466173032851
 21
354.385169411904
 31
0.0
  0
LINE
  5
CC
330
1F
100
AcDbEntity
  8
1
  6
DASHED
 62
     3
100
AcDbLine
 10
144.166173032851
 20
356.285169411904
 30
0.0
 11
136.566173032851
 21
356.285169411904
 31
0.0
  0
LINE
  5
CD
330
1F
100
AcDbEntity
  8
1
  6
DASHED
 62
     3
100
AcDbLine
 10
136.566173032851
 20
356.535169411904
 30
0.0
 11
136.566173032851
 21
356.285169411904
 31
0.0
  0
LINE
  5
CE
330
1F
100
AcDbEntity
  8
1
  6
DASHED
 62
     3
100
AcDbLine
 10
144.166173032851
 20
356.535169411904
 30
0.0
 11
144.166173032851
 21
356.285169411904
 31
0.0
  0
LINE
  5
CF
330
1F
100
AcDbEntity
  8
1
  6
DASHED
 62
     3
100
AcDbLine
 10
144.166173032851
 20
356.535169411904
 30
0.0
 11
136.566173032851
 21
356.535169411904
 31
0.0
  0
LINE
  5
D0
330
1F
100
AcDbEntity
  8
1
  6
Continuous
 62
     3
100
AcDbLine
 10
95.8663863479031
 20
464.334949907642
 30
0.0
 11
95.1163863479031
 21
464.334949907642
 31
0.0
  0
LINE
  5
D1
330
1F
100
AcDbEntity
  8
1
  6
Continuous
 62
     3
100
AcDbLine
 10
99.6163863479031
 20
464.334949907642
 30
0.0
 11
98.8663863479031
 21
464.334949907642
 31
0.0
  0
LINE
  5
D2
330
1F
100
AcDbEntity
  8
1
  6
Continuous
 62
     3
100
AcDbLine
 10
95.8663863479031
 20
463.334949907642
 30
0.0
 11
95.1163863479031
 21
463.334949907642
 31
0.0
  0
LINE
  5
D3
330
1F
100
AcDbEntity
  8
1
  6
Continuous
 62
     3
100
AcDbLine
 10
99.6163863479031
 20
463.334949907642
 30
0.0
 11
98.8663863479031
 21
463.334949907642
 31
0.0
  0
LINE
  5
D4
330
1F
100
AcDbEntity
  8
1
  6
Continuous
 62
     3
100
AcDbLine
 10
96.8663863479031
 20
462.334949907642
 30
0.0
 11
96.8663863479031
 21
461.584949907642
 31
0.0
  0
LINE
  5
D5
330
1F
100
AcDbEntity
  8
1
  6
Continuous
 62
     3
100
AcDbLine
 10
96.8663863479031
 20
466.084949907642
 30
0.0
 11
96.8663863479031
 21
465.334949907642
 31
0.0
  0
LINE
  5
D6
330
1F
100
AcDbEntity
  8
1
  6
Continuous
 62
     3
100
AcDbLine
 10
97.8663863479031
 20
462.334949907642
 30
0.0
 11
97.8663863479031
 21
461.584949907642
 31
0.0
  0
LINE
  5
D7
330
1F
100
AcDbEntity
  8
1
  6
Continuous
 62
     3
100
AcDbLine
 10
97.8663863479031
 20
466.084949907642
 30
0.0
 11
97.8663863479031
 21
465.334949907642
 31
0.0
  0
LINE
  5
D8
330
1F
100
AcDbEntity
  8
1
  6
Continuous
 62
     3
100
AcDbLine
 10
97.8663863479031
 20
461.584949907642
 30
0.0
 11
96.8663863479031
 21
461.584949907642
 31
0.0
  0
LINE
  5
D9
330
1F
100
AcDbEntity
  8
1
  6
Continuous
 62
     3
100
AcDbLine
 10
97.8663863479031
 20
466.084949907642
 30
0.0
 11
96.8663863479031
 21
466.084949907642
 31
0.0
  0
LINE
  5
DA
330
1F
100
AcDbEntity
  8
1
  6
Continuous
 62
     3
100
AcDbLine
 10
95.1163863479031
 20
464.334949907642
 30
0.0
 11
95.1163863479031
 21
463.334949907642
 31
0.0
  0
LINE
  5
DB
330
1F
100
AcDbEntity
  8
1
  6
Continuous
 62
     3
100
AcDbLine
 10
99.6163863479031
 20
464.334949907642
 30
0.0
 11
99.6163863479031
 21
463.334949907642
 31
0.0
  0
LINE
  5
DC
330
1F
100
AcDbEntity
  8
1
  6
DASHED
 62
     3
100
AcDbLine
 10
142.266173032851
 20
354.385169411904
 30
0.0
 11
138.466173032851
 21
354.385169411904
 31
0.0
  0
LINE
  5
DD
330
1F
100
AcDbEntity
  8
5
  6
Continuous
 62
     3
100
AcDbLine
 10
101.866173032852
 20
-15.9648305880974
 30
0.0
 11
103.466173032852
 21
-15.9648305880974
 31
0.0
  0
LINE
  5
DE
330
1F
100
AcDbEntity
  8
5
  6
Continuous
 62
     3
100
AcDbLine
 10
101.866173032852
 20
-15.9648305880974
 30
0.0
 11
101.866173032852
 21
-112.964830588097
 31
0.0
  0
LINE
  5
DF
330
1F
100
AcDbEntity
  8
5
  6
Continuous
 62
     3
100
AcDbLine
 10
98.0553237430003
 20
-15.9648305880974
 30
0.0
 11
101.866173032852
 21
-15.9648305880974
 31
0.0
  0
LINE
  5
E0
330
1F
100
AcDbEntity
  8
5
  6
Continuous
 62
     3
100
AcDbLine
 10
98.0553237430003
 20
-15.9648305880974
 30
0.0
 11
93.351140388941
 21
-112.964830588097
 31
0.0
  0
LINE
  5
E1
330
1F
100
AcDbEntity
  8
5
  6
Continuous
 62
     3
100
AcDbLine
 10
96.6770223227046
 20
-15.9648305880974
 30
0.0
 11
98.0553237430003
 21
-15.9648305880974
 31
0.0
  0
LINE
  5
E2
330
1F
100
AcDbEntity
  8
5
  6
DASHED
 62
     3
100
AcDbLine
 10
96.6770223227046
 20
-15.9648305880974
 30
0.0
 11
92.8661730328524
 21
62.6146705269426
 31
0.0
  0
LINE
  5
E3
330
1F
100
AcDbEntity
  8
5
  6
Continuous
 62
     3
100
AcDbLine
 10
92.8661730328524
 20
-15.9648305880974
 30
0.0
 11
96.6770223227046
 21
-15.9648305880974
 31
0.0
  0
LINE
  5
E4
330
1F
100
AcDbEntity
  8
5
  6
Continuous
 62
     3
100
AcDbLine
 10
92.8661730328524
 20
-15.9648305880974
 30
0.0
 11
92.8661730328524
 21
-112.964830588097
 31
0.0
  0
LINE
  5
E5
330
1F
100
AcDbEntity
  8
5
  6
LONG_DASHED
 62
     3
100
AcDbLine
 10
94.8661730328524
 20
77.0351694119026
 30
0.0
 11
99.8661730328524
 21
77.0351694119026
 31
0.0
  0
LINE
  5
E6
330
1F
100
AcDbEntity
  8
5
  6
Continuous
 62
     3
100
AcDbLine
 10
92.8661730328524
 20
284.535169411903
 30
0.0
 11
92.8661730328524
 21
284.035169411903
 31
0.0
  0
LINE
  5
E7
330
1F
100
AcDbEntity
  8
1
  6
Continuous
 62
     3
100
AcDbLine
 10
105.366173032852
 20
285.035169411903
 30
0.0
 11
89.3661730328524
 21
285.035169411903
 31
0.0
  0
LINE
  5
E8
330
1F
100
AcDbEntity
  8
0
  6
Continuous
 62
     3
100
AcDbLine
 10
46.8108590594795
 20
356.535169411904
 30
0.0
 11
145.765940026431
 21
356.535169411904
 31
0.0
  0
LINE
  5
E9
330
1F
100
AcDbEntity
  8
0
  6
DASHED
 62
     6
100
AcDbLine
 10
101.366173032851
 20
377.330225707168
 30
0.0
 11
101.366173032851
 21
356.535169411904
 31
0.0
  0
LINE
  5
EA
330
1F
100
AcDbEntity
  8
0
  6
DASHED
 62
     6
100
AcDbLine
 10
95.8661730328504
 20
356.535169411904
 30
0.0
 11
95.8661730328504
 21
382.330225707168
 31
0.0
  0
LINE
  5
EB
330
1F
100
AcDbEntity
  8
0
  6
DASHED
 62
     6
100
AcDbLine
 10
93.3661730328512
 20
356.535169411904
 30
0.0
 11
93.3661730328515
 21
382.899425782946
 31
0.0
  0
LINE
  5
EC
330
1F
100
AcDbEntity
  8
0
  6
DASHED
 62
     6
100
AcDbLine
 10
95.8661730328504
 20
382.330225707168
 30
0.0
 11
95.8661730328504
 21
382.8819653982
 31
0.0
  0
LINE
  5
ED
330
1F
100
AcDbEntity
  8
0
  6
DASHED
 62
     6
100
AcDbLine
 10
96.8661730328504
 20
381.330225707168
 30
0.0
 11
97.3661730328505
 21
381.330225707168
 31
0.0
  0
LINE
  5
EE
330
1F
100
AcDbEntity
  8
0
  6
DASHED
 62
     6
100
AcDbLine
 10
94.9010725295529
 20
383.881356225219
 30
0.0
 11
94.4010725295529
 21
383.898816609965
 31
0.0
  0
LINE
  5
EF
330
1F
100
AcDbEntity
  8
1
  6
Continuous
 62
     3
100
AcDbLine
 10
106.262792254581
 20
331.835169411904
 30
0.0
 11
89.8161730328524
 21
331.835169411904
 31
0.0
  0
LINE
  5
F0
330
1F
100
AcDbEntity
  8
1
  6
Continuous
 62
     3
100
AcDbLine
 10
89.8161730328524
 20
331.835169411904
 30
0.0
 11
89.8161730328524
 21
332.835169411904
 31
0.0
  0
LINE
  5
F1
330
1F
100
AcDbEntity
  8
1
  6
Continuous
 62
     3
100
AcDbLine
 10
106.262792254581
 20
332.835169411904
 30
0.0
 11
106.262792254581
 21
331.835169411904
 31
0.0
  0
LINE
  5
F2
330
1F
100
AcDbEntity
  8
5
  6
Continuous
 62
     3
100
AcDbLine
 10
101.866173032852
 20
284.535169411903
 30
0.0
 11
101.866173032852
 21
284.035169411903
 31
0.0
  0
LINE
  5
F3
330
1F
100
AcDbEntity
  8
5
  6
DOT_CENTER
 62
     1
100
AcDbLine
 10
86.8661730328524
 20
289.535169411903
 30
0.0
 11
107.866173032852
 21
289.535169411903
 31
0.0
  0
LINE
  5
F4
330
1F
100
AcDbEntity
  8
0
  6
Continuous
 62
     3
100
AcDbLine
 10
78.6369532873016
 20
333.035169411904
 30
0.0
 11
116.094544906678
 21
333.035169411904
 31
0.0
  0
LINE
  5
F5
330
1F
100
AcDbEntity
  8
0
  6
Continuous
 62
     3
100
AcDbLine
 10
103.63307473818
 20
504.46251833519
 30
0.0
 11
103.513865872492
 21
504.189132669881
 31
0.0
  0
LINE
  5
F6
330
1F
100
AcDbEntity
  8
0
  6
Continuous
 62
     3
100
AcDbLine
 10
102.200367589698
 20
504.582072828772
 30
0.0
 11
101.961108640669
 21
504.221988110483
 31
0.0
  0
LINE
  5
F7
330
1F
100
AcDbEntity
  8
0
  6
Continuous
 62
     3
100
AcDbLine
 10
104.512839800785
 20
504.138404541886
 30
0.0
 11
104.628821865758
 21
504.554006941373
 31
0.0
  0
LINE
  5
F8
330
1F
100
AcDbEntity
  8
0
  6
Continuous
 62
     3
100
AcDbLine
 10
103.077605989861
 20
504.339444522335
 30
0.0
 11
103.177514724927
 21
504.6487619661
 31
0.0
  0
LINE
  5
F9
330
1F
100
AcDbEntity
  8
0
  6
Continuous
 62
     3
100
AcDbLine
 10
100.85537419033
 20
504.418728390812
 30
0.0
 11
101.027429829436
 21
503.974824841919
 31
0.0
  0
LINE
  5
FA
330
1F
100
AcDbEntity
  8
0
  6
Continuous
 62
     3
100
AcDbLine
 10
104.570391756693
 20
502.774095792637
 30
0.0
 11
104.427805847318
 21
502.855845047346
 31
0.0
  0
LINE
  5
FB
330
1F
100
AcDbEntity
  8
0
  6
Continuous
 62
     3
100
AcDbLine
 10
104.632120770616
 20
502.654650150697
 30
0.0
 11
104.570391756693
 21
502.774095792637
 31
0.0
  0
LINE
  5
FC
330
1F
100
AcDbEntity
  8
0
  6
Continuous
 62
     3
100
AcDbLine
 10
104.666461306554
 20
502.477452985258
 30
0.0
 11
104.632120770616
 21
502.654650150697
 31
0.0
  0
LINE
  5
FD
330
1F
100
AcDbEntity
  8
0
  6
Continuous
 62
     3
100
AcDbLine
 10
104.632079450336
 20
502.314826805347
 30
0.0
 11
104.666461306554
 21
502.477452985258
 31
0.0
  0
LINE
  5
FE
330
1F
100
AcDbEntity
  8
0
  6
Continuous
 62
     3
100
AcDbLine
 10
104.56683226491
 20
502.174545356682
 30
0.0
 11
104.632079450336
 21
502.314826805347
 31
0.0
  0
LINE
  5
FF
330
1F
100
AcDbEntity
  8
0
  6
Continuous
 62
     3
100
AcDbLine
 10
104.421003740527
 20
502.077002277039
 30
0.0
 11
104.56683226491
 21
502.174545356682
 31
0.0
  0
LINE
  5
100
330
1F
100
AcDbEntity
  8
0
  6
Continuous
 62
     3
100
AcDbLine
 10
104.567154219554
 20
500.615560427001
 30
0.0
 11
104.420321164997
 21
500.727806139818
 31
0.0
  0
LINE
  5
101
330
1F
100
AcDbEntity
  8
0
  6
Continuous
 62
     3
100
AcDbLine
 10
104.632516803382
 20
500.489083827294
 30
0.0
 11
104.567154219554
 21
500.615560427001
 31
0.0
  0
LINE
  5
102
330
1F
100
AcDbEntity
  8
0
  6
Continuous
 62
     3
100
AcDbLine
 10
104.631039825273
 20
507.308309378802
 30
0.0
 11
104.66627878457
 21
507.474989656276
 31
0.0
  0
LINE
  5
103
330
1F
100
AcDbEntity
  8
0
  6
Continuous
 62
     3
100
AcDbLine
 10
104.66627878457
 20
507.474989656276
 30
0.0
 11
104.632516803382
 21
507.634683827294
 31
0.0
  0
LINE
  5
104
330
1F
100
AcDbEntity
  8
0
  6
Continuous
 62
     3
100
AcDbLine
 10
104.632516803382
 20
507.634683827294
 30
0.0
 11
104.568687910396
 21
507.758192735222
 31
0.0
  0
LINE
  5
105
330
1F
100
AcDbEntity
  8
0
  6
Continuous
 62
     3
100
AcDbLine
 10
104.630759837591
 20
509.366706747445
 30
0.0
 11
104.666461306554
 21
509.550926327293
 31
0.0
  0
LINE
  5
106
330
1F
100
AcDbEntity
  8
0
  6
Continuous
 62
     3
100
AcDbLine
 10
104.666461306554
 20
509.550926327293
 30
0.0
 11
104.632516803382
 21
509.711483827294
 31
0.0
  0
LINE
  5
107
330
1F
100
AcDbEntity
  8
0
  6
Continuous
 62
     3
100
AcDbLine
 10
104.582761428626
 20
507.169911308412
 30
0.0
 11
104.631039825273
 21
507.308309378802
 31
0.0
  0
LINE
  5
108
330
1F
100
AcDbEntity
  8
0
  6
Continuous
 62
     3
100
AcDbLine
 10
104.632516803382
 20
509.711483827294
 30
0.0
 11
104.570391756693
 21
509.831695792637
 31
0.0
  0
LINE
  5
109
330
1F
100
AcDbEntity
  8
0
  6
Continuous
 62
     3
100
AcDbLine
 10
104.582761428626
 20
509.229111308412
 30
0.0
 11
104.630759837591
 21
509.366706747445
 31
0.0
  0
LINE
  5
10A
330
1F
100
AcDbEntity
  8
0
  6
Continuous
 62
     3
100
AcDbLine
 10
104.427805847318
 20
509.913445047346
 30
0.0
 11
104.228625208813
 21
509.944589656276
 31
0.0
  0
LINE
  5
10B
330
1F
100
AcDbEntity
  8
0
  6
Continuous
 62
     3
100
AcDbLine
 10
104.424258967475
 20
507.854799650376
 30
0.0
 11
104.228625208813
 21
507.885389656275
 31
0.0
  0
LINE
  5
10C
330
1F
100
AcDbEntity
  8
0
  6
Continuous
 62
     3
100
AcDbLine
 10
104.225767617009
 20
507.029389656276
 30
0.0
 11
104.442268933216
 21
507.07593743926
 31
0.0
  0
LINE
  5
10D
330
1F
100
AcDbEntity
  8
0
  6
Continuous
 62
     3
100
AcDbLine
 10
104.570391756693
 20
509.831695792637
 30
0.0
 11
104.427805847318
 21
509.913445047346
 31
0.0
  0
LINE
  5
10E
330
1F
100
AcDbEntity
  8
0
  6
Continuous
 62
     3
100
AcDbLine
 10
104.225767617009
 20
509.088589656275
 30
0.0
 11
104.442268933216
 21
509.13513743926
 31
0.0
  0
LINE
  5
10F
330
1F
100
AcDbEntity
  8
0
  6
Continuous
 62
     3
100
AcDbLine
 10
104.442268933216
 20
509.13513743926
 30
0.0
 11
104.582761428626
 21
509.229111308412
 31
0.0
  0
LINE
  5
110
330
1F
100
AcDbEntity
  8
0
  6
Continuous
 62
     3
100
AcDbLine
 10
103.817938801191
 20
510.563856170032
 30
0.0
 11
104.215175845335
 21
510.759069803154
 31
0.0
  0
LINE
  5
111
330
1F
100
AcDbEntity
  8
0
  6
Continuous
 62
     3
100
AcDbLine
 10
104.492549876159
 20
511.077125358499
 30
0.0
 11
104.586628736362
 21
511.481664457368
 31
0.0
  0
LINE
  5
112
330
1F
100
AcDbEntity
  8
0
  6
Continuous
 62
     3
100
AcDbLine
 10
104.428060891571
 20
513.352769067467
 30
0.0
 11
104.221918785773
 21
513.485730725707
 31
0.0
  0
LINE
  5
113
330
1F
100
AcDbEntity
  8
0
  6
Continuous
 62
     3
100
AcDbLine
 10
104.586628736362
 20
511.481664457368
 30
0.0
 11
104.586628736362
 21
512.937114855182
 31
0.0
  0
LINE
  5
114
330
1F
100
AcDbEntity
  8
0
  6
Continuous
 62
     3
100
AcDbLine
 10
104.586628736362
 20
512.937114855182
 30
0.0
 11
104.531234349057
 21
513.175310720593
 31
0.0
  0
LINE
  5
115
330
1F
100
AcDbEntity
  8
0
  6
Continuous
 62
     3
100
AcDbLine
 10
104.531234349057
 20
513.175310720593
 30
0.0
 11
104.428060891571
 21
513.352769067467
 31
0.0
  0
LINE
  5
116
330
1F
100
AcDbEntity
  8
0
  6
Continuous
 62
     3
100
AcDbLine
 10
104.221918785773
 20
513.485730725707
 30
0.0
 11
103.964229816031
 21
513.517389656276
 31
0.0
  0
LINE
  5
117
330
1F
100
AcDbEntity
  8
0
  6
Continuous
 62
     3
100
AcDbLine
 10
103.986395554684
 20
506.290896295768
 30
0.0
 11
103.427578080126
 21
506.403032335663
 31
0.0
  0
LINE
  5
118
330
1F
100
AcDbEntity
  8
0
  6
Continuous
 62
     3
100
AcDbLine
 10
104.399819963051
 20
505.935351304572
 30
0.0
 11
103.986395554684
 21
506.290896295768
 31
0.0
  0
LINE
  5
119
330
1F
100
AcDbEntity
  8
0
  6
Continuous
 62
     3
100
AcDbLine
 10
104.589667778201
 20
505.510851589898
 30
0.0
 11
104.399819963051
 21
505.935351304572
 31
0.0
  0
LINE
  5
11A
330
1F
100
AcDbEntity
  8
0
  6
Continuous
 62
     3
100
AcDbLine
 10
104.215175845335
 20
510.759069803154
 30
0.0
 11
104.492549876159
 21
511.077125358499
 31
0.0
  0
LINE
  5
11B
330
1F
100
AcDbEntity
  8
0
  6
Continuous
 62
     3
100
AcDbLine
 10
104.442268933216
 20
507.07593743926
 30
0.0
 11
104.582761428626
 21
507.169911308412
 31
0.0
  0
LINE
  5
11C
330
1F
100
AcDbEntity
  8
0
  6
Continuous
 62
     3
100
AcDbLine
 10
104.568687910396
 20
507.758192735222
 30
0.0
 11
104.424258967475
 21
507.854799650376
 31
0.0
  0
LINE
  5
11D
330
1F
100
AcDbEntity
  8
0
  6
Continuous
 62
     3
100
AcDbLine
 10
104.66627878457
 20
500.329389656276
 30
0.0
 11
104.632516803382
 21
500.489083827294
 31
0.0
  0
LINE
  5
11E
330
1F
100
AcDbEntity
  8
0
  6
Continuous
 62
     3
100
AcDbLine
 10
104.632516803382
 20
500.169695485257
 30
0.0
 11
104.66627878457
 21
500.329389656276
 31
0.0
  0
LINE
  5
11F
330
1F
100
AcDbEntity
  8
0
  6
Continuous
 62
     3
100
AcDbLine
 10
104.568687910396
 20
500.046186577329
 30
0.0
 11
104.632516803382
 21
500.169695485257
 31
0.0
  0
LINE
  5
120
330
1F
100
AcDbEntity
  8
0
  6
Continuous
 62
     3
100
AcDbLine
 10
104.420056320801
 20
499.946768558512
 30
0.0
 11
104.568687910396
 21
500.046186577329
 31
0.0
  0
LINE
  5
121
330
1F
100
AcDbEntity
  8
0
  6
Continuous
 62
     3
100
AcDbLine
 10
104.244169102832
 20
499.901389656276
 30
0.0
 11
104.420056320801
 21
499.946768558512
 31
0.0
  0
LINE
  5
122
330
1F
100
AcDbEntity
  8
0
  6
Continuous
 62
     3
100
AcDbLine
 10
101.366173032852
 20
536.78492518864
 30
0.0
 11
101.366173032852
 21
514.834949907623
 31
0.0
  0
LINE
  5
123
330
1F
100
AcDbEntity
  8
0
  6
Continuous
 62
     3
100
AcDbLine
 10
103.701977573571
 20
512.544891662051
 30
0.0
 11
103.650001606817
 21
512.678989656276
 31
0.0
  0
LINE
  5
124
330
1F
100
AcDbEntity
  8
0
  6
Continuous
 62
     3
100
AcDbLine
 10
103.701977573571
 20
511.621877236979
 30
0.0
 11
103.701977573571
 21
512.544891662051
 31
0.0
  0
LINE
  5
125
330
1F
100
AcDbEntity
  8
0
  6
Continuous
 62
     3
100
AcDbLine
 10
103.3394047498
 20
511.331957672725
 30
0.0
 11
103.589147226894
 21
511.403550516159
 31
0.0
  0
LINE
  5
126
330
1F
100
AcDbEntity
  8
0
  6
Continuous
 62
     3
100
AcDbLine
 10
102.928954317757
 20
511.587453042165
 30
0.0
 11
103.022302332576
 21
511.400134692429
 31
0.0
  0
LINE
  5
127
330
1F
100
AcDbEntity
  8
0
  6
Continuous
 62
     3
100
AcDbLine
 10
102.928954317757
 20
512.678989656276
 30
0.0
 11
102.928954317757
 21
511.587453042165
 31
0.0
  0
LINE
  5
128
330
1F
100
AcDbEntity
  8
0
  6
Continuous
 62
     3
100
AcDbLine
 10
103.650001606817
 20
512.678989656276
 30
0.0
 11
102.928954317757
 21
512.678989656276
 31
0.0
  0
LINE
  5
129
330
1F
100
AcDbEntity
  8
0
  6
Continuous
 62
     3
100
AcDbLine
 10
102.218886984804
 20
507.029389656276
 30
0.0
 11
104.225767617009
 21
507.029389656276
 31
0.0
  0
LINE
  5
12A
330
1F
100
AcDbEntity
  8
0
  6
Continuous
 62
     3
100
AcDbLine
 10
104.228625208813
 20
507.885389656275
 30
0.0
 11
102.388821102987
 21
507.885389656275
 31
0.0
  0
LINE
  5
12B
330
1F
100
AcDbEntity
  8
0
  6
Continuous
 62
     3
100
AcDbLine
 10
102.391671398338
 20
509.088589656275
 30
0.0
 11
104.225767617009
 21
509.088589656275
 31
0.0
  0
LINE
  5
12C
330
1F
100
AcDbEntity
  8
0
  6
Continuous
 62
     3
100
AcDbLine
 10
103.805977620234
 20
505.084484051045
 30
0.0
 11
103.760531553011
 21
504.791356917456
 31
0.0
  0
LINE
  5
12D
330
1F
100
AcDbEntity
  8
0
  6
Continuous
 62
     3
100
AcDbLine
 10
102.38688983218
 20
505.277179052422
 30
0.0
 11
102.200367589698
 21
504.582072828772
 31
0.0
  0
LINE
  5
12E
330
1F
100
AcDbEntity
  8
0
  6
Continuous
 62
     3
100
AcDbLine
 10
103.760531553011
 20
504.791356917456
 30
0.0
 11
103.63307473818
 21
504.46251833519
 31
0.0
  0
LINE
  5
12F
330
1F
100
AcDbEntity
  8
0
  6
Continuous
 62
     3
100
AcDbLine
 10
103.238477528887
 20
504.963330034535
 30
0.0
 11
103.317791527059
 21
505.253222697854
 31
0.0
  0
LINE
  5
130
330
1F
100
AcDbEntity
  8
0
  6
Continuous
 62
     3
100
AcDbLine
 10
104.228625208813
 20
509.944589656276
 30
0.0
 11
102.217894703895
 21
509.944589656276
 31
0.0
  0
LINE
  5
131
330
1F
100
AcDbEntity
  8
0
  6
Continuous
 62
     3
100
AcDbLine
 10
103.022302332576
 20
511.400134692429
 30
0.0
 11
103.3394047498
 21
511.331957672725
 31
0.0
  0
LINE
  5
132
330
1F
100
AcDbEntity
  8
0
  6
Continuous
 62
     3
100
AcDbLine
 10
103.589147226894
 20
511.403550516159
 30
0.0
 11
103.701977573571
 21
511.621877236979
 31
0.0
  0
LINE
  5
133
330
1F
100
AcDbEntity
  8
0
  6
Continuous
 62
     3
100
AcDbLine
 10
101.235154316391
 20
513.517389656276
 30
0.0
 11
101.021530694902
 21
513.486770270529
 31
0.0
  0
LINE
  5
134
330
1F
100
AcDbEntity
  8
0
  6
Continuous
 62
     3
100
AcDbLine
 10
101.021530694902
 20
513.486770270529
 30
0.0
 11
100.913253943173
 21
513.406954836397
 31
0.0
  0
LINE
  5
135
330
1F
100
AcDbEntity
  8
0
  6
Continuous
 62
     3
100
AcDbLine
 10
100.913253943173
 20
513.406954836397
 30
0.0
 11
100.831354641346
 21
513.280174717169
 31
0.0
  0
LINE
  5
136
330
1F
100
AcDbEntity
  8
0
  6
Continuous
 62
     3
100
AcDbLine
 10
100.831354641346
 20
513.280174717169
 30
0.0
 11
100.797958956867
 21
513.107852985258
 31
0.0
  0
LINE
  5
137
330
1F
100
AcDbEntity
  8
0
  6
Continuous
 62
     3
100
AcDbLine
 10
100.797958956867
 20
513.107852985258
 30
0.0
 11
100.832340813085
 21
512.945226805347
 31
0.0
  0
LINE
  5
138
330
1F
100
AcDbEntity
  8
0
  6
Continuous
 62
     3
100
AcDbLine
 10
100.832340813085
 20
512.945226805347
 30
0.0
 11
100.898620343227
 21
512.802725815543
 31
0.0
  0
LINE
  5
139
330
1F
100
AcDbEntity
  8
0
  6
Continuous
 62
     3
100
AcDbLine
 10
100.898620343227
 20
512.802725815543
 30
0.0
 11
101.003342474348
 21
512.725530644603
 31
0.0
  0
LINE
  5
13A
330
1F
100
AcDbEntity
  8
0
  6
Continuous
 62
     3
100
AcDbLine
 10
101.003342474348
 20
512.725530644603
 30
0.0
 11
101.237851330259
 21
512.678989656276
 31
0.0
  0
LINE
  5
13B
330
1F
100
AcDbEntity
  8
0
  6
Continuous
 62
     3
100
AcDbLine
 10
102.063636847498
 20
507.922677450905
 30
0.0
 11
101.841502122016
 21
508.007582279311
 31
0.0
  0
LINE
  5
13C
330
1F
100
AcDbEntity
  8
0
  6
Continuous
 62
     3
100
AcDbLine
 10
102.388821102987
 20
507.885389656275
 30
0.0
 11
102.063636847498
 21
507.922677450905
 31
0.0
  0
LINE
  5
13D
330
1F
100
AcDbEntity
  8
0
  6
Continuous
 62
     3
100
AcDbLine
 10
101.659772782327
 20
508.495789656276
 30
0.0
 11
101.68364224083
 21
508.783177936654
 31
0.0
  0
LINE
  5
13E
330
1F
100
AcDbEntity
  8
0
  6
Continuous
 62
     3
100
AcDbLine
 10
101.683379901282
 20
508.211559944058
 30
0.0
 11
101.659772782327
 21
508.495789656276
 31
0.0
  0
LINE
  5
13F
330
1F
100
AcDbEntity
  8
0
  6
Continuous
 62
     3
100
AcDbLine
 10
102.062197247458
 20
509.069699804958
 30
0.0
 11
102.391671398338
 21
509.088589656275
 31
0.0
  0
LINE
  5
140
330
1F
100
AcDbEntity
  8
0
  6
Continuous
 62
     3
100
AcDbLine
 10
101.237851330259
 20
512.678989656276
 30
0.0
 11
102.044303154966
 21
512.678989656276
 31
0.0
  0
LINE
  5
141
330
1F
100
AcDbEntity
  8
0
  6
Continuous
 62
     3
100
AcDbLine
 10
102.154878938607
 20
505.833053126643
 30
0.0
 11
102.261942520767
 21
505.971165147629
 31
0.0
  0
LINE
  5
142
330
1F
100
AcDbEntity
  8
0
  6
Continuous
 62
     3
100
AcDbLine
 10
101.964248503031
 20
503.442398341926
 30
0.0
 11
102.564594889127
 21
503.603741433189
 31
0.0
  0
LINE
  5
143
330
1F
100
AcDbEntity
  8
0
  6
Continuous
 62
     3
100
AcDbLine
 10
101.403046473113
 20
503.587188465644
 30
0.0
 11
101.964248503031
 21
503.442398341926
 31
0.0
  0
LINE
  5
144
330
1F
100
AcDbEntity
  8
0
  6
Continuous
 62
     3
100
AcDbLine
 10
101.841600760139
 20
508.964303705461
 30
0.0
 11
102.062197247458
 21
509.069699804958
 31
0.0
  0
LINE
  5
145
330
1F
100
AcDbEntity
  8
0
  6
Continuous
 62
     3
100
AcDbLine
 10
101.68364224083
 20
508.783177936654
 30
0.0
 11
101.841600760139
 21
508.964303705461
 31
0.0
  0
LINE
  5
146
330
1F
100
AcDbEntity
  8
0
  6
Continuous
 62
     3
100
AcDbLine
 10
101.841502122016
 20
508.007582279311
 30
0.0
 11
101.683379901282
 21
508.211559944058
 31
0.0
  0
LINE
  5
147
330
1F
100
AcDbEntity
  8
0
  6
Continuous
 62
     3
100
AcDbLine
 10
102.217894703895
 20
509.944589656276
 30
0.0
 11
101.552019583934
 21
509.84353331454
 31
0.0
  0
LINE
  5
148
330
1F
100
AcDbEntity
  8
0
  6
Continuous
 62
     3
100
AcDbLine
 10
101.532409656883
 20
507.147463756678
 30
0.0
 11
102.218886984804
 21
507.029389656276
 31
0.0
  0
LINE
  5
149
330
1F
100
AcDbEntity
  8
0
  6
Continuous
 62
     3
100
AcDbLine
 10
101.102112014076
 20
509.537221244062
 30
0.0
 11
100.894712098732
 21
509.099418877307
 31
0.0
  0
LINE
  5
14A
330
1F
100
AcDbEntity
  8
0
  6
Continuous
 62
     3
100
AcDbLine
 10
100.874953456653
 20
507.907761575264
 30
0.0
 11
101.082265342426
 21
507.453937010771
 31
0.0
  0
LINE
  5
14B
330
1F
100
AcDbEntity
  8
0
  6
Continuous
 62
     3
100
AcDbLine
 10
101.552019583934
 20
509.84353331454
 30
0.0
 11
101.102112014076
 21
509.537221244062
 31
0.0
  0
LINE
  5
14C
330
1F
100
AcDbEntity
  8
0
  6
Continuous
 62
     3
100
AcDbLine
 10
101.082265342426
 20
507.453937010771
 30
0.0
 11
101.532409656883
 21
507.147463756678
 31
0.0
  0
LINE
  5
14D
330
1F
100
AcDbEntity
  8
0
  6
Continuous
 62
     3
100
AcDbLine
 10
99.8661730328524
 20
498.834949907624
 30
0.0
 11
99.8661730328524
 21
514.834949907623
 31
0.0
  0
LINE
  5
14E
330
1F
100
AcDbEntity
  8
0
  6
Continuous
 62
     3
100
AcDbLine
 10
97.8661730328524
 20
498.834949907624
 30
0.0
 11
97.8661730328524
 21
514.834949907623
 31
0.0
  0
LINE
  5
14F
330
1F
100
AcDbEntity
  8
0
  6
Continuous
 62
     3
100
AcDbLine
 10
95.8661730328524
 20
498.976833084873
 30
0.0
 11
95.8661730328524
 21
514.693066730374
 31
0.0
  0
LINE
  5
150
330
1F
100
AcDbEntity
  8
0
  6
Continuous
 62
     3
100
AcDbLine
 10
93.8661730328524
 20
499.641202622654
 30
0.0
 11
93.8661730328524
 21
514.028697192593
 31
0.0
  0
LINE
  5
151
330
1F
100
AcDbEntity
  8
0
  6
Continuous
 62
     3
100
AcDbLine
 10
100.991626143214
 20
499.945149475182
 30
0.0
 11
101.178199014521
 21
499.901389656276
 31
0.0
  0
LINE
  5
152
330
1F
100
AcDbEntity
  8
0
  6
Continuous
 62
     3
100
AcDbLine
 10
100.898645966638
 20
502.765430577562
 30
0.0
 11
100.831903460039
 21
502.636283827294
 31
0.0
  0
LINE
  5
153
330
1F
100
AcDbEntity
  8
0
  6
Continuous
 62
     3
100
AcDbLine
 10
100.831903460039
 20
502.636283827294
 30
0.0
 11
100.798141478851
 21
502.476589656276
 31
0.0
  0
LINE
  5
154
330
1F
100
AcDbEntity
  8
0
  6
Continuous
 62
     3
100
AcDbLine
 10
100.798141478851
 20
502.476589656276
 30
0.0
 11
100.832340813085
 21
502.314826805347
 31
0.0
  0
LINE
  5
155
330
1F
100
AcDbEntity
  8
0
  6
Continuous
 62
     3
100
AcDbLine
 10
100.832340813085
 20
502.314826805347
 30
0.0
 11
100.900290920297
 21
502.168734074841
 31
0.0
  0
LINE
  5
156
330
1F
100
AcDbEntity
  8
0
  6
Continuous
 62
     3
100
AcDbLine
 10
100.882447404399
 20
500.639499814038
 30
0.0
 11
100.833025604362
 21
500.51199156994
 31
0.0
  0
LINE
  5
157
330
1F
100
AcDbEntity
  8
0
  6
Continuous
 62
     3
100
AcDbLine
 10
100.798141478851
 20
500.346989656275
 30
0.0
 11
100.833025604362
 21
500.181987742611
 31
0.0
  0
LINE
  5
158
330
1F
100
AcDbEntity
  8
0
  6
Continuous
 62
     3
100
AcDbLine
 10
100.833025604362
 20
500.51199156994
 30
0.0
 11
100.798141478851
 21
500.346989656275
 31
0.0
  0
LINE
  5
159
330
1F
100
AcDbEntity
  8
0
  6
Continuous
 62
     3
100
AcDbLine
 10
102.351279899152
 20
500.757389656276
 30
0.0
 11
101.17439970577
 21
500.757389656276
 31
0.0
  0
LINE
  5
15A
330
1F
100
AcDbEntity
  8
0
  6
Continuous
 62
     3
100
AcDbLine
 10
104.248323976291
 20
500.757389656276
 30
0.0
 11
103.256396178222
 21
500.757389656276
 31
0.0
  0
LINE
  5
15B
330
1F
100
AcDbEntity
  8
0
  6
Continuous
 62
     3
100
AcDbLine
 10
104.420321164997
 20
500.727806139818
 30
0.0
 11
104.248323976291
 21
500.757389656276
 31
0.0
  0
LINE
  5
15C
330
1F
100
AcDbEntity
  8
0
  6
Continuous
 62
     3
100
AcDbLine
 10
101.214689200112
 20
502.886989656276
 30
0.0
 11
101.005054639077
 21
502.856942035861
 31
0.0
  0
LINE
  5
15D
330
1F
100
AcDbEntity
  8
0
  6
Continuous
 62
     3
100
AcDbLine
 10
101.007882621772
 20
502.076205211573
 30
0.0
 11
101.218187530133
 21
502.030989656276
 31
0.0
  0
LINE
  5
15E
330
1F
100
AcDbEntity
  8
0
  6
Continuous
 62
     3
100
AcDbLine
 10
100.985112818644
 20
500.727792070289
 30
0.0
 11
100.882447404399
 21
500.639499814038
 31
0.0
  0
LINE
  5
15F
330
1F
100
AcDbEntity
  8
0
  6
Continuous
 62
     3
100
AcDbLine
 10
100.833025604362
 20
500.181987742611
 30
0.0
 11
100.883713991186
 21
500.051211704604
 31
0.0
  0
LINE
  5
160
330
1F
100
AcDbEntity
  8
0
  6
Continuous
 62
     3
100
AcDbLine
 10
104.228625208813
 20
502.886989656276
 30
0.0
 11
101.214689200112
 21
502.886989656276
 31
0.0
  0
LINE
  5
161
330
1F
100
AcDbEntity
  8
0
  6
Continuous
 62
     3
100
AcDbLine
 10
104.427805847318
 20
502.855845047346
 30
0.0
 11
104.228625208813
 21
502.886989656276
 31
0.0
  0
LINE
  5
162
330
1F
100
AcDbEntity
  8
0
  6
Continuous
 62
     3
100
AcDbLine
 10
103.256396178222
 20
502.030989656276
 30
0.0
 11
104.224825900062
 21
502.030989656276
 31
0.0
  0
LINE
  5
163
330
1F
100
AcDbEntity
  8
0
  6
Continuous
 62
     3
100
AcDbLine
 10
101.218187530133
 20
502.030989656276
 30
0.0
 11
102.351279899152
 21
502.030989656276
 31
0.0
  0
LINE
  5
164
330
1F
100
AcDbEntity
  8
0
  6
Continuous
 62
     3
100
AcDbLine
 10
104.224825900062
 20
502.030989656276
 30
0.0
 11
104.421003740527
 21
502.077002277039
 31
0.0
  0
LINE
  5
165
330
1F
100
AcDbEntity
  8
0
  6
Continuous
 62
     3
100
AcDbLine
 10
102.351279899152
 20
502.030989656276
 30
0.0
 11
102.351279899152
 21
500.757389656276
 31
0.0
  0
LINE
  5
166
330
1F
100
AcDbEntity
  8
0
  6
Continuous
 62
     3
100
AcDbLine
 10
103.256396178222
 20
500.757389656276
 30
0.0
 11
103.256396178222
 21
502.030989656276
 31
0.0
  0
LINE
  5
167
330
1F
100
AcDbEntity
  8
0
  6
Continuous
 62
     3
100
AcDbLine
 10
101.17439970577
 20
500.757389656276
 30
0.0
 11
100.985112818644
 21
500.727792070289
 31
0.0
  0
LINE
  5
168
330
1F
100
AcDbEntity
  8
0
  6
Continuous
 62
     3
100
AcDbLine
 10
103.737437415844
 20
503.646462412021
 30
0.0
 11
103.936225633631
 21
503.617969434138
 31
0.0
  0
LINE
  5
169
330
1F
100
AcDbEntity
  8
0
  6
Continuous
 62
     3
100
AcDbLine
 10
103.587025449137
 20
503.732698606266
 30
0.0
 11
103.737437415844
 21
503.646462412021
 31
0.0
  0
LINE
  5
16A
330
1F
100
AcDbEntity
  8
0
  6
Continuous
 62
     3
100
AcDbLine
 10
103.493782961528
 20
503.852981415282
 30
0.0
 11
103.587025449137
 21
503.732698606266
 31
0.0
  0
LINE
  5
16B
330
1F
100
AcDbEntity
  8
0
  6
Continuous
 62
     3
100
AcDbLine
 10
103.513865872492
 20
504.189132669881
 30
0.0
 11
103.477878485876
 21
504.003437754944
 31
0.0
  0
LINE
  5
16C
330
1F
100
AcDbEntity
  8
0
  6
Continuous
 62
     3
100
AcDbLine
 10
103.477878485876
 20
504.003437754944
 30
0.0
 11
103.493782961528
 21
503.852981415282
 31
0.0
  0
LINE
  5
16D
330
1F
100
AcDbEntity
  8
0
  6
Continuous
 62
     3
100
AcDbLine
 10
101.961108640669
 20
504.221988110483
 30
0.0
 11
101.684441268362
 21
504.489663793191
 31
0.0
  0
LINE
  5
16E
330
1F
100
AcDbEntity
  8
0
  6
Continuous
 62
     3
100
AcDbLine
 10
104.251904491469
 20
503.753711343008
 30
0.0
 11
104.512839800785
 21
504.138404541886
 31
0.0
  0
LINE
  5
16F
330
1F
100
AcDbEntity
  8
0
  6
Continuous
 62
     3
100
AcDbLine
 10
103.936225633631
 20
503.617969434138
 30
0.0
 11
104.251904491469
 21
503.753711343008
 31
0.0
  0
LINE
  5
170
330
1F
100
AcDbEntity
  8
0
  6
Continuous
 62
     3
100
AcDbLine
 10
102.982364693688
 20
504.077340475269
 30
0.0
 11
103.077605989861
 21
504.339444522335
 31
0.0
  0
LINE
  5
171
330
1F
100
AcDbEntity
  8
0
  6
Continuous
 62
     3
100
AcDbLine
 10
101.027429829436
 20
503.974824841919
 30
0.0
 11
101.403046473113
 21
503.587188465644
 31
0.0
  0
LINE
  5
172
330
1F
100
AcDbEntity
  8
0
  6
Continuous
 62
     3
100
AcDbLine
 10
101.005054639077
 20
502.856942035861
 30
0.0
 11
100.898645966638
 21
502.765430577562
 31
0.0
  0
LINE
  5
173
330
1F
100
AcDbEntity
  8
0
  6
Continuous
 62
     3
100
AcDbLine
 10
100.900290920297
 20
502.168734074841
 30
0.0
 11
101.007882621772
 21
502.076205211573
 31
0.0
  0
LINE
  5
174
330
1F
100
AcDbEntity
  8
0
  6
Continuous
 62
     3
100
AcDbLine
 10
101.178199014521
 20
499.901389656276
 30
0.0
 11
104.244169102832
 21
499.901389656276
 31
0.0
  0
LINE
  5
175
330
1F
100
AcDbEntity
  8
0
  6
Continuous
 62
     3
100
AcDbLine
 10
100.883713991186
 20
500.051211704604
 30
0.0
 11
100.991626143214
 21
499.945149475182
 31
0.0
  0
LINE
  5
176
330
1F
100
AcDbEntity
  8
0
  6
Continuous
 62
     3
100
AcDbLine
 10
102.261942520767
 20
505.971165147629
 30
0.0
 11
102.291841943608
 21
506.086875914024
 31
0.0
  0
LINE
  5
177
330
1F
100
AcDbEntity
  8
0
  6
Continuous
 62
     3
100
AcDbLine
 10
102.564594889127
 20
503.603741433189
 30
0.0
 11
102.982364693688
 21
504.077340475269
 31
0.0
  0
LINE
  5
178
330
1F
100
AcDbEntity
  8
0
  6
Continuous
 62
     3
100
AcDbLine
 10
102.138942301574
 20
511.127516126957
 30
0.0
 11
102.417359883067
 21
510.776338750833
 31
0.0
  0
LINE
  5
179
330
1F
100
AcDbEntity
  8
0
  6
Continuous
 62
     3
100
AcDbLine
 10
102.044303154966
 20
511.534464457369
 30
0.0
 11
102.138942301574
 21
511.127516126957
 31
0.0
  0
LINE
  5
17A
330
1F
100
AcDbEntity
  8
0
  6
Continuous
 62
     3
100
AcDbLine
 10
102.044303154966
 20
512.678989656276
 30
0.0
 11
102.044303154966
 21
511.534464457369
 31
0.0
  0
LINE
  5
17B
330
1F
100
AcDbEntity
  8
0
  6
Continuous
 62
     3
100
AcDbLine
 10
101.366173032853
 20
498.834949907624
 30
0.0
 11
101.366173032852
 21
476.884974626607
 31
0.0
  0
LINE
  5
17C
330
1F
100
AcDbEntity
  8
0
  6
Continuous
 62
     3
100
AcDbLine
 10
103.375868925437
 20
505.506616049614
 30
0.0
 11
103.507798530026
 21
505.563345779588
 31
0.0
  0
LINE
  5
17D
330
1F
100
AcDbEntity
  8
0
  6
Continuous
 62
     3
100
AcDbLine
 10
101.773636461957
 20
505.432324923408
 30
0.0
 11
102.154878938607
 21
505.833053126643
 31
0.0
  0
LINE
  5
17E
330
1F
100
AcDbEntity
  8
0
  6
Continuous
 62
     3
100
AcDbLine
 10
103.507798530026
 20
505.563345779588
 30
0.0
 11
103.731540002928
 21
505.425904589091
 31
0.0
  0
LINE
  5
17F
330
1F
100
AcDbEntity
  8
0
  6
Continuous
 62
     3
100
AcDbLine
 10
101.029806637255
 20
505.910669926553
 30
0.0
 11
100.875158291204
 21
505.46180310214
 31
0.0
  0
LINE
  5
180
330
1F
100
AcDbEntity
  8
0
  6
Continuous
 62
     3
100
AcDbLine
 10
100.796998233915
 20
508.494374626364
 30
0.0
 11
100.874953456653
 21
507.907761575264
 31
0.0
  0
LINE
  5
181
330
1F
100
AcDbEntity
  8
0
  6
Continuous
 62
     3
100
AcDbLine
 10
100.894712098732
 20
509.099418877307
 30
0.0
 11
100.796998233915
 21
508.494374626364
 31
0.0
  0
LINE
  5
182
330
1F
100
AcDbEntity
  8
0
  6
Continuous
 62
     3
100
AcDbLine
 10
102.833792398478
 20
510.580994043604
 30
0.0
 11
103.337304493942
 21
510.497720889354
 31
0.0
  0
LINE
  5
183
330
1F
100
AcDbEntity
  8
0
  6
Continuous
 62
     3
100
AcDbLine
 10
103.337304493942
 20
510.497720889354
 30
0.0
 11
103.817938801191
 21
510.563856170032
 31
0.0
  0
LINE
  5
184
330
1F
100
AcDbEntity
  8
0
  6
Continuous
 62
     3
100
AcDbLine
 10
103.964229816031
 20
513.517389656276
 30
0.0
 11
101.235154316391
 21
513.517389656276
 31
0.0
  0
LINE
  5
185
330
1F
100
AcDbEntity
  8
0
  6
Continuous
 62
     3
100
AcDbLine
 10
102.046763549323
 20
506.447738049714
 30
0.0
 11
101.8874276085
 21
506.475143831536
 31
0.0
  0
LINE
  5
186
330
1F
100
AcDbEntity
  8
0
  6
Continuous
 62
     3
100
AcDbLine
 10
102.291841943608
 20
506.086875914024
 30
0.0
 11
102.260177929314
 21
506.236646701637
 31
0.0
  0
LINE
  5
187
330
1F
100
AcDbEntity
  8
0
  6
Continuous
 62
     3
100
AcDbLine
 10
102.260177929314
 20
506.236646701637
 30
0.0
 11
102.179188310815
 21
506.348088416691
 31
0.0
  0
LINE
  5
188
330
1F
100
AcDbEntity
  8
0
  6
Continuous
 62
     3
100
AcDbLine
 10
103.427578080126
 20
506.403032335663
 30
0.0
 11
102.756555262191
 21
506.13052251349
 31
0.0
  0
LINE
  5
189
330
1F
100
AcDbEntity
  8
0
  6
Continuous
 62
     3
100
AcDbLine
 10
101.406357278609
 20
506.347845221164
 30
0.0
 11
101.029806637255
 21
505.910669926553
 31
0.0
  0
LINE
  5
18A
330
1F
100
AcDbEntity
  8
0
  6
Continuous
 62
     3
100
AcDbLine
 10
101.8874276085
 20
506.475143831536
 30
0.0
 11
101.406357278609
 21
506.347845221164
 31
0.0
  0
LINE
  5
18B
330
1F
100
AcDbEntity
  8
0
  6
Continuous
 62
     3
100
AcDbLine
 10
102.179188310815
 20
506.348088416691
 30
0.0
 11
102.046763549323
 21
506.447738049714
 31
0.0
  0
LINE
  5
18C
330
1F
100
AcDbEntity
  8
0
  6
Continuous
 62
     3
100
AcDbLine
 10
102.417359883067
 20
510.776338750833
 30
0.0
 11
102.833792398478
 21
510.580994043604
 31
0.0
  0
LINE
  5
18D
330
1F
100
AcDbEntity
  8
0
  6
Continuous
 62
     3
100
AcDbLine
 10
104.628821865758
 20
504.554006941373
 30
0.0
 11
104.667815883122
 21
504.973192628038
 31
0.0
  0
LINE
  5
18E
330
1F
100
AcDbEntity
  8
0
  6
Continuous
 62
     3
100
AcDbLine
 10
101.684441268362
 20
504.489663793191
 30
0.0
 11
101.638265593801
 21
504.98605229472
 31
0.0
  0
LINE
  5
18F
330
1F
100
AcDbEntity
  8
0
  6
Continuous
 62
     3
100
AcDbLine
 10
103.177514724927
 20
504.6487619661
 30
0.0
 11
103.238477528887
 21
504.963330034535
 31
0.0
  0
LINE
  5
190
330
1F
100
AcDbEntity
  8
0
  6
Continuous
 62
     3
100
AcDbLine
 10
100.79677458266
 20
504.973080679368
 30
0.0
 11
100.85537419033
 21
504.418728390812
 31
0.0
  0
LINE
  5
191
330
1F
100
AcDbEntity
  8
0
  6
Continuous
 62
     3
100
AcDbLine
 10
89.8661730328524
 20
504.051067726208
 30
0.0
 11
89.8661730328524
 21
509.618832089038
 31
0.0
  0
LINE
  5
192
330
1F
100
AcDbEntity
  8
0
  6
Continuous
 62
     3
100
AcDbLine
 10
103.317791527059
 20
505.253222697854
 30
0.0
 11
103.317791527059
 21
505.328891662051
 31
0.0
  0
LINE
  5
193
330
1F
100
AcDbEntity
  8
0
  6
Continuous
 62
     3
100
AcDbLine
 10
103.317791527059
 20
505.328891662051
 30
0.0
 11
103.34344485596
 21
505.395077250615
 31
0.0
  0
LINE
  5
194
330
1F
100
AcDbEntity
  8
0
  6
Continuous
 62
     3
100
AcDbLine
 10
103.34344485596
 20
505.395077250615
 30
0.0
 11
103.375868925437
 21
505.506616049614
 31
0.0
  0
LINE
  5
195
330
1F
100
AcDbEntity
  8
0
  6
Continuous
 62
     3
100
AcDbLine
 10
103.731540002928
 20
505.425904589091
 30
0.0
 11
103.805977620234
 21
505.084484051045
 31
0.0
  0
LINE
  5
196
330
1F
100
AcDbEntity
  8
0
  6
Continuous
 62
     3
100
AcDbLine
 10
101.638265593801
 20
504.98605229472
 30
0.0
 11
101.773636461957
 21
505.432324923408
 31
0.0
  0
LINE
  5
197
330
1F
100
AcDbEntity
  8
0
  6
Continuous
 62
     3
100
AcDbLine
 10
104.667815883122
 20
504.973192628038
 30
0.0
 11
104.589667778201
 21
505.510851589898
 31
0.0
  0
LINE
  5
198
330
1F
100
AcDbEntity
  8
0
  6
Continuous
 62
     3
100
AcDbLine
 10
100.875158291204
 20
505.46180310214
 30
0.0
 11
100.79677458266
 21
504.973080679368
 31
0.0
  0
LINE
  5
199
330
1F
100
AcDbEntity
  8
0
  6
Continuous
 62
     3
100
AcDbLine
 10
102.756555262191
 20
506.13052251349
 30
0.0
 11
102.38688983218
 21
505.277179052422
 31
0.0
  0
LINE
  5
19A
330
1F
100
AcDbEntity
  8
0
  6
Continuous
 62
     3
100
AcDbLine
 10
91.8661730328548
 20
501.02547488831
 30
0.0
 11
91.8661730328548
 21
512.644424926937
 31
0.0
  0
LINE
  5
19B
330
1F
100
AcDbEntity
  8
1
  6
Continuous
 62
     3
100
AcDbLine
 10
101.366173032853
 20
498.834949907624
 30
0.0
 11
97.3661730328524
 21
498.834949907624
 31
0.0
  0
LINE
  5
19C
330
1F
100
AcDbEntity
  8
1
  6
Continuous
 62
     3
100
AcDbLine
 10
101.366173032852
 20
514.834949907623
 30
0.0
 11
97.3661730328524
 21
514.834949907623
 31
0.0
  0
LINE
  5
19D
330
1F
100
AcDbEntity
  8
1
  6
Continuous
 62
     3
100
AcDbLine
 10
77.8002554216128
 20
504.257172129846
 30
0.0
 11
76.9510629649368
 21
504.257172129846
 31
0.0
  0
LINE
  5
19E
330
1F
100
AcDbEntity
  8
1
  6
Continuous
 62
     3
100
AcDbLine
 10
78.0494256677262
 20
504.025676359857
 30
0.0
 11
77.8002554216128
 21
504.257172129846
 31
0.0
  0
LINE
  5
19F
330
1F
100
AcDbEntity
  8
1
  6
Continuous
 62
     3
100
AcDbLine
 10
76.7579498014021
 20
503.213800420187
 30
0.0
 11
78.0494256677262
 21
504.025676359857
 31
0.0
  0
LINE
  5
1A0
330
1F
100
AcDbEntity
  8
1
  6
Continuous
 62
     3
100
AcDbLine
 10
78.6545052376849
 20
503.475135907699
 30
0.0
 11
77.2062480758572
 21
502.518280446753
 31
0.0
  0
LINE
  5
1A1
330
1F
100
AcDbEntity
  8
1
  6
Continuous
 62
     3
100
AcDbLine
 10
79.504938807811
 20
502.692039231536
 30
0.0
 11
78.6545052376849
 21
503.475135907699
 31
0.0
  0
LINE
  5
1A2
330
1F
100
AcDbEntity
  8
1
  6
Continuous
 62
     3
100
AcDbLine
 10
78.9402223222329
 20
504.257172129846
 30
0.0
 11
80.0363573149096
 21
503.277958203055
 31
0.0
  0
LINE
  5
1A3
330
1F
100
AcDbEntity
  8
1
  6
Continuous
 62
     3
100
AcDbLine
 10
79.7817097311061
 20
504.257172129846
 30
0.0
 11
78.9402223222329
 21
504.257172129846
 31
0.0
  0
LINE
  5
1A4
330
1F
100
AcDbEntity
  8
1
  6
Continuous
 62
     3
100
AcDbLine
 10
76.951062964937
 20
505.030505463179
 30
0.0
 11
79.7817097311061
 21
505.030505463179
 31
0.0
  0
LINE
  5
1A5
330
1F
100
AcDbEntity
  8
1
  6
Continuous
 62
     3
100
AcDbLine
 10
79.3902669450364
 20
508.895115745103
 30
0.0
 11
79.3902669450364
 21
509.448283240957
 31
0.0
  0
LINE
  5
1A6
330
1F
100
AcDbEntity
  8
1
  6
Continuous
 62
     3
100
AcDbLine
 10
80.1683763977727
 20
510.774784070144
 30
0.0
 11
80.1683763977729
 21
508.895115745103
 31
0.0
  0
LINE
  5
1A7
330
1F
100
AcDbEntity
  8
1
  6
Continuous
 62
     3
100
AcDbLine
 10
79.3902669450364
 20
510.22161657429
 30
0.0
 11
79.3902669450364
 21
510.774784070144
 31
0.0
  0
LINE
  5
1A8
330
1F
100
AcDbEntity
  8
1
  6
Continuous
 62
     3
100
AcDbLine
 10
76.9510629649368
 20
510.22161657429
 30
0.0
 11
79.3902669450364
 21
510.22161657429
 31
0.0
  0
LINE
  5
1A9
330
1F
100
AcDbEntity
  8
1
  6
Continuous
 62
     3
100
AcDbLine
 10
79.3902669450364
 20
509.448283240957
 30
0.0
 11
76.9510629649368
 21
509.448283240957
 31
0.0
  0
LINE
  5
1AA
330
1F
100
AcDbEntity
  8
1
  6
Continuous
 62
     3
100
AcDbLine
 10
76.1686602504377
 20
507.184949907623
 30
0.0
 11
73.9663863480215
 21
507.184949907623
 31
0.0
  0
LINE
  5
1AB
330
1F
100
AcDbEntity
  8
1
  6
Continuous
 62
     3
100
AcDbLine
 10
76.1686602504377
 20
506.484949907624
 30
0.0
 11
73.9663863480215
 21
506.484949907623
 31
0.0
  0
LINE
  5
1AC
330
1F
100
AcDbEntity
  8
1
  6
Continuous
 62
     3
100
AcDbLine
 10
82.7663863480196
 20
507.184949907624
 30
0.0
 11
80.5641124456054
 21
507.184949907624
 31
0.0
  0
LINE
  5
1AD
330
1F
100
AcDbEntity
  8
1
  6
Continuous
 62
     3
100
AcDbLine
 10
82.7663863480196
 20
506.484949907624
 30
0.0
 11
80.5641124456052
 21
506.484949907623
 31
0.0
  0
LINE
  5
1AE
330
1F
100
AcDbEntity
  8
0
  6
Continuous
 62
     3
100
AcDbLine
 10
103.116173032851
 20
333.035169411902
 30
0.0
 11
103.116173032851
 21
332.835169411904
 31
0.0
  0
LINE
  5
1AF
330
1F
100
AcDbEntity
  8
0
  6
Continuous
 62
     3
100
AcDbLine
 10
91.0931580345489
 20
329.535169411904
 30
0.0
 11
103.639188031156
 21
329.535169411904
 31
0.0
  0
LINE
  5
1B0
330
1F
100
AcDbEntity
  8
0
  6
Continuous
 62
     3
100
AcDbLine
 10
91.6161730328506
 20
333.035169411902
 30
0.0
 11
91.6161730328507
 21
332.835169411904
 31
0.0
  0
LINE
  5
1B1
330
1F
100
AcDbEntity
  8
1
  6
Continuous
 62
     3
100
AcDbLine
 10
91.0128402647175
 20
331.835169411902
 30
0.0
 11
91.0931580345489
 21
329.535169411904
 31
0.0
  0
LINE
  5
1B2
330
1F
100
AcDbEntity
  8
1
  6
Continuous
 62
     3
100
AcDbLine
 10
103.719505800987
 20
331.835169411904
 30
0.0
 11
103.639188031156
 21
329.535169411904
 31
0.0
  0
LINE
  5
1B3
330
1F
100
AcDbEntity
  8
1
  6
Continuous
 62
     3
100
AcDbLine
 10
97.3663863480216
 20
498.334949907625
 30
0.0
 11
100.366386348022
 21
498.334949907625
 31
0.0
  0
LINE
  5
1B4
330
1F
100
AcDbEntity
  8
1
  6
Continuous
 62
     3
100
AcDbLine
 10
97.3663863480197
 20
515.334949907622
 30
0.0
 11
100.366386348022
 21
515.334949907622
 31
0.0
  0
LINE
  5
1B5
330
1F
100
AcDbEntity
  8
0
  6
Continuous
 62
     3
100
AcDbLine
 10
101.366386348022
 20
497.334949907625
 30
0.0
 11
101.366386348022
 21
475.703921522877
 31
0.0
  0
LINE
  5
1B6
330
1F
100
AcDbEntity
  8
0
  6
Continuous
 62
     3
100
AcDbLine
 10
101.366386348022
 20
516.334949907622
 30
0.0
 11
101.366386348022
 21
537.96597829237
 31
0.0
  0
LINE
  5
1B7
330
1F
100
AcDbEntity
  8
1
  6
DOT_CENTER
 62
     1
100
AcDbLine
 10
140.366173032851
 20
336.61666836884
 30
0.0
 11
140.366173032851
 21
360.61666836884
 31
0.0
  0
LINE
  5
1B8
330
1F
100
AcDbEntity
  8
1
  6
DOT_CENTER
 62
     1
100
AcDbLine
 10
97.3661730328524
 20
570.498261628032
 30
0.0
 11
97.3661730328524
 21
443.498261628032
 31
0.0
  0
LINE
  5
1B9
330
1F
100
AcDbEntity
  8
1
  6
DOT_CENTER
 62
     1
100
AcDbLine
 10
159.261001980431
 20
506.834949907556
 30
0.0
 11
34.0624551644257
 21
506.834949907556
 31
0.0
  0
LINE
  5
1BA
330
1F
100
AcDbEntity
  8
1
  6
Continuous
 62
     3
100
AcDbLine
 10
128.297161112439
 20
464.262393894845
 30
0.0
 11
129.479887934686
 21
462.634533034714
 31
0.0
  0
LINE
  5
1BB
330
1F
100
AcDbEntity
  8
1
  6
Continuous
 62
     3
100
AcDbLine
 10
147.413445798064
 20
490.573676502307
 30
0.0
 11
149.327108300325
 21
489.951904015195
 31
0.0
  0
LINE
  5
1BC
330
1F
100
AcDbEntity
  8
1
  6
Continuous
 62
     3
100
AcDbLine
 10
147.41344465274
 20
523.096226837886
 30
0.0
 11
149.327097061785
 21
523.718024349129
 31
0.0
  0
LINE
  5
1BD
330
1F
100
AcDbEntity
  8
1
  6
Continuous
 62
     3
100
AcDbLine
 10
128.297158100522
 20
549.407508093646
 30
0.0
 11
129.479863074329
 21
551.03538484264
 31
0.0
  0
LINE
  5
1BE
330
1F
100
AcDbEntity
  8
1
  6
Continuous
 62
     3
100
AcDbLine
 10
97.3665904417206
 20
559.457298008495
 30
0.0
 11
97.3665904417206
 21
561.46967903629
 31
0.0
  0
LINE
  5
1BF
330
1F
100
AcDbEntity
  8
1
  6
Continuous
 62
     3
100
AcDbLine
 10
66.4356115836013
 20
549.407505920403
 30
0.0
 11
65.2528858583786
 21
551.035365270635
 31
0.0
  0
LINE
  5
1C0
330
1F
100
AcDbEntity
  8
1
  6
Continuous
 62
     3
100
AcDbLine
 10
47.3193268979753
 20
523.09622331294
 30
0.0
 11
45.4056661707192
 21
523.717995223333
 31
0.0
  0
LINE
  5
1C1
330
1F
100
AcDbEntity
  8
1
  6
Continuous
 62
     3
100
AcDbLine
 10
47.3193280432998
 20
490.57367297736
 30
0.0
 11
45.4056738592601
 21
489.95187488937
 31
0.0
  0
LINE
  5
1C2
330
1F
100
AcDbEntity
  8
1
  6
Continuous
 62
     3
100
AcDbLine
 10
66.4356145881163
 20
464.262391711939
 30
0.0
 11
65.2545034806685
 21
462.636708813648
 31
0.0
  0
LINE
  5
1C3
330
1F
100
AcDbEntity
  8
1
  6
Continuous
 62
     3
100
AcDbLine
 10
97.3663882052581
 20
454.212377087855
 30
0.0
 11
97.3663882052581
 21
452.200220759329
 31
0.0
  0
LINE
  5
1C4
330
1F
100
AcDbEntity
  8
0
  6
Continuous
 62
     3
100
AcDbLine
 10
62.5212195527654
 20
352.070068908607
 30
0.0
 11
62.646700054996
 21
348.476777464664
 31
0.0
  0
LINE
  5
1C5
330
1F
100
AcDbEntity
  8
0
  6
Continuous
 62
     3
100
AcDbLine
 10
42.3657517914642
 20
353.035169411904
 30
0.0
 11
42.3657517914642
 21
353.522352342205
 31
0.0
  0
LINE
  5
1C6
330
1F
100
AcDbEntity
  8
0
  6
Continuous
 62
     3
100
AcDbLine
 10
152.365746402516
 20
353.035169411904
 30
0.0
 11
42.3657517914642
 21
353.035169411904
 31
0.0
  0
LINE
  5
1C7
330
1F
100
AcDbEntity
  8
0
  6
Continuous
 62
     3
100
AcDbLine
 10
132.210278641215
 20
352.070068908607
 30
0.0
 11
132.084798138984
 21
348.476777464664
 31
0.0
  0
LINE
  5
1C8
330
1F
100
AcDbEntity
  8
0
  6
Continuous
 62
     3
100
AcDbLine
 10
152.365746402516
 20
353.035169411904
 30
0.0
 11
152.365746402516
 21
353.368511861508
 31
0.0
  0
LINE
  5
1C9
330
1F
100
AcDbEntity
  8
1
  6
Continuous
 62
     3
100
AcDbLine
 10
146.366173032852
 20
490.913954102459
 30
0.0
 11
146.366173032852
 21
522.755945712737
 31
0.0
  0
LINE
  5
1CA
330
1F
100
AcDbEntity
  8
1
  6
Continuous
 62
     3
100
AcDbLine
 10
146.366173032852
 20
522.755945712737
 30
0.0
 11
127.64991996071
 21
548.516658060196
 31
0.0
  0
LINE
  5
1CB
330
1F
100
AcDbEntity
  8
1
  6
Continuous
 62
     3
100
AcDbLine
 10
127.64991996071
 20
548.516658060196
 30
0.0
 11
97.3663863479402
 21
558.356374602516
 31
0.0
  0
LINE
  5
1CC
330
1F
100
AcDbEntity
  8
1
  6
Continuous
 62
     3
100
AcDbLine
 10
97.3663863479402
 20
558.356374602516
 30
0.0
 11
67.0828527351699
 21
548.516658060196
 31
0.0
  0
LINE
  5
1CD
330
1F
100
AcDbEntity
  8
1
  6
Continuous
 62
     3
100
AcDbLine
 10
67.0828527351699
 20
548.516658060196
 30
0.0
 11
48.366599663028
 21
522.755945712737
 31
0.0
  0
LINE
  5
1CE
330
1F
100
AcDbEntity
  8
1
  6
Continuous
 62
     3
100
AcDbLine
 10
48.366599663028
 20
522.755945712737
 30
0.0
 11
48.366599663028
 21
490.913954102459
 31
0.0
  0
LINE
  5
1CF
330
1F
100
AcDbEntity
  8
1
  6
Continuous
 62
     3
100
AcDbLine
 10
48.366599663028
 20
490.913954102459
 30
0.0
 11
67.0828527351699
 21
465.153241755
 31
0.0
  0
LINE
  5
1D0
330
1F
100
AcDbEntity
  8
1
  6
Continuous
 62
     3
100
AcDbLine
 10
67.0828527351699
 20
465.153241755
 30
0.0
 11
97.3663863479402
 21
455.313525212679
 31
0.0
  0
LINE
  5
1D1
330
1F
100
AcDbEntity
  8
1
  6
Continuous
 62
     3
100
AcDbLine
 10
97.3663863479402
 20
455.313525212679
 30
0.0
 11
127.64991996071
 21
465.153241755
 31
0.0
  0
LINE
  5
1D2
330
1F
100
AcDbEntity
  8
1
  6
Continuous
 62
     3
100
AcDbLine
 10
127.64991996071
 20
465.153241755
 30
0.0
 11
146.366173032852
 21
490.913954102459
 31
0.0
  0
LINE
  5
1D3
330
1F
100
AcDbEntity
  8
1
  6
Continuous
 62
     3
100
AcDbLine
 10
151.750373438715
 20
354.291583929672
 30
0.0
 11
146.919821135027
 21
356.304385616397
 31
0.0
  0
LINE
  5
1D4
330
1F
100
AcDbEntity
  8
1
  6
Continuous
 62
     3
100
AcDbLine
 10
42.7821971294808
 20
354.334426203672
 30
0.0
 11
45.0601950735293
 21
355.971390996304
 31
0.0
  0
LINE
  5
1D5
330
1F
100
AcDbEntity
  8
1
  6
Continuous
 62
     3
100
AcDbLine
 10
89.8161730328524
 20
332.835169411904
 30
0.0
 11
106.262792254581
 21
332.835169411904
 31
0.0
  0
LINE
  5
1D6
330
1F
100
AcDbEntity
  8
11
  6
Continuous
 62
     3
100
AcDbLine
 10
105.366173032852
 20
328.035169411903
 30
0.0
 11
104.866173032853
 21
328.535169411903
 31
0.0
  0
LINE
  5
1D7
330
1F
100
AcDbEntity
  8
11
  6
Continuous
 62
     3
100
AcDbLine
 10
89.8661730328524
 20
328.535169411903
 30
0.0
 11
89.3661730328524
 21
328.035169411903
 31
0.0
  0
LINE
  5
1D8
330
1F
100
AcDbEntity
  8
11
  6
Continuous
 62
     3
100
AcDbLine
 10
104.866173032853
 20
328.535169411903
 30
0.0
 11
89.8661730328524
 21
328.535169411903
 31
0.0
  0
LINE
  5
1D9
330
1F
100
AcDbEntity
  8
0
  6
Continuous
 62
     3
100
AcDbLine
 10
92.9010938023435
 20
328.535169411903
 30
0.0
 11
92.8830240589577
 21
329.052619160255
 31
0.0
  0
LINE
  5
1DA
330
1F
100
AcDbEntity
  8
5
  6
Continuous
 62
     3
100
AcDbLine
 10
91.2661730328525
 20
-15.9648305880974
 30
0.0
 11
92.8661730328524
 21
-15.9648305880974
 31
0.0
  0
LINE
  5
1DB
330
1F
100
AcDbEntity
  8
5
  6
DOT_CENTER
 62
     1
100
AcDbLine
 10
99.4661730328524
 20
77.0351694119026
 30
0.0
 11
105.966173032852
 21
77.0351694119026
 31
0.0
  0
LINE
  5
1DC
330
1F
100
AcDbEntity
  8
5
  6
DOT_CENTER
 62
     1
100
AcDbLine
 10
88.7661730328525
 20
77.0351694119026
 30
0.0
 11
95.2661730328525
 21
77.0351694119026
 31
0.0
  0
LINE
  5
1DD
330
1F
100
AcDbEntity
  8
5
  6
DOT_CENTER
 62
     1
100
AcDbLine
 10
105.516173032853
 20
274.035169411903
 30
0.0
 11
89.2161730328524
 21
274.035169411903
 31
0.0
  0
LINE
  5
1DE
330
1F
100
AcDbEntity
  8
5
  6
DOT_CENTER
 62
     1
100
AcDbLine
 10
107.866173032852
 20
306.535169411903
 30
0.0
 11
86.8661730328524
 21
306.535169411903
 31
0.0
  0
LINE
  5
1DF
330
1F
100
AcDbEntity
  8
5
  6
Continuous
 62
     3
100
AcDbLine
 10
105.366173032852
 20
318.035169411903
 30
0.0
 11
89.3661730328524
 21
318.035169411903
 31
0.0
  0
LINE
  5
1E0
330
1F
100
AcDbEntity
  8
5
  6
Continuous
 62
     3
100
AcDbLine
 10
89.3661730328524
 20
320.535169411903
 30
0.0
 11
105.366173032852
 21
320.535169411903
 31
0.0
  0
LINE
  5
1E1
330
1F
100
AcDbEntity
  8
5
  6
Continuous
 62
     3
100
AcDbLine
 10
104.366173032852
 20
318.035169411903
 30
0.0
 11
104.366173032852
 21
320.535169411903
 31
0.0
  0
LINE
  5
1E2
330
1F
100
AcDbEntity
  8
5
  6
Continuous
 62
     3
100
AcDbLine
 10
90.3661730328524
 20
318.035169411903
 30
0.0
 11
90.3661730328524
 21
320.535169411903
 31
0.0
  0
LINE
  5
1E3
330
1F
100
AcDbEntity
  8
5
  6
Continuous
 62
     3
100
AcDbLine
 10
105.366173032852
 20
320.535169411903
 30
0.0
 11
105.366173032852
 21
328.035169411903
 31
0.0
  0
LINE
  5
1E4
330
1F
100
AcDbEntity
  8
5
  6
Continuous
 62
     3
100
AcDbLine
 10
89.3661730328524
 20
320.535169411903
 30
0.0
 11
89.3661730328524
 21
328.035169411903
 31
0.0
  0
LINE
  5
1E5
330
1F
100
AcDbEntity
  8
5
  6
Continuous
 62
     3
100
AcDbLine
 10
103.466173032852
 20
-15.9648305880974
 30
0.0
 11
103.466173032852
 21
284.035169411903
 31
0.0
  0
LINE
  5
1E6
330
1F
100
AcDbEntity
  8
5
  6
Continuous
 62
     3
100
AcDbLine
 10
89.3661730328524
 20
292.535169411903
 30
0.0
 11
105.366173032852
 21
292.535169411903
 31
0.0
  0
LINE
  5
1E7
330
1F
100
AcDbEntity
  8
5
  6
Continuous
 62
     3
100
AcDbLine
 10
89.3661730328524
 20
295.035169411903
 30
0.0
 11
105.366173032852
 21
295.035169411903
 31
0.0
  0
LINE
  5
1E8
330
1F
100
AcDbEntity
  8
5
  6
Continuous
 62
     3
100
AcDbLine
 10
104.866173032852
 20
284.535169411903
 30
0.0
 11
105.366173032852
 21
285.035169411903
 31
0.0
  0
LINE
  5
1E9
330
1F
100
AcDbEntity
  8
5
  6
Continuous
 62
     3
100
AcDbLine
 10
105.366173032852
 20
292.535169411903
 30
0.0
 11
105.366173032852
 21
285.035169411903
 31
0.0
  0
LINE
  5
1EA
330
1F
100
AcDbEntity
  8
5
  6
Continuous
 62
     3
100
AcDbLine
 10
89.8661730328524
 20
284.535169411903
 30
0.0
 11
104.866173032852
 21
284.535169411903
 31
0.0
  0
LINE
  5
1EB
330
1F
100
AcDbEntity
  8
5
  6
Continuous
 62
     3
100
AcDbLine
 10
89.3661730328524
 20
285.035169411903
 30
0.0
 11
89.8661730328524
 21
284.535169411903
 31
0.0
  0
LINE
  5
1EC
330
1F
100
AcDbEntity
  8
5
  6
Continuous
 62
     3
100
AcDbLine
 10
89.3661730328524
 20
292.535169411903
 30
0.0
 11
89.3661730328524
 21
285.035169411903
 31
0.0
  0
LINE
  5
1ED
330
1F
100
AcDbEntity
  8
5
  6
Continuous
 62
     3
100
AcDbLine
 10
104.366173032852
 20
295.035169411903
 30
0.0
 11
104.366173032852
 21
292.535169411903
 31
0.0
  0
LINE
  5
1EE
330
1F
100
AcDbEntity
  8
5
  6
Continuous
 62
     3
100
AcDbLine
 10
90.3661730328524
 20
295.035169411903
 30
0.0
 11
90.3661730328524
 21
292.535169411903
 31
0.0
  0
LINE
  5
1EF
330
1F
100
AcDbEntity
  8
5
  6
Continuous
 62
     3
100
AcDbLine
 10
105.366173032852
 20
302.535169411903
 30
0.0
 11
104.143893888716
 21
306.535169411903
 31
0.0
  0
LINE
  5
1F0
330
1F
100
AcDbEntity
  8
5
  6
Continuous
 62
     3
100
AcDbLine
 10
104.143893888716
 20
306.535169411903
 30
0.0
 11
104.143893888716
 21
312.193940229144
 31
0.0
  0
LINE
  5
1F1
330
1F
100
AcDbEntity
  8
5
  6
Continuous
 62
     3
100
AcDbLine
 10
89.3661730328524
 20
302.535169411903
 30
0.0
 11
90.5884521769894
 21
306.535169411903
 31
0.0
  0
LINE
  5
1F2
330
1F
100
AcDbEntity
  8
5
  6
Continuous
 62
     3
100
AcDbLine
 10
90.5884521769894
 20
306.535169411903
 30
0.0
 11
90.5884521769894
 21
312.193940229144
 31
0.0
  0
LINE
  5
1F3
330
1F
100
AcDbEntity
  8
5
  6
Continuous
 62
     3
100
AcDbLine
 10
102.366173032852
 20
302.535169411903
 30
0.0
 11
105.366173032852
 21
302.535169411903
 31
0.0
  0
LINE
  5
1F4
330
1F
100
AcDbEntity
  8
5
  6
Continuous
 62
     3
100
AcDbLine
 10
89.3661730328524
 20
302.535169411903
 30
0.0
 11
92.3661730328524
 21
302.535169411903
 31
0.0
  0
LINE
  5
1F5
330
1F
100
AcDbEntity
  8
5
  6
Continuous
 62
     3
100
AcDbLine
 10
102.366173032852
 20
302.535169411903
 30
0.0
 11
102.366173032852
 21
312.035169411903
 31
0.0
  0
LINE
  5
1F6
330
1F
100
AcDbEntity
  8
5
  6
Continuous
 62
     3
100
AcDbLine
 10
92.3661730328524
 20
302.535169411903
 30
0.0
 11
92.3661730328524
 21
312.035169411903
 31
0.0
  0
LINE
  5
1F7
330
1F
100
AcDbEntity
  8
5
  6
Continuous
 62
     3
100
AcDbLine
 10
105.366173032852
 20
302.535169411903
 30
0.0
 11
105.366173032852
 21
318.035169411903
 31
0.0
  0
LINE
  5
1F8
330
1F
100
AcDbEntity
  8
5
  6
Continuous
 62
     3
100
AcDbLine
 10
89.3661730328524
 20
302.535169411903
 30
0.0
 11
89.3661730328524
 21
318.035169411903
 31
0.0
  0
LINE
  5
1F9
330
1F
100
AcDbEntity
  8
5
  6
Continuous
 62
     3
100
AcDbLine
 10
101.616173032852
 20
300.876398594662
 30
0.0
 11
101.616173032852
 21
306.285169411903
 31
0.0
  0
LINE
  5
1FA
330
1F
100
AcDbEntity
  8
5
  6
Continuous
 62
     3
100
AcDbLine
 10
105.366173032852
 20
295.035169411903
 30
0.0
 11
105.366173032852
 21
296.035169411903
 31
0.0
  0
LINE
  5
1FB
330
1F
100
AcDbEntity
  8
5
  6
Continuous
 62
     3
100
AcDbLine
 10
89.3661730328524
 20
295.035169411903
 30
0.0
 11
89.3661730328524
 21
296.035169411903
 31
0.0
  0
LINE
  5
1FC
330
1F
100
AcDbEntity
  8
5
  6
Continuous
 62
     3
100
AcDbLine
 10
93.1161730328524
 20
300.876398594662
 30
0.0
 11
93.1161730328524
 21
306.285169411903
 31
0.0
  0
LINE
  5
1FD
330
1F
100
AcDbEntity
  8
5
  6
Continuous
 62
     3
100
AcDbLine
 10
103.466173032852
 20
284.035169411903
 30
0.0
 11
91.2661730328525
 21
284.035169411903
 31
0.0
  0
LINE
  5
1FE
330
1F
100
AcDbEntity
  8
5
  6
DASHED
 62
     3
100
AcDbLine
 10
101.866173032852
 20
62.6146705269426
 30
0.0
 11
98.0553237430003
 21
-15.9648305880974
 31
0.0
  0
LINE
  5
1FF
330
1F
100
AcDbEntity
  8
5
  6
LONG_DASHED
 62
     3
100
AcDbLine
 10
94.8661730328524
 20
77.0351694119026
 30
0.0
 11
92.8661730328524
 21
69.5710677967646
 31
0.0
  0
LINE
  5
200
330
1F
100
AcDbEntity
  8
5
  6
LONG_DASHED
 62
     3
100
AcDbLine
 10
99.8661730328524
 20
77.0351694119026
 30
0.0
 11
101.866173032852
 21
69.5710677967646
 31
0.0
  0
LINE
  5
201
330
1F
100
AcDbEntity
  8
5
  6
DASHED
 62
     3
100
AcDbLine
 10
92.8661730328524
 20
69.5710677967646
 30
0.0
 11
92.8661730328524
 21
-15.9648305880974
 31
0.0
  0
LINE
  5
202
330
1F
100
AcDbEntity
  8
5
  6
DASHED
 62
     3
100
AcDbLine
 10
101.866173032852
 20
69.5710677967646
 30
0.0
 11
101.866173032852
 21
-15.9648305880974
 31
0.0
  0
LINE
  5
203
330
1F
100
AcDbEntity
  8
0
  6
Continuous
 62
     3
100
AcDbLine
 10
101.849322006745
 20
329.052619160255
 30
0.0
 11
101.831252263359
 21
328.535169411903
 31
0.0
  0
LINE
  5
204
330
1F
100
AcDbEntity
  8
1
  6
DOT_CENTER
 62
     1
100
AcDbLine
 10
97.3661730328524
 20
-186.797763454545
 30
0.0
 11
97.3661730328524
 21
386.498261628032
 31
0.0
  0
LINE
  5
205
330
1F
100
AcDbEntity
  8
5
  6
Continuous
 62
     3
100
AcDbLine
 10
101.381205676764
 20
-112.964830588097
 30
0.0
 11
96.6770223227046
 21
-15.9648305880974
 31
0.0
  0
LINE
  5
206
330
1F
100
AcDbEntity
  8
5
  6
Continuous
 62
     3
100
AcDbLine
 10
91.2661730328525
 20
284.035169411903
 30
0.0
 11
91.2661730328525
 21
-15.9648305880974
 31
0.0
  0
LINE
  5
207
330
1F
100
AcDbEntity
  8
1
  6
Continuous
 62
     3
100
AcDbLine
 10
107.889427438558
 20
-146.464824964266
 30
0.0
 11
105.466173032853
 21
-146.464824964266
 31
0.0
  0
LINE
  5
208
330
1F
100
AcDbEntity
  8
2
  6
Continuous
 62
     3
100
AcDbLine
 10
109.70937096239
 20
-168.429482819684
 30
0.0
 11
109.38924436661
 21
-147.941380689808
 31
0.0
  0
LINE
  5
209
330
1F
100
AcDbEntity
  8
1
  6
Continuous
 62
     3
100
AcDbLine
 10
112.595860532852
 20
-166.964815329309
 30
0.0
 11
112.595860532852
 21
-173.964815329309
 31
0.0
  0
LINE
  5
20A
330
1F
100
AcDbEntity
  8
1
  6
Continuous
 62
     3
100
AcDbLine
 10
112.393787938636
 20
-174.314815329309
 30
0.0
 11
109.997933127069
 21
-174.314815329309
 31
0.0
  0
LINE
  5
20B
330
1F
100
AcDbEntity
  8
1
  6
Continuous
 62
     3
100
AcDbLine
 10
112.393787938636
 20
-166.614815329309
 30
0.0
 11
109.997933127069
 21
-166.614815329309
 31
0.0
  0
LINE
  5
20C
330
1F
100
AcDbEntity
  8
1
  6
Continuous
 62
     3
100
AcDbLine
 10
109.795860532852
 20
-166.964815329309
 30
0.0
 11
109.795860532852
 21
-173.964815329309
 31
0.0
  0
LINE
  5
20D
330
1F
100
AcDbEntity
  8
1
  6
Continuous
 62
     3
100
AcDbLine
 10
112.595860532852
 20
-173.964815329309
 30
0.0
 11
112.393787938636
 21
-174.314815329309
 31
0.0
  0
LINE
  5
20E
330
1F
100
AcDbEntity
  8
1
  6
Continuous
 62
     3
100
AcDbLine
 10
112.595860532852
 20
-166.964815329309
 30
0.0
 11
112.393787938636
 21
-166.614815329309
 31
0.0
  0
LINE
  5
20F
330
1F
100
AcDbEntity
  8
1
  6
Continuous
 62
     3
100
AcDbLine
 10
109.997933127069
 20
-166.614815329309
 30
0.0
 11
109.795860532852
 21
-166.964815329309
 31
0.0
  0
LINE
  5
210
330
1F
100
AcDbEntity
  8
1
  6
Continuous
 62
     3
100
AcDbLine
 10
109.997933127069
 20
-174.314815329309
 30
0.0
 11
109.795860532852
 21
-173.964815329309
 31
0.0
  0
LINE
  5
211
330
1F
100
AcDbEntity
  8
1
  6
Continuous
 62
     3
100
AcDbLine
 10
112.406055587079
 20
-172.693953495938
 30
0.0
 11
109.985665478626
 21
-172.693953495938
 31
0.0
  0
LINE
  5
212
330
1F
100
AcDbEntity
  8
1
  6
Continuous
 62
     3
100
AcDbLine
 10
112.406055587079
 20
-172.068716822544
 30
0.0
 11
109.985665478626
 21
-172.068716822544
 31
0.0
  0
LINE
  5
213
330
1F
100
AcDbEntity
  8
1
  6
Continuous
 62
     3
100
AcDbLine
 10
112.406055587079
 20
-168.860913836074
 30
0.0
 11
109.985665478626
 21
-168.860913836074
 31
0.0
  0
LINE
  5
214
330
1F
100
AcDbEntity
  8
1
  6
Continuous
 62
     3
100
AcDbLine
 10
112.406055587079
 20
-168.235677162681
 30
0.0
 11
109.985665478626
 21
-168.235677162681
 31
0.0
  0
LINE
  5
215
330
1F
100
AcDbEntity
  8
1
  6
Continuous
 62
     3
100
AcDbLine
 10
112.406055587079
 20
-168.235677162681
 30
0.0
 11
112.406055587079
 21
-168.860913836074
 31
0.0
  0
LINE
  5
216
330
1F
100
AcDbEntity
  8
1
  6
Continuous
 62
     3
100
AcDbLine
 10
112.406055587079
 20
-172.068716822544
 30
0.0
 11
112.406055587079
 21
-172.693953495938
 31
0.0
  0
LINE
  5
217
330
1F
100
AcDbEntity
  8
1
  6
Continuous
 62
     3
100
AcDbLine
 10
109.985665478626
 20
-168.235677162681
 30
0.0
 11
109.985665478626
 21
-168.860913836074
 31
0.0
  0
LINE
  5
218
330
1F
100
AcDbEntity
  8
1
  6
Continuous
 62
     3
100
AcDbLine
 10
109.985665478626
 20
-172.068716822544
 30
0.0
 11
109.985665478626
 21
-172.693953495938
 31
0.0
  0
LINE
  5
219
330
1F
100
AcDbEntity
  8
2
  6
Continuous
 62
     3
100
AcDbLine
 10
84.866173032852
 20
-178.464830588097
 30
0.0
 11
109.866173032852
 21
-178.464830588097
 31
0.0
  0
LINE
  5
21A
330
1F
100
AcDbEntity
  8
2
  6
Continuous
 62
     3
100
AcDbLine
 10
85.3431016990942
 20
-147.941395948597
 30
0.0
 11
84.866173032852
 21
-178.464830588097
 31
0.0
  0
LINE
  5
21B
330
1F
100
AcDbEntity
  8
2
  6
DOT_CENTER
 62
     1
100
AcDbLine
 10
115.101325792029
 20
-170.464815329309
 30
0.0
 11
107.301325792029
 21
-170.464815329309
 31
0.0
  0
LINE
  5
21C
330
1F
100
AcDbEntity
  8
1
  6
DOT_CENTER
 62
     1
100
AcDbLine
 10
109.616173032852
 20
-134.964824964266
 30
0.0
 11
85.1161730328524
 21
-134.964824964266
 31
0.0
  0
LINE
  5
21D
330
1F
100
AcDbEntity
  8
1
  6
Continuous
 62
     3
100
AcDbLine
 10
105.366173032852
 20
-121.464824964266
 30
0.0
 11
105.366173032852
 21
-113.464824964266
 31
0.0
  0
LINE
  5
21E
330
1F
100
AcDbEntity
  8
1
  6
Continuous
 62
     3
100
AcDbLine
 10
105.366173032852
 20
-113.464824964266
 30
0.0
 11
104.866173032852
 21
-112.964824964266
 31
0.0
  0
LINE
  5
21F
330
1F
100
AcDbEntity
  8
1
  6
Continuous
 62
     3
100
AcDbLine
 10
89.3661730328524
 20
-121.464824964266
 30
0.0
 11
89.3661730328524
 21
-113.464824964266
 31
0.0
  0
LINE
  5
220
330
1F
100
AcDbEntity
  8
1
  6
Continuous
 62
     3
100
AcDbLine
 10
89.8661730328524
 20
-112.964824964266
 30
0.0
 11
89.3661730328524
 21
-113.464824964266
 31
0.0
  0
LINE
  5
221
330
1F
100
AcDbEntity
  8
1
  6
Continuous
 62
     3
100
AcDbLine
 10
104.866173032852
 20
-112.964824964266
 30
0.0
 11
89.8661730328524
 21
-112.964824964266
 31
0.0
  0
LINE
  5
222
330
1F
100
AcDbEntity
  8
1
  6
Continuous
 62
     3
100
AcDbLine
 10
87.8661730328524
 20
-121.464824964266
 30
0.0
 11
106.866173032852
 21
-121.464824964266
 31
0.0
  0
LINE
  5
223
330
1F
100
AcDbEntity
  8
1
  6
Continuous
 62
     3
100
AcDbLine
 10
106.866173032852
 20
-121.464824964266
 30
0.0
 11
106.866173032852
 21
-146.464824964266
 31
0.0
  0
LINE
  5
224
330
1F
100
AcDbEntity
  8
1
  6
Continuous
 62
     3
100
AcDbLine
 10
87.8661730328524
 20
-121.464824964266
 30
0.0
 11
87.8661730328524
 21
-146.464824964266
 31
0.0
  0
LINE
  5
225
330
1F
100
AcDbEntity
  8
1
  6
Continuous
 62
     3
100
AcDbLine
 10
86.8429186271464
 20
-146.464824964266
 30
0.0
 11
106.866173032852
 21
-146.464824964266
 31
0.0
  0
LINE
  5
226
330
1F
100
AcDbEntity
  8
1
  6
Continuous
 62
     3
100
AcDbLine
 10
105.366173032852
 20
-113.464824964266
 30
0.0
 11
89.3661730328524
 21
-113.464824964266
 31
0.0
  0
LINE
  5
227
330
1F
100
AcDbEntity
  8
2
  6
Continuous
 62
     3
100
AcDbLine
 10
109.866173032852
 20
-178.464815329309
 30
0.0
 11
109.77413144926
 21
-172.574153979424
 31
0.0
  0
LINE
  5
228
330
1F
100
AcDbEntity
  8
11
  6
DOT_CENTER
 62
     1
100
AcDbLine
 10
109.616173032852
 20
-134.964824964266
 30
0.0
 11
85.1161730328524
 21
-134.964824964266
 31
0.0
  0
LINE
  5
229
330
1F
100
AcDbEntity
  8
3
  6
Continuous
 62
     3
100
AcDbLine
 10
103.965015762909
 20
-159.464830588097
 30
0.0
 11
103.965015762909
 21
-178.464830588097
 31
0.0
  0
LINE
  5
22A
330
1F
100
AcDbEntity
  8
3
  6
Continuous
 62
     3
100
AcDbLine
 10
108.165798953331
 20
-159.464830588097
 30
0.0
 11
108.165798953331
 21
-178.464830588097
 31
0.0
  0
LINE
  5
22B
330
1F
100
AcDbEntity
  8
3
  6
Continuous
 62
     3
100
AcDbLine
 10
90.7673303027955
 20
-159.464830588097
 30
0.0
 11
90.7673303027955
 21
-178.464830588097
 31
0.0
  0
LINE
  5
22C
330
1F
100
AcDbEntity
  8
3
  6
Continuous
 62
     3
100
AcDbLine
 10
86.5665471123737
 20
-159.464830588097
 30
0.0
 11
86.5665471123737
 21
-178.464830588097
 31
0.0
  0
LINE
  5
22D
330
1F
100
AcDbEntity
  8
3
  6
Continuous
 62
     3
100
AcDbLine
 10
86.5665471123737
 20
-159.464830588097
 30
0.0
 11
90.7673303027955
 21
-159.464830588097
 31
0.0
  0
LINE
  5
22E
330
1F
100
AcDbEntity
  8
3
  6
Continuous
 62
     3
100
AcDbLine
 10
103.965015762909
 20
-159.464830588097
 30
0.0
 11
108.165798953331
 21
-159.464830588097
 31
0.0
  0
LINE
  5
22F
330
1F
100
AcDbEntity
  8
3
  6
Continuous
 62
     3
100
AcDbLine
 10
87.4666780673282
 20
-177.825123576489
 30
0.0
 11
87.4666780673282
 21
-161.695358059743
 31
0.0
  0
LINE
  5
230
330
1F
100
AcDbEntity
  8
3
  6
Continuous
 62
     3
100
AcDbLine
 10
107.265667969463
 20
-177.825123576489
 30
0.0
 11
107.265667969463
 21
-161.695358059743
 31
0.0
  0
LINE
  5
231
330
1F
100
AcDbEntity
  8
5
  6
DOT_CENTER
 62
     1
100
AcDbLine
 10
93.3661730328524
 20
-117.964830588097
 30
0.0
 11
101.366173032852
 21
-117.964830588097
 31
0.0
  0
LINE
  5
232
330
1F
100
AcDbEntity
  8
2
  6
DOT_CENTER
 62
     1
100
AcDbLine
 10
82.7799344956424
 20
-151.964815329309
 30
0.0
 11
111.95241221781
 21
-151.964845846887
 31
0.0
  0
ARC
  5
233
330
1F
100
AcDbEntity
  8
1
  6
Continuous
 62
     3
100
AcDbCircle
 10
52.8663863480382
 20
505.33494990774
 30
0.0
 40
1.000000000000099
100
AcDbArc
 50
0.0
 51
90.0
  0
ARC
  5
234
330
1F
100
AcDbEntity
  8
1
  6
Continuous
 62
     3
100
AcDbCircle
 10
55.8663863480383
 20
505.33494990774
 30
0.0
 40
1.0
100
AcDbArc
 50
90.0
 51
180.0
  0
ARC
  5
235
330
1F
100
AcDbEntity
  8
1
  6
Continuous
 62
     3
100
AcDbCircle
 10
55.8663863480383
 20
508.33494990774
 30
0.0
 40
1.0
100
AcDbArc
 50
180.0
 51
270.0
  0
ARC
  5
236
330
1F
100
AcDbEntity
  8
1
  6
Continuous
 62
     3
100
AcDbCircle
 10
52.8663863480382
 20
508.33494990774
 30
0.0
 40
1.0
100
AcDbArc
 50
270.0
 51
0.0
  0
ARC
  5
237
330
1F
100
AcDbEntity
  8
1
  6
Continuous
 62
     3
100
AcDbCircle
 10
98.8663863481363
 20
551.334949907605
 30
0.0
 40
1.0
100
AcDbArc
 50
180.0
 51
270.0
  0
ARC
  5
238
330
1F
100
AcDbEntity
  8
1
  6
Continuous
 62
     3
100
AcDbCircle
 10
98.8663863481363
 20
548.334949907605
 30
0.0
 40
1.0
100
AcDbArc
 50
90.0
 51
180.0
  0
ARC
  5
239
330
1F
100
AcDbEntity
  8
1
  6
Continuous
 62
     3
100
AcDbCircle
 10
95.8663863481363
 20
548.334949907605
 30
0.0
 40
1.0
100
AcDbArc
 50
0.0
 51
90.0
  0
ARC
  5
23A
330
1F
100
AcDbEntity
  8
1
  6
Continuous
 62
     3
100
AcDbCircle
 10
95.8663863481363
 20
551.334949907605
 30
0.0
 40
1.0
100
AcDbArc
 50
270.0
 51
0.0
  0
ARC
  5
23B
330
1F
100
AcDbEntity
  8
1
  6
Continuous
 62
     3
100
AcDbCircle
 10
141.866386348001
 20
508.334949907507
 30
0.0
 40
1.0
100
AcDbArc
 50
180.0
 51
270.0
  0
ARC
  5
23C
330
1F
100
AcDbEntity
  8
1
  6
Continuous
 62
     3
100
AcDbCircle
 10
138.866386348001
 20
508.334949907507
 30
0.0
 40
1.0
100
AcDbArc
 50
270.0
 51
0.0
  0
ARC
  5
23D
330
1F
100
AcDbEntity
  8
1
  6
Continuous
 62
     3
100
AcDbCircle
 10
138.866386348001
 20
505.334949907507
 30
0.0
 40
1.0
100
AcDbArc
 50
0.0
 51
90.0
  0
ARC
  5
23E
330
1F
100
AcDbEntity
  8
1
  6
Continuous
 62
     3
100
AcDbCircle
 10
141.866386348001
 20
505.334949907507
 30
0.0
 40
1.0
100
AcDbArc
 50
90.0
 51
180.0
  0
ARC
  5
23F
330
1F
100
AcDbEntity
  8
1
  6
Continuous
 62
     3
100
AcDbCircle
 10
95.8663863479031
 20
462.334949907642
 30
0.0
 40
1.0
100
AcDbArc
 50
0.0
 51
90.0
  0
ARC
  5
240
330
1F
100
AcDbEntity
  8
1
  6
Continuous
 62
     3
100
AcDbCircle
 10
95.8663863479031
 20
465.334949907642
 30
0.0
 40
1.0
100
AcDbArc
 50
270.0
 51
0.0
  0
ARC
  5
241
330
1F
100
AcDbEntity
  8
1
  6
Continuous
 62
     3
100
AcDbCircle
 10
98.8663863479031
 20
465.334949907642
 30
0.0
 40
1.0
100
AcDbArc
 50
180.0
 51
270.0
  0
ARC
  5
242
330
1F
100
AcDbEntity
  8
1
  6
Continuous
 62
     3
100
AcDbCircle
 10
98.8663863479031
 20
462.334949907642
 30
0.0
 40
1.0
100
AcDbArc
 50
90.0
 51
180.0
  0
ARC
  5
243
330
1F
100
AcDbEntity
  8
0
  6
DASHED
 62
     6
100
AcDbCircle
 10
97.3661730328505
 20
377.330225707168
 30
0.0
 40
4.000000000000497
100
AcDbArc
 50
0.0
 51
90.0
  0
ARC
  5
244
330
1F
100
AcDbEntity
  8
0
  6
DASHED
 62
     6
100
AcDbCircle
 10
94.8661730328504
 20
382.8819653982
 30
0.0
 40
1.0
100
AcDbArc
 50
0.0
 51
87.99999999999943
  0
ARC
  5
245
330
1F
100
AcDbEntity
  8
0
  6
DASHED
 62
     6
100
AcDbCircle
 10
96.8661730328504
 20
382.330225707168
 30
0.0
 40
1.0
100
AcDbArc
 50
180.0
 51
270.0
  0
ARC
  5
246
330
1F
100
AcDbEntity
  8
0
  6
DASHED
 62
     6
100
AcDbCircle
 10
94.3661730328504
 20
382.899425782946
 30
0.0
 40
0.9999999999999036
100
AcDbArc
 50
87.99999999999943
 51
180.0
  0
ARC
  5
247
330
1F
100
AcDbEntity
  8
1
  6
Continuous
 62
     3
100
AcDbCircle
 10
97.3663863480197
 20
506.834949907624
 30
0.0
 40
31.12063384406852
100
AcDbArc
 50
277.3847754399793
 51
278.2548540675114
  0
ARC
  5
248
330
1F
100
AcDbEntity
  8
0
  6
Continuous
 62
     3
100
AcDbCircle
 10
102.368881461933
 20
476.885108820641
 30
0.0
 40
1.002708438060695
100
AcDbArc
 50
180.0076679835479
 51
229.6583966972679
  0
ARC
  5
249
330
1F
100
AcDbEntity
  8
0
  6
Continuous
 62
     3
100
AcDbCircle
 10
97.3661730328524
 20
506.834949907624
 30
0.0
 40
31.3644698199349
100
AcDbArc
 50
279.4778403860579
 51
80.52215961394212
  0
ARC
  5
24A
330
1F
100
AcDbEntity
  8
1
  6
Continuous
 62
     3
100
AcDbCircle
 10
97.3661730328524
 20
506.834949907624
 30
0.0
 40
8.000000000000345
100
AcDbArc
 50
200.3641348063245
 51
270.0
  0
ARC
  5
24B
330
1F
100
AcDbEntity
  8
1
  6
Continuous
 62
     3
100
AcDbCircle
 10
97.3661730328524
 20
506.834949907624
 30
0.0
 40
7.999999999999034
100
AcDbArc
 50
90.0
 51
159.6358651936889
  0
ARC
  5
24C
330
1F
100
AcDbEntity
  8
1
  6
Continuous
 62
     3
100
AcDbCircle
 10
97.3663863480197
 20
506.834949907624
 30
0.0
 40
8.49999999999801
100
AcDbArc
 50
90.0
 51
270.0000000000128
  0
ARC
  5
24D
330
1F
100
AcDbEntity
  8
1
  6
Continuous
 62
     3
100
AcDbCircle
 10
97.3663863480197
 20
506.834949907624
 30
0.0
 40
31.39999999999784
100
AcDbArc
 50
82.68128832553626
 51
277.5047552394873
  0
ARC
  5
24E
330
1F
100
AcDbEntity
  8
1
  6
Continuous
 62
     3
100
AcDbCircle
 10
79.7728570412915
 20
502.982995210199
 30
0.0
 40
0.395519356480904
100
AcDbArc
 50
227.3604930412797
 51
48.22452260651009
  0
ARC
  5
24F
330
1F
100
AcDbEntity
  8
1
  6
Continuous
 62
     3
100
AcDbCircle
 10
76.978161674301
 20
502.86350266479
 30
0.0
 40
0.4137653760306726
100
AcDbArc
 50
122.1551923500166
 51
303.4525180882407
  0
ARC
  5
250
330
1F
100
AcDbEntity
  8
1
  6
Continuous
 62
     3
100
AcDbCircle
 10
76.9510629649368
 20
504.643838796513
 30
0.0
 40
0.3866666666659739
100
AcDbArc
 50
89.99999999997053
 51
270.0
  0
ARC
  5
251
330
1F
100
AcDbEntity
  8
1
  6
Continuous
 62
     3
100
AcDbCircle
 10
79.7817097311061
 20
504.643838796513
 30
0.0
 40
0.3866666666669971
100
AcDbArc
 50
270.0
 51
90.0
  0
ARC
  5
252
330
1F
100
AcDbEntity
  8
1
  6
Continuous
 62
     3
100
AcDbCircle
 10
76.9510629649368
 20
509.834949907624
 30
0.0
 40
0.3866666666660308
100
AcDbArc
 50
90.0
 51
270.0
  0
ARC
  5
253
330
1F
100
AcDbEntity
  8
1
  6
Continuous
 62
     3
100
AcDbCircle
 10
79.7793216714045
 20
510.774784070144
 30
0.0
 40
0.3890547263682009
100
AcDbArc
 50
0.0
 51
180.0
  0
ARC
  5
254
330
1F
100
AcDbEntity
  8
1
  6
Continuous
 62
     3
100
AcDbCircle
 10
79.7793216714045
 20
508.895115745103
 30
0.0
 40
0.3890547263681015
100
AcDbArc
 50
180.0
 51
270.0000000000293
  0
ARC
  5
255
330
1F
100
AcDbEntity
  8
1
  6
Continuous
 62
     3
100
AcDbCircle
 10
79.7793216714045
 20
508.895115745103
 30
0.0
 40
0.3890547263679878
100
AcDbArc
 50
270.0000000000293
 51
0.0
  0
ARC
  5
256
330
1F
100
AcDbEntity
  8
1
  6
Continuous
 62
     3
100
AcDbCircle
 10
78.3663863480216
 20
510.284949907623
 30
0.0
 40
3.800000000001046
100
AcDbArc
 50
185.2604028612471
 51
234.6654982081732
  0
ARC
  5
257
330
1F
100
AcDbEntity
  8
1
  6
Continuous
 62
     3
100
AcDbCircle
 10
74.9309167208022
 20
509.968645559797
 30
0.0
 40
0.3500000000000227
100
AcDbArc
 50
90.0
 51
185.2604028612463
  0
ARC
  5
258
330
1F
100
AcDbEntity
  8
1
  6
Continuous
 62
     3
100
AcDbCircle
 10
74.9309167208022
 20
509.968645559797
 30
0.0
 40
0.3499999999999623
100
AcDbArc
 50
5.26040286127051
 51
90.0
  0
ARC
  5
259
330
1F
100
AcDbEntity
  8
1
  6
Continuous
 62
     3
100
AcDbCircle
 10
81.8018559752407
 20
509.968645559797
 30
0.0
 40
0.3500000000000227
100
AcDbArc
 50
90.0
 51
174.739597138725
  0
ARC
  5
25A
330
1F
100
AcDbEntity
  8
1
  6
Continuous
 62
     3
100
AcDbCircle
 10
81.8018559752407
 20
509.968645559797
 30
0.0
 40
0.3499999999995609
100
AcDbArc
 50
354.7395971387328
 51
90.0
  0
ARC
  5
25B
330
1F
100
AcDbEntity
  8
1
  6
Continuous
 62
     3
100
AcDbCircle
 10
78.3663863480216
 20
510.284949907623
 30
0.0
 40
3.100000000000136
100
AcDbArc
 50
185.2604028612445
 51
354.7395971387554
  0
ARC
  5
25C
330
1F
100
AcDbEntity
  8
1
  6
Continuous
 62
     3
100
AcDbCircle
 10
78.3663863480216
 20
510.284949907623
 30
0.0
 40
3.799999999999303
100
AcDbArc
 50
305.3345017918343
 51
354.7395971387505
  0
ARC
  5
25D
330
1F
100
AcDbEntity
  8
1
  6
Continuous
 62
     3
100
AcDbCircle
 10
78.3663863480216
 20
503.384949907624
 30
0.0
 40
3.799999999999854
100
AcDbArc
 50
5.26040286123412
 51
54.66549820816815
  0
ARC
  5
25E
330
1F
100
AcDbEntity
  8
1
  6
Continuous
 62
     3
100
AcDbCircle
 10
81.8018559752407
 20
503.70125425545
 30
0.0
 40
0.3499999999999623
100
AcDbArc
 50
185.2604028612705
 51
270.0
  0
ARC
  5
25F
330
1F
100
AcDbEntity
  8
1
  6
Continuous
 62
     3
100
AcDbCircle
 10
81.8018559752407
 20
503.70125425545
 30
0.0
 40
0.3500000000000227
100
AcDbArc
 50
270.0
 51
5.26040286110073
  0
ARC
  5
260
330
1F
100
AcDbEntity
  8
1
  6
Continuous
 62
     3
100
AcDbCircle
 10
78.3663863480216
 20
503.384949907624
 30
0.0
 40
3.800000000000203
100
AcDbArc
 50
125.3345017918268
 51
174.7395971387662
  0
ARC
  5
261
330
1F
100
AcDbEntity
  8
1
  6
Continuous
 62
     3
100
AcDbCircle
 10
78.3663863480216
 20
503.384949907624
 30
0.0
 40
3.099999999999825
100
AcDbArc
 50
5.26040286124507
 51
174.7395971387538
  0
ARC
  5
262
330
1F
100
AcDbEntity
  8
1
  6
Continuous
 62
     3
100
AcDbCircle
 10
74.9309167208022
 20
503.70125425545
 30
0.0
 40
0.3499999999999676
100
AcDbArc
 50
174.7395971388978
 51
270.0
  0
ARC
  5
263
330
1F
100
AcDbEntity
  8
1
  6
Continuous
 62
     3
100
AcDbCircle
 10
74.9309167208022
 20
503.70125425545
 30
0.0
 40
0.3500000000009891
100
AcDbArc
 50
270.0
 51
354.7395971387444
  0
ARC
  5
264
330
1F
100
AcDbEntity
  8
1
  6
Continuous
 62
     3
100
AcDbCircle
 10
82.7663863480196
 20
506.834949907624
 30
0.0
 40
0.3499999999999659
100
AcDbArc
 50
270.0
 51
90.0
  0
ARC
  5
265
330
1F
100
AcDbEntity
  8
1
  6
Continuous
 62
     3
100
AcDbCircle
 10
73.9663863480215
 20
506.834949907624
 30
0.0
 40
0.3499999999989996
100
AcDbArc
 50
90.0
 51
270.0
  0
ARC
  5
266
330
1F
100
AcDbEntity
  8
1
  6
Continuous
 62
     3
100
AcDbCircle
 10
97.3663863480197
 20
506.834949907624
 30
0.0
 40
31.12063384406886
100
AcDbArc
 50
81.74443703468329
 51
82.61522456002074
  0
ARC
  5
267
330
1F
100
AcDbEntity
  8
0
  6
Continuous
 62
     3
100
AcDbCircle
 10
78.6369532873016
 20
349.035169411904
 30
0.0
 40
16.00000000000006
100
AcDbArc
 50
182.0
 51
270.0
  0
ARC
  5
268
330
1F
100
AcDbEntity
  8
0
  6
Continuous
 62
     3
100
AcDbCircle
 10
116.094544906678
 20
349.035169411904
 30
0.0
 40
16.0
100
AcDbArc
 50
270.0
 51
358.0000000000001
  0
ARC
  5
269
330
1F
100
AcDbEntity
  8
5
  6
Continuous
 62
     3
100
AcDbCircle
 10
97.3661730328524
 20
309.870150221419
 30
0.0
 40
7.165019190484477
100
AcDbArc
 50
18.92464441605377
 51
161.0753555839447
  0
ARC
  5
26A
330
1F
100
AcDbEntity
  8
5
  6
Continuous
 62
     3
100
AcDbCircle
 10
97.3661730328524
 20
312.035169411903
 30
0.0
 40
4.999999999999602
100
AcDbArc
 50
0.0
 51
180.0
  0
ARC
  5
26B
330
1F
100
AcDbEntity
  8
5
  6
Continuous
 62
     3
100
AcDbCircle
 10
97.3661730328524
 20
306.285169411903
 30
0.0
 40
4.249999999999602
100
AcDbArc
 50
0.0
 51
180.0
  0
ARC
  5
26C
330
1F
100
AcDbEntity
  8
5
  6
Continuous
 62
     3
100
AcDbCircle
 10
106.616173032852
 20
300.876398594662
 30
0.0
 40
5.0
100
AcDbArc
 50
180.0
 51
255.5224878140694
  0
ARC
  5
26D
330
1F
100
AcDbEntity
  8
5
  6
Continuous
 62
     3
100
AcDbCircle
 10
88.1161730328524
 20
300.876398594662
 30
0.0
 40
4.999999999999773
100
AcDbArc
 50
284.4775121859306
 51
0.0
  0
ARC
  5
26E
330
1F
100
AcDbEntity
  8
1
  6
Continuous
 62
     3
100
AcDbCircle
 10
97.3661730328524
 20
306.535169411903
 30
0.0
 40
4.849999999999847
100
AcDbArc
 50
331.1978568940737
 51
0.0
  0
ARC
  5
26F
330
1F
100
AcDbEntity
  8
1
  6
Continuous
 62
     3
100
AcDbCircle
 10
97.3661730328524
 20
306.535169411903
 30
0.0
 40
4.849999999999596
100
AcDbArc
 50
0.0
 51
208.8021431059269
  0
ARC
  5
270
330
1F
100
AcDbEntity
  8
1
  6
Continuous
 62
     3
100
AcDbCircle
 10
102.349017420254
 20
329.035169411904
 30
0.0
 40
0.5
100
AcDbArc
 50
90.0
 51
178.0000000000267
  0
ARC
  5
271
330
1F
100
AcDbEntity
  8
1
  6
Continuous
 62
     3
100
AcDbCircle
 10
92.3833286454482
 20
329.035169411904
 30
0.0
 40
0.4999999999999429
100
AcDbArc
 50
1.99999999997129
 51
90.0
  0
ARC
  5
272
330
1F
100
AcDbEntity
  8
1
  6
Continuous
 62
     3
100
AcDbCircle
 10
100.366386348022
 20
497.334949907625
 30
0.0
 40
1.0
100
AcDbArc
 50
0.0
 51
90.0
  0
ARC
  5
273
330
1F
100
AcDbEntity
  8
1
  6
Continuous
 62
     3
100
AcDbCircle
 10
100.366386348022
 20
516.334949907622
 30
0.0
 40
1.0
100
AcDbArc
 50
270.0
 51
0.0
  0
ARC
  5
274
330
1F
100
AcDbEntity
  8
1
  6
Continuous
 62
     3
100
AcDbCircle
 10
133.209669468234
 20
352.035169411904
 30
0.0
 40
1.0
100
AcDbArc
 50
90.0
 51
177.9999999999701
  0
ARC
  5
275
330
1F
100
AcDbEntity
  8
1
  6
Continuous
 62
     3
100
AcDbCircle
 10
61.5218287257463
 20
352.035169411904
 30
0.0
 40
1.000000000000021
100
AcDbArc
 50
2.00000000002968
 51
90.0
  0
ARC
  5
276
330
1F
100
AcDbEntity
  8
1
  6
Continuous
 62
     3
100
AcDbCircle
 10
151.365746402516
 20
353.368511861508
 30
0.0
 40
1.0
100
AcDbArc
 50
0.0
 51
67.37941183127607
  0
ARC
  5
277
330
1F
100
AcDbEntity
  8
1
  6
Continuous
 62
     3
100
AcDbCircle
 10
145.765940026431
 20
353.535169411904
 30
0.0
 40
3.000000000000208
100
AcDbArc
 50
67.3794118313002
 51
90.0
  0
ARC
  5
278
330
1F
100
AcDbEntity
  8
1
  6
Continuous
 62
     3
100
AcDbCircle
 10
43.3657517914642
 20
353.522352342205
 30
0.0
 40
1.000000000000252
100
AcDbArc
 50
125.7009490018296
 51
180.0
  0
ARC
  5
279
330
1F
100
AcDbEntity
  8
1
  6
Continuous
 62
     3
100
AcDbCircle
 10
46.8108590594795
 20
353.535169411904
 30
0.0
 40
3.0
100
AcDbArc
 50
90.0
 51
125.700949001841
  0
ARC
  5
27A
330
1F
100
AcDbEntity
  8
1
  6
Continuous
 62
     3
100
AcDbCircle
 10
110.806784608956
 20
-167.433726416063
 30
0.0
 40
1.78907592389693
100
AcDbArc
 50
333.3686297782027
 51
27.24063033432958
  0
ARC
  5
27B
330
1F
100
AcDbEntity
  8
1
  6
Continuous
 62
     3
100
AcDbCircle
 10
105.908467924022
 20
-170.464815329309
 30
0.0
 40
6.687392608830579
100
AcDbArc
 50
346.3165513606389
 51
13.68344863936112
  0
ARC
  5
27C
330
1F
100
AcDbEntity
  8
1
  6
Continuous
 62
     3
100
AcDbCircle
 10
110.806784608956
 20
-173.495904242555
 30
0.0
 40
1.789075923896304
100
AcDbArc
 50
332.7593696656704
 51
26.63137022176966
  0
ARC
  5
27D
330
1F
100
AcDbEntity
  8
1
  6
Continuous
 62
     3
100
AcDbCircle
 10
111.584936456749
 20
-173.495904242555
 30
0.0
 40
1.789075923896497
100
AcDbArc
 50
153.3686297782303
 51
207.2406303343296
  0
ARC
  5
27E
330
1F
100
AcDbEntity
  8
1
  6
Continuous
 62
     3
100
AcDbCircle
 10
116.483253141683
 20
-170.464815329309
 30
0.0
 40
6.687392608830579
100
AcDbArc
 50
166.3165513606389
 51
193.6834486393611
  0
ARC
  5
27F
330
1F
100
AcDbEntity
  8
1
  6
Continuous
 62
     3
100
AcDbCircle
 10
111.584936456749
 20
-167.433726416063
 30
0.0
 40
1.789075923896304
100
AcDbArc
 50
152.7593696656704
 51
206.6313702217973
  0
ARC
  5
280
330
1F
100
AcDbEntity
  8
2
  6
Continuous
 62
     3
100
AcDbCircle
 10
86.8429186271464
 20
-147.964824964266
 30
0.0
 40
1.5
100
AcDbArc
 50
90.0
 51
179.1048262897816
  0
ARC
  5
281
330
1F
100
AcDbEntity
  8
2
  6
Continuous
 62
     3
100
AcDbCircle
 10
107.889427438558
 20
-147.964824964266
 30
0.0
 40
1.499999999999959
100
AcDbArc
 50
0.89517371021843
 51
90.0
  0
CIRCLE
  5
282
330
1F
100
AcDbEntity
  8
1
  6
Continuous
 62
     3
100
AcDbCircle
 10
54.3663863480383
 20
506.83494990774
 30
0.0
 40
3.800000000000104
  0
CIRCLE
  5
283
330
1F
100
AcDbEntity
  8
1
  6
Continuous
 62
     3
100
AcDbCircle
 10
97.3663863481363
 20
549.834949907605
 30
0.0
 40
3.799999999999699
  0
CIRCLE
  5
284
330
1F
100
AcDbEntity
  8
1
  6
Continuous
 62
     3
100
AcDbCircle
 10
140.366386348001
 20
506.834949907507
 30
0.0
 40
3.800000000000011
  0
CIRCLE
  5
285
330
1F
100
AcDbEntity
  8
1
  6
Continuous
 62
     3
100
AcDbCircle
 10
97.3663863479031
 20
463.834949907642
 30
0.0
 40
3.799999999999898
  0
CIRCLE
  5
286
330
1F
100
AcDbEntity
  8
1
  6
Continuous
 62
     3
100
AcDbCircle
 10
78.3663863480216
 20
506.834949907624
 30
0.0
 40
5.299999999999898
  0
CIRCLE
  5
287
330
1F
100
AcDbEntity
  8
1
  6
Continuous
 62
     3
100
AcDbCircle
 10
78.3663863480216
 20
506.834949907624
 30
0.0
 40
6.0
  0
CIRCLE
  5
288
330
1F
100
AcDbEntity
  8
1
  6
Continuous
 62
     3
100
AcDbCircle
 10
97.3663863479031
 20
463.834949907642
 30
0.0
 40
4.249999999999901
  0
CIRCLE
  5
289
330
1F
100
AcDbEntity
  8
1
  6
Continuous
 62
     3
100
AcDbCircle
 10
54.3663863479215
 20
506.834949907759
 30
0.0
 40
4.25
  0
CIRCLE
  5
28A
330
1F
100
AcDbEntity
  8
1
  6
Continuous
 62
     3
100
AcDbCircle
 10
97.3663863481363
 20
549.834949907605
 30
0.0
 40
4.249999999901704
  0
CIRCLE
  5
28B
330
1F
100
AcDbEntity
  8
1
  6
Continuous
 62
     3
100
AcDbCircle
 10
140.366386348001
 20
506.834949907507
 30
0.0
 40
4.250000000019014
  0
CIRCLE
  5
28C
330
1F
100
AcDbEntity
  8
1
  6
Continuous
 62
     3
100
AcDbCircle
 10
97.3663863480197
 20
506.834949907624
 30
0.0
 40
54.9999999925643
  0
CIRCLE
  5
28D
330
1F
100
AcDbEntity
  8
0
  6
Continuous
 62
     3
100
AcDbCircle
 10
97.3663863480197
 20
506.834949907624
 30
0.0
 40
31.96629794778831
  0
CIRCLE
  5
28E
330
1F
100
AcDbEntity
  8
5
  6
Continuous
 62
     3
100
AcDbCircle
 10
97.3661730328524
 20
306.535169411903
 30
0.0
 40
1.75
  0
CIRCLE
  5
28F
330
1F
100
AcDbEntity
  8
5
  6
Continuous
 62
     3
100
AcDbCircle
 10
97.3661730328524
 20
306.535169411903
 30
0.0
 40
2.25
  0
CIRCLE
  5
290
330
1F
100
AcDbEntity
  8
5
  6
Continuous
 62
     3
100
AcDbCircle
 10
97.3661730328525
 20
-117.964830588097
 30
0.0
 40
1.0
  0
CIRCLE
  5
291
330
1F
100
AcDbEntity
  8
5
  6
Continuous
 62
     3
100
AcDbCircle
 10
97.3661730328525
 20
-117.964830588097
 30
0.0
 40
1.5
  0
SPLINE
  5
292
330
1F
100
AcDbEntity
  8
0
  6
Continuous
 62
     3
100
AcDbSpline
210
0.0
220
0.0
230
1.0
 70
     8
 71
     3
 72
    35
 73
    31
 74
    29
 42
0.0000000001
 43
0.0000000001
 44
0.00000001
 40
0.0
 40
0.0
 40
0.0
 40
0.0
 40
0.1317517372398809
 40
0.2635034398931475
 40
0.2884941143048113
 40
0.3134825517666853
 40
0.3384679151898011
 40
0.3634534664188662
 40
0.3819838380687085
 40
0.4005137483027872
 40
0.4190453650725886
 40
0.4375775609969062
 40
0.4697416769172819
 40
0.5019073520498807
 40
0.5340768471560021
 40
0.5662453880946281
 40
0.5940766023946338
 40
0.6219077023400144
 40
0.6497354985006573
 40
0.6775629313157985
 40
0.7005609572523841
 40
0.7235587953938112
 40
0.7465553134046875
 40
0.7695515148555667
 40
0.7869228392327786
 40
0.8042940691999354
 40
0.8216633392272901
 40
0.8390323478701602
 40
0.8534674997482452
 40
0.8679026516257073
 40
0.8679026516257073
 40
0.8679026516257073
 40
0.8679026516257073
 10
102.530839194256
 20
475.898625133552
 30
0.0
 10
102.4872273671349
 20
475.8929752084339
 30
0.0
 10
102.4000037243412
 20
475.8816753596809
 30
0.0
 10
102.3034276500758
 20
475.8854347294101
 30
0.0
 10
102.2432110787172
 20
475.8919497391434
 30
0.0
 10
102.2184411340938
 20
475.8952781729638
 30
0.0
 10
102.1937656364306
 20
475.8992211228641
 30
0.0
 10
102.1713134292631
 20
475.9033926440089
 30
0.0
 10
102.1510665915349
 20
475.9076180863337
 30
0.0
 10
102.1329996842193
 20
475.911742597882
 30
0.0
 10
102.1150120883397
 20
475.9162028628796
 30
0.0
 10
102.0927201003407
 20
475.9221711597885
 30
0.0
 10
102.0662230934222
 20
475.929987217528
 30
0.0
 10
102.0356734724853
 20
475.9400742712911
 30
0.0
 10
102.0054623747605
 20
475.9511386721215
 30
0.0
 10
101.9769642097582
 20
475.9626321653267
 30
0.0
 10
101.9501527448004
 20
475.9744009407265
 30
0.0
 10
101.9249897130493
 20
475.9862978782685
 30
0.0
 10
101.9001706070219
 20
475.9988936161729
 30
0.0
 10
101.8771290159199
 20
476.0114092203114
 30
0.0
 10
101.8558103372946
 20
476.0237039317658
 30
0.0
 10
101.8361585327347
 20
476.0356532576879
 30
0.0
 10
101.8167910378035
 20
476.0480568910365
 30
0.0
 10
101.7992746108355
 20
476.0598624795906
 30
0.0
 10
101.7835396867137
 20
476.0709470323117
 30
0.0
 10
101.7695175233618
 20
476.0812012019477
 30
0.0
 10
101.755677446691
 20
476.0916986391052
 30
0.0
 10
101.7427955719169
 20
476.1018352060705
 30
0.0
 10
101.7308252890646
 20
476.1115460605001
 30
0.0
 10
101.7234649489381
 20
476.1177459988888
 30
0.0
 10
101.719784778875
 20
476.120845968083
 30
0.0
 11
102.530839194256
 21
475.898625133552
 31
0.0
 11
102.3997570698358
 21
475.8853587503523
 31
0.0
 11
102.268065927204
 21
475.8893530092801
 31
0.0
 11
102.2432219327688
 21
475.8920566638537
 31
0.0
 11
102.2184555795669
 21
475.8953807811596
 31
0.0
 11
102.1937834596771
 21
475.8993247494057
 31
0.0
 11
102.1692183541852
 21
475.9038891072353
 31
0.0
 11
102.1510787539795
 21
475.9076745501234
 31
0.0
 11
102.1330135546448
 21
475.9117984010275
 31
0.0
 11
102.1150265990097
 21
475.9162582493526
 31
0.0
 11
102.0971248423542
 21
475.921050888962
 31
0.0
 11
102.0662749575582
 21
475.9301511615409
 31
0.0
 11
102.0357313285321
 21
475.9402366651304
 31
0.0
 11
102.0055242040649
 21
475.9513003917541
 31
0.0
 11
101.9756909392185
 21
475.9633333188597
 31
0.0
 11
101.9502066067294
 21
475.9745192603486
 31
0.0
 11
101.9250458564895
 21
475.9864149222275
 31
0.0
 11
101.9002307736952
 21
475.9990084882463
 31
0.0
 11
101.8757777929996
 21
476.0122907227037
 31
0.0
 11
101.8558555849186
 21
476.0237804930303
 31
0.0
 11
101.8362054584168
 21
476.0357292623244
 31
0.0
 11
101.8168402265958
 21
476.0481319893287
 31
0.0
 11
101.7977710406354
 21
476.0609846710713
 31
0.0
 11
101.7835695478775
 21
476.0709886959646
 31
0.0
 11
101.7695472440455
 21
476.0812422136934
 31
0.0
 11
101.7557088836156
 21
476.0917394191261
 31
0.0
 11
101.7420563190595
 21
476.102476734539
 31
0.0
 11
101.7308536666248
 21
476.1115802606785
 31
0.0
 11
101.719784778875
 21
476.120845968083
 31
0.0
  0
SPLINE
  5
293
330
1F
100
AcDbEntity
  8
0
  6
Continuous
 62
     3
100
AcDbSpline
210
0.0
220
0.0
230
1.0
 70
     8
 71
     3
 72
    27
 73
    23
 74
    21
 42
0.0000000001
 43
0.0000000001
 44
0.00000001
 40
0.0
 40
0.0
 40
0.0
 40
0.0
 40
0.1432697880737826
 40
0.2865395899309958
 40
0.3245689285776861
 40
0.3625937724864847
 40
0.4006239840372662
 40
0.4386556732086918
 40
0.4799194189782702
 40
0.5211839297693887
 40
0.5624466833341528
 40
0.6037077788985687
 40
0.637187838157058
 40
0.670667377386743
 40
0.7041409343725692
 40
0.7376134296798806
 40
0.7617827489434386
 40
0.7859517474549553
 40
0.8101150129612166
 40
0.8342774635902439
 40
0.8514992878943489
 40
0.8687211121987327
 40
0.8687211121987327
 40
0.8687211121987327
 40
0.8687211121987327
 10
101.366173032852
 20
536.78492518864
 30
0.0
 10
101.3681447524689
 20
536.8327174750513
 30
0.0
 10
101.3720881918923
 20
536.9283020524714
 30
0.0
 10
101.3961882510374
 20
537.0344245318306
 30
0.0
 10
101.4180567591591
 20
537.1041736817983
 30
0.0
 10
101.4308469159602
 20
537.1400006630353
 30
0.0
 10
101.4449742112462
 20
537.1753166552837
 30
0.0
 10
101.4608734364371
 20
537.2110580514541
 30
0.0
 10
101.4786541984059
 20
537.2471098177915
 30
0.0
 10
101.4984185684535
 20
537.283345430694
 30
0.0
 10
101.5196532964019
 20
537.3187382584272
 30
0.0
 10
101.5408984920671
 20
537.3510604844728
 30
0.0
 10
101.5618266522346
 20
537.3804505963169
 30
0.0
 10
101.5821510814192
 20
537.4070607655947
 30
0.0
 10
101.6033551244264
 20
537.4329720026437
 30
0.0
 10
101.6233741099112
 20
537.4558205040887
 30
0.0
 10
101.641936476193
 20
537.4758016145871
 30
0.0
 10
101.6588146259739
 20
537.4931018307714
 30
0.0
 10
101.6761066917573
 20
537.5099851918366
 30
0.0
 10
101.6921156076246
 20
537.524857572163
 30
0.0
 10
101.7066882504746
 20
537.5378700245907
 30
0.0
 10
101.7154194151629
 20
537.5453260298056
 30
0.0
 10
101.719784997507
 20
537.549054032413
 30
0.0
 11
101.366173032852
 21
536.78492518864
 31
0.0
 11
101.3764214027093
 21
536.9278279635955
 31
0.0
 11
101.4068847051925
 21
537.0678216181875
 31
0.0
 11
101.4182930538846
 21
537.1040994375545
 31
0.0
 11
101.4310690871052
 21
537.1399137046758
 31
0.0
 11
101.4451962006209
 21
537.1752226504872
 31
0.0
 11
101.4606538122152
 21
537.2099713429091
 31
0.0
 11
101.4789052628972
 21
537.2469791969801
 31
0.0
 11
101.4986639946449
 21
537.2832056013083
 31
0.0
 11
101.5198929401446
 21
537.3185884602193
 31
0.0
 11
101.5425568231555
 21
537.353067822366
 31
0.0
 11
101.5619771403253
 21
537.380339889559
 31
0.0
 11
101.5822991816248
 21
537.4069461704801
 31
0.0
 11
101.6034987594527
 21
537.4328509367829
 31
0.0
 11
101.62555774221
 21
537.458026504737
 31
0.0
 11
101.6420078873857
 21
537.4757338116289
 31
0.0
 11
101.6588852330477
 21
537.4930339761498
 31
0.0
 11
101.6761758132622
 21
537.5099129345233
 31
0.0
 11
101.6938731020735
 21
537.526363770038
 31
0.0
 11
101.7067299036245
 21
537.5378221244678
 31
0.0
 11
101.719784997507
 21
537.549054032413
 31
0.0
  0
SPLINE
  5
294
330
1F
100
AcDbEntity
  8
0
  6
Continuous
 62
     3
100
AcDbSpline
210
0.0
220
0.0
230
1.0
 70
     8
 71
     3
 72
    11
 73
     7
 74
     5
 42
0.0000000001
 43
0.0000000001
 44
0.00000001
 40
0.0
 40
0.0
 40
0.0
 40
0.0
 40
0.2165274442126924
 40
0.4330548889805734
 40
0.6496740071151125
 40
0.866292123440787
 40
0.866292123440787
 40
0.866292123440787
 40
0.866292123440787
 10
101.719784997507
 20
537.549054032413
 30
0.0
 10
101.7779588411631
 20
537.5923069198191
 30
0.0
 10
101.8943065286244
 20
537.6788126947422
 30
0.0
 10
102.0988917877251
 20
537.7563542525562
 30
0.0
 10
102.3144573158097
 20
537.7939280664823
 30
0.0
 10
102.4587120126311
 20
537.7788257983174
 30
0.0
 10
102.530839194256
 20
537.771274681696
 30
0.0
 11
101.719784997507
 21
537.549054032413
 31
0.0
 11
101.8993123383736
 21
537.6701080202806
 31
0.0
 11
102.1006873069202
 21
537.7496834962801
 31
0.0
 11
102.3145886937465
 21
537.7838893299225
 31
0.0
 11
102.530839194256
 21
537.771274681696
 31
0.0
  0
LWPOLYLINE
  5
295
330
1F
100
AcDbEntity
  8
5
  6
LONG_DASHED
 62
     3
100
AcDbPolyline
 90
       15
 70
     0
 43
0.0
 10
101.866173032852
 20
62.6146705269426
 10
100.570624473507
 20
65.7295911324506
 10
99.9895507104864
 20
66.8960495765096
 10
99.4306285508424
 20
67.8493127686636
 10
98.8840622406825
 20
68.6023684207676
 10
98.3577116840165
 20
69.1404191042406
 10
97.8516468516464
 20
69.4633889548816
 10
97.3661730328524
 20
69.5710677967646
 10
96.8806992140584
 20
69.4633889548816
 10
96.3746343816884
 20
69.1404191042416
 10
95.8482838250234
 20
68.6023684207676
 10
95.3017175148635
 20
67.8493127686646
 10
94.7427953552195
 20
66.8960495765106
 10
94.1617215921984
 20
65.7295911324516
 10
92.8661730328524
 20
62.6146705269426
  0
LWPOLYLINE
  5
296
330
1F
100
AcDbEntity
  8
3
  6
Continuous
 62
     3
100
AcDbPolyline
 90
        8
 70
     0
 43
0.0
 10
86.5665471123737
 20
-159.464830588097
 10
86.6337990655484
 20
-160.147158738787
 10
86.8001584294797
 20
-160.611487024221
 10
87.0781781364782
 20
-160.894305853291
 10
87.4666780962407
 20
-160.988640111907
 10
88.003786780581
 20
-160.894305853291
 10
88.7273428822224
 20
-160.611487024221
 10
90.7673303027955
 20
-159.464830588097
  0
LWPOLYLINE
  5
297
330
1F
100
AcDbEntity
  8
3
  6
Continuous
 62
     3
100
AcDbPolyline
 90
        8
 70
     0
 43
0.0
 10
108.165798953331
 20
-159.464830588097
 10
108.098547000157
 20
-160.147158738787
 10
107.932187636225
 20
-160.611487024221
 10
107.654167929227
 20
-160.894305853291
 10
107.265667969464
 20
-160.988640111907
 10
106.728559285124
 20
-160.894305853291
 10
106.005003183483
 20
-160.611487024221
 10
103.965015762909
 20
-159.464830588097
  0
ENDSEC
  0
SECTION
  2
OBJECTS
  0
DICTIONARY
  5
C
330
0
100
AcDbDictionary
281
     1
  3
ACAD_GROUP
350
D
  3
ACAD_LAYOUT
350
1A
  3
ACAD_MATERIAL
350
3B
  3
ACAD_MLEADERSTYLE
350
29A
  3
ACAD_MLINESTYLE
350
17
  3
ACAD_PLOTSETTINGS
350
19
  3
ACAD_PLOTSTYLENAME
350
E
  3
ACAD_VISUALSTYLE
350
2A
  3
AcDbVariableDictionary
350
298
  0
DICTIONARY
  5
D
102
{ACAD_REACTORS
330
C
102
}
330
C
100
AcDbDictionary
281
     1
  0
DICTIONARY
  5
1A
102
{ACAD_REACTORS
330
C
102
}
330
C
100
AcDbDictionary
281
     1
  3
Layout1
350
1E
  3
Layout2
350
26
  3
Model
350
22
  0
DICTIONARY
  5
3B
102
{ACAD_REACTORS
330
C
102
}
330
C
100
AcDbDictionary
281
     1
  3
ByBlock
350
3D
  3
ByLayer
350
3C
  3
Global
350
3E
  0
DICTIONARY
  5
29A
102
{ACAD_REACTORS
330
C
102
}
330
C
100
AcDbDictionary
281
     1
  0
DICTIONARY
  5
17
102
{ACAD_REACTORS
330
C
102
}
330
C
100
AcDbDictionary
281
     1
  3
Standard
350
18
  0
DICTIONARY
  5
19
102
{ACAD_REACTORS
330
C
102
}
330
C
100
AcDbDictionary
281
     1
  0
ACDBDICTIONARYWDFLT
  5
E
102
{ACAD_REACTORS
330
C
102
}
330
C
100
AcDbDictionary
281
     1
  3
Normal
350
F
100
AcDbDictionaryWithDefault
340
F
  0
DICTIONARY
  5
2A
102
{ACAD_REACTORS
330
C
102
}
330
C
100
AcDbDictionary
281
     1
  3
2dWireframe
350
2F
  3
3D Hidden
350
31
  3
3dWireframe
350
30
  3
Basic
350
32
  3
Brighten
350
36
  3
ColorChange
350
3A
  3
Conceptual
350
34
  3
Dim
350
35
  3
Facepattern
350
39
  3
Flat
350
2B
  3
FlatWithEdges
350
2C
  3
Gouraud
350
2D
  3
GouraudWithEdges
350
2E
  3
Linepattern
350
38
  3
Realistic
350
33
  3
Thicken
350
37
  0
DICTIONARY
  5
298
102
{ACAD_REACTORS
330
C
102
}
330
C
100
AcDbDictionary
281
     1
  3
DIMASSOC
350
29B
  3
HIDETEXT
350
29C
  0
LAYOUT
  5
1E
102
{ACAD_REACTORS
330
1A
102
}
330
1A
100
AcDbPlotSettings
  1

  2
none_device
  4

  6

 40
0.0
 41
0.0
 42
0.0
 43
0.0
 44
0.0
 45
0.0
 46
0.0
 47
0.0
 48
0.0
 49
0.0
140
0.0
141
0.0
142
1.0
143
1.0
 70
   688
 72
     0
 73
     0
 74
     5
  7

 75
    16
147
1.0
148
0.0
149
0.0
100
AcDbLayout
  1
Layout1
 70
     1
 71
     1
 10
0.0
 20
0.0
 11
12.0
 21
9.0
 12
0.0
 22
0.0
 32
0.0
 14
1.00000000000000E+20
 24
1.00000000000000E+20
 34
1.00000000000000E+20
 15
-1.00000000000000E+20
 25
-1.00000000000000E+20
 35
-1.00000000000000E+20
146
0.0
 13
0.0
 23
0.0
 33
0.0
 16
1.0
 26
0.0
 36
0.0
 17
0.0
 27
1.0
 37
0.0
 76
     0
330
1B
  0
LAYOUT
  5
26
102
{ACAD_REACTORS
330
1A
102
}
330
1A
100
AcDbPlotSettings
  1

  2
none_device
  4

  6

 40
0.0
 41
0.0
 42
0.0
 43
0.0
 44
0.0
 45
0.0
 46
0.0
 47
0.0
 48
0.0
 49
0.0
140
0.0
141
0.0
142
1.0
143
1.0
 70
   688
 72
     0
 73
     0
 74
     5
  7

 75
    16
147
1.0
148
0.0
149
0.0
100
AcDbLayout
  1
Layout2
 70
     1
 71
     2
 10
0.0
 20
0.0
 11
0.0
 21
0.0
 12
0.0
 22
0.0
 32
0.0
 14
0.0
 24
0.0
 34
0.0
 15
0.0
 25
0.0
 35
0.0
146
0.0
 13
0.0
 23
0.0
 33
0.0
 16
1.0
 26
0.0
 36
0.0
 17
0.0
 27
1.0
 37
0.0
 76
     0
330
23
  0
LAYOUT
  5
22
102
{ACAD_REACTORS
330
1A
102
}
330
1A
100
AcDbPlotSettings
  1

  2
none_device
  4

  6

 40
0.0
 41
0.0
 42
0.0
 43
0.0
 44
0.0
 45
0.0
 46
0.0
 47
0.0
 48
0.0
 49
0.0
140
0.0
141
0.0
142
1.0
143
1.0
 70
  1712
 72
     0
 73
     0
 74
     0
  7

 75
     0
147
1.0
148
0.0
149
0.0
100
AcDbLayout
  1
Model
 70
     1
 71
     0
 10
0.0
 20
0.0
 11
12.0
 21
9.0
 12
0.0
 22
0.0
 32
0.0
 14
34.0624551644257
 24
-186.797763454545
 34
0.0
 15
240.345855479367
 25
587.050097172737
 35
0.0
146
0.0
 13
0.0
 23
0.0
 33
0.0
 16
1.0
 26
0.0
 36
0.0
 17
0.0
 27
1.0
 37
0.0
 76
     0
330
1F
331
29
  0
MATERIAL
  5
3D
102
{ACAD_REACTORS
330
3B
102
}
102
{ACAD_XDICTIONARY
360
2BF
102
}
330
3B
100
AcDbMaterial
  1
ByBlock
  0
MATERIAL
  5
3C
102
{ACAD_REACTORS
330
3B
102
}
102
{ACAD_XDICTIONARY
360
2BD
102
}
330
3B
100
AcDbMaterial
  1
ByLayer
  0
MATERIAL
  5
3E
102
{ACAD_REACTORS
330
3B
102
}
102
{ACAD_XDICTIONARY
360
2C1
102
}
330
3B
100
AcDbMaterial
  1
Global
  0
MLINESTYLE
  5
18
102
{ACAD_REACTORS
330
17
102
}
330
17
100
AcDbMlineStyle
  2
Standard
 70
     0
  3

 62
   256
 51
90.0
 52
90.0
 71
     2
 49
0.5
 62
   256
  6
BYLAYER
 49
-0.5
 62
   256
  6
BYLAYER
  0
ACDBPLACEHOLDER
  5
F
102
{ACAD_REACTORS
330
E
102
}
330
E
  0
VISUALSTYLE
  5
2F
102
{ACAD_REACTORS
330
2A
102
}
102
{ACAD_XDICTIONARY
360
2A5
102
}
330
2A
100
AcDbVisualStyle
  2
2dWireframe
 70
     4
 71
     0
 72
     2
 73
     0
 90
        0
 40
-0.6
 41
-30.0
 62
     5
 63
     7
 74
     1
 91
        4
 64
     7
 65
   257
 75
     1
175
     1
 42
1.0
 92
        0
 66
   257
 43
1.0
 76
     1
 77
     6
 78
     2
 67
     7
 79
     5
170
     0
171
     0
290
     0
174
     0
 93
        1
 44
0.0
173
     0
291
     0
 45
0.0
1001
ACAD
1000
AcDbSavedByObjectVersion
1070
     0
  0
VISUALSTYLE
  5
31
102
{ACAD_REACTORS
330
2A
102
}
102
{ACAD_XDICTIONARY
360
2A9
102
}
330
2A
100
AcDbVisualStyle
  2
3D Hidden
 70
     6
 71
     1
 72
     2
 73
     2
 90
        0
 40
-0.6
 41
-30.0
 62
     5
 63
     7
 74
     2
 91
        2
 64
     7
 65
   257
 75
     2
175
     1
 42
40.0
 92
        0
 66
   257
 43
1.0
 76
     1
 77
     6
 78
     2
 67
     7
 79
     3
170
     0
171
     0
290
     0
174
     0
 93
        1
 44
0.0
173
     0
291
     0
 45
0.0
1001
ACAD
1000
AcDbSavedByObjectVersion
1070
     0
  0
VISUALSTYLE
  5
30
102
{ACAD_REACTORS
330
2A
102
}
102
{ACAD_XDICTIONARY
360
2A7
102
}
330
2A
100
AcDbVisualStyle
  2
3dWireframe
 70
     5
 71
     0
 72
     2
 73
     0
 90
        0
 40
-0.6
 41
-30.0
 62
     5
 63
     7
 74
     1
 91
        4
 64
     7
 65
   257
 75
     1
175
     1
 42
1.0
 92
        0
 66
   257
 43
1.0
 76
     1
 77
     6
 78
     2
 67
     7
 79
     5
170
     0
171
     0
290
     0
174
     0
 93
        1
 44
0.0
173
     0
291
     0
 45
0.0
1001
ACAD
1000
AcDbSavedByObjectVersion
1070
     0
  0
VISUALSTYLE
  5
32
102
{ACAD_REACTORS
330
2A
102
}
102
{ACAD_XDICTIONARY
360
2AB
102
}
330
2A
100
AcDbVisualStyle
  2
Basic
 70
     7
 71
     1
 72
     0
 73
     1
 90
        0
 40
-0.6
 41
-30.0
 62
     5
 63
     7
 74
     0
 91
        4
 64
     7
 65
   257
 75
     1
175
     1
 42
1.0
 92
        8
 66
     7
 43
1.0
 76
     1
 77
     6
 78
     2
 67
     7
 79
     5
170
     0
171
     0
290
     0
174
     0
 93
        1
 44
0.0
173
     0
291
     1
 45
0.0
1001
ACAD
1000
AcDbSavedByObjectVersion
1070
     0
  0
VISUALSTYLE
  5
36
102
{ACAD_REACTORS
330
2A
102
}
102
{ACAD_XDICTIONARY
360
2B3
102
}
330
2A
100
AcDbVisualStyle
  2
Brighten
 70
    12
 71
     2
 72
     2
 73
     0
 90
        0
 40
-0.6
 41
-30.0
 62
     5
 63
     7
 74
     1
 91
        4
 64
     7
 65
   257
 75
     1
175
     1
 42
1.0
 92
        8
 66
     7
 43
1.0
 76
     1
 77
     6
 78
     2
 67
     7
 79
     5
170
     0
171
     0
290
     0
174
     0
 93
        1
 44
50.0
173
     0
291
     1
 45
0.0
1001
ACAD
1000
AcDbSavedByObjectVersion
1070
     0
  0
VISUALSTYLE
  5
3A
102
{ACAD_REACTORS
330
2A
102
}
102
{ACAD_XDICTIONARY
360
2BB
102
}
330
2A
100
AcDbVisualStyle
  2
ColorChange
 70
    16
 71
     2
 72
     2
 73
     3
 90
        0
 40
-0.6
 41
-30.0
 62
     5
 63
     8
 74
     1
 91
        4
 64
     7
 65
   257
 75
     1
175
     1
 42
1.0
 92
        8
 66
     8
 43
1.0
 76
     1
 77
     6
 78
     2
 67
     7
 79
     5
170
     0
171
     0
290
     0
174
     0
 93
        1
 44
0.0
173
     0
291
     1
 45
0.0
1001
ACAD
1000
AcDbSavedByObjectVersion
1070
     0
  0
VISUALSTYLE
  5
34
102
{ACAD_REACTORS
330
2A
102
}
102
{ACAD_XDICTIONARY
360
2AF
102
}
330
2A
100
AcDbVisualStyle
  2
Conceptual
 70
     9
 71
     3
 72
     2
 73
     0
 90
        0
 40
-0.6
 41
-30.0
 62
     5
 63
     7
 74
     2
 91
        2
 64
     7
 65
   257
 75
     1
175
     1
 42
40.0
 92
        8
 66
     7
 43
1.0
 76
     1
 77
     6
 78
     2
 67
     7
 79
     3
170
     0
171
     0
290
     0
174
     0
 93
        1
 44
0.0
173
     0
291
     0
 45
0.0
1001
ACAD
1000
AcDbSavedByObjectVersion
1070
     0
  0
VISUALSTYLE
  5
35
102
{ACAD_REACTORS
330
2A
102
}
102
{ACAD_XDICTIONARY
360
2B1
102
}
330
2A
100
AcDbVisualStyle
  2
Dim
 70
    11
 71
     2
 72
     2
 73
     0
 90
        0
 40
-0.6
 41
-30.0
 62
     5
 63
     7
 74
     1
 91
        4
 64
     7
 65
   257
 75
     1
175
     1
 42
1.0
 92
        8
 66
     7
 43
1.0
 76
     1
 77
     6
 78
     2
 67
     7
 79
     5
170
     0
171
     0
290
     0
174
     0
 93
        1
 44
-50.0
173
     0
291
     1
 45
0.0
1001
ACAD
1000
AcDbSavedByObjectVersion
1070
     0
  0
VISUALSTYLE
  5
39
102
{ACAD_REACTORS
330
2A
102
}
102
{ACAD_XDICTIONARY
360
2B9
102
}
330
2A
100
AcDbVisualStyle
  2
Facepattern
 70
    15
 71
     2
 72
     2
 73
     0
 90
        0
 40
-0.6
 41
-30.0
 62
     5
 63
     7
 74
     1
 91
        4
 64
     7
 65
   257
 75
     1
175
     1
 42
1.0
 92
        8
 66
     7
 43
1.0
 76
     1
 77
     6
 78
     2
 67
     7
 79
     5
170
     0
171
     0
290
     0
174
     0
 93
        1
 44
0.0
173
     0
291
     1
 45
0.0
1001
ACAD
1000
AcDbSavedByObjectVersion
1070
     0
  0
VISUALSTYLE
  5
2B
102
{ACAD_REACTORS
330
2A
102
}
102
{ACAD_XDICTIONARY
360
29D
102
}
330
2A
100
AcDbVisualStyle
  2
Flat
 70
     0
 71
     2
 72
     1
 73
     1
 90
        2
 40
-0.6
 41
30.0
 62
     5
 63
     7
 74
     0
 91
        4
 64
     7
 65
   257
 75
     1
175
     1
 42
1.0
 92
        8
 66
     7
 43
1.0
 76
     1
 77
     6
 78
     2
 67
     7
 79
     5
170
     0
171
     0
290
     0
174
     0
 93
       13
 44
0.0
173
     0
291
     1
 45
0.0
1001
ACAD
1000
AcDbSavedByObjectVersion
1070
     0
  0
VISUALSTYLE
  5
2C
102
{ACAD_REACTORS
330
2A
102
}
102
{ACAD_XDICTIONARY
360
29F
102
}
330
2A
100
AcDbVisualStyle
  2
FlatWithEdges
 70
     1
 71
     2
 72
     1
 73
     1
 90
        2
 40
-0.6
 41
30.0
 62
     5
 63
     7
 74
     1
 91
        4
 64
     7
 65
   257
 75
     1
175
     1
 42
1.0
 92
        0
 66
   257
 43
1.0
 76
     1
 77
     6
 78
     2
 67
     7
 79
     5
170
     0
171
     0
290
     0
174
     0
 93
       13
 44
0.0
173
     0
291
     1
 45
0.0
1001
ACAD
1000
AcDbSavedByObjectVersion
1070
     0
  0
VISUALSTYLE
  5
2D
102
{ACAD_REACTORS
330
2A
102
}
102
{ACAD_XDICTIONARY
360
2A1
102
}
330
2A
100
AcDbVisualStyle
  2
Gouraud
 70
     2
 71
     2
 72
     2
 73
     1
 90
        2
 40
-0.6
 41
30.0
 62
     5
 63
     7
 74
     0
 91
        4
 64
     7
 65
   257
 75
     1
175
     1
 42
1.0
 92
        0
 66
     7
 43
1.0
 76
     1
 77
     6
 78
     2
 67
     7
 79
     5
170
     0
171
     0
290
     0
174
     0
 93
       13
 44
0.0
173
     0
291
     1
 45
0.0
1001
ACAD
1000
AcDbSavedByObjectVersion
1070
     0
  0
VISUALSTYLE
  5
2E
102
{ACAD_REACTORS
330
2A
102
}
102
{ACAD_XDICTIONARY
360
2A3
102
}
330
2A
100
AcDbVisualStyle
  2
GouraudWithEdges
 70
     3
 71
     2
 72
     2
 73
     1
 90
        2
 40
-0.6
 41
30.0
 62
     5
 63
     7
 74
     1
 91
        4
 64
     7
 65
   257
 75
     1
175
     1
 42
1.0
 92
        0
 66
   257
 43
1.0
 76
     1
 77
     6
 78
     2
 67
     7
 79
     5
170
     0
171
     0
290
     0
174
     0
 93
       13
 44
0.0
173
     0
291
     1
 45
0.0
1001
ACAD
1000
AcDbSavedByObjectVersion
1070
     0
  0
VISUALSTYLE
  5
38
102
{ACAD_REACTORS
330
2A
102
}
102
{ACAD_XDICTIONARY
360
2B7
102
}
330
2A
100
AcDbVisualStyle
  2
Linepattern
 70
    14
 71
     2
 72
     2
 73
     0
 90
        0
 40
-0.6
 41
-30.0
 62
     5
 63
     7
 74
     1
 91
        4
 64
     7
 65
   257
 75
     7
175
     7
 42
1.0
 92
        8
 66
     7
 43
1.0
 76
     1
 77
     6
 78
     2
 67
     7
 79
     5
170
     0
171
     0
290
     0
174
     0
 93
        1
 44
0.0
173
     0
291
     1
 45
0.0
1001
ACAD
1000
AcDbSavedByObjectVersion
1070
     0
  0
VISUALSTYLE
  5
33
102
{ACAD_REACTORS
330
2A
102
}
102
{ACAD_XDICTIONARY
360
2AD
102
}
330
2A
100
AcDbVisualStyle
  2
Realistic
 70
     8
 71
     2
 72
     2
 73
     0
 90
        0
 40
-0.6
 41
-30.0
 62
     5
 63
     7
 74
     1
 91
        0
 64
     7
 65
   257
 75
     1
175
     1
 42
1.0
 92
        8
 66
     8
 43
1.0
 76
     1
 77
     6
 78
     2
 67
     7
 79
     5
170
     0
171
     0
290
     0
174
     0
 93
       13
 44
0.0
173
     0
291
     0
 45
0.0
1001
ACAD
1000
AcDbSavedByObjectVersion
1070
     0
  0
VISUALSTYLE
  5
37
102
{ACAD_REACTORS
330
2A
102
}
102
{ACAD_XDICTIONARY
360
2B5
102
}
330
2A
100
AcDbVisualStyle
  2
Thicken
 70
    13
 71
     2
 72
     2
 73
     0
 90
        0
 40
-0.6
 41
-30.0
 62
     5
 63
     7
 74
     1
 91
        4
 64
     7
 65
   257
 75
     1
175
     1
 42
1.0
 92
       12
 66
     7
 43
1.0
 76
     1
 77
     6
 78
     2
 67
     7
 79
     5
170
     0
171
     0
290
     0
174
     0
 93
        1
 44
0.0
173
     0
291
     1
 45
0.0
1001
ACAD
1000
AcDbSavedByObjectVersion
1070
     0
  0
DICTIONARYVAR
  5
29B
102
{ACAD_REACTORS
330
298
102
}
330
298
100
DictionaryVariables
280
     0
  1
2
  0
DICTIONARYVAR
  5
29C
102
{ACAD_REACTORS
330
298
102
}
330
298
100
DictionaryVariables
280
     0
  1
1
  0
DICTIONARY
  5
2BF
330
3D
100
AcDbDictionary
280
     1
281
     1
  3
ACAD_XREC_ROUNDTRIP
360
2C0
  0
DICTIONARY
  5
2BD
330
3C
100
AcDbDictionary
280
     1
281
     1
  3
ACAD_XREC_ROUNDTRIP
360
2BE
  0
DICTIONARY
  5
2C1
330
3E
100
AcDbDictionary
280
     1
281
     1
  3
ACAD_XREC_ROUNDTRIP
360
2C2
  0
DICTIONARY
  5
2A5
330
2F
100
AcDbDictionary
280
     1
281
     1
  3
ACAD_XREC_ROUNDTRIP
360
2A6
  0
DICTIONARY
  5
2A9
330
31
100
AcDbDictionary
280
     1
281
     1
  3
ACAD_XREC_ROUNDTRIP
360
2AA
  0
DICTIONARY
  5
2A7
330
30
100
AcDbDictionary
280
     1
281
     1
  3
ACAD_XREC_ROUNDTRIP
360
2A8
  0
DICTIONARY
  5
2AB
330
32
100
AcDbDictionary
280
     1
281
     1
  3
ACAD_XREC_ROUNDTRIP
360
2AC
  0
DICTIONARY
  5
2B3
330
36
100
AcDbDictionary
280
     1
281
     1
  3
ACAD_XREC_ROUNDTRIP
360
2B4
  0
DICTIONARY
  5
2BB
330
3A
100
AcDbDictionary
280
     1
281
     1
  3
ACAD_XREC_ROUNDTRIP
360
2BC
  0
DICTIONARY
  5
2AF
330
34
100
AcDbDictionary
280
     1
281
     1
  3
ACAD_XREC_ROUNDTRIP
360
2B0
  0
DICTIONARY
  5
2B1
330
35
100
AcDbDictionary
280
     1
281
     1
  3
ACAD_XREC_ROUNDTRIP
360
2B2
  0
DICTIONARY
  5
2B9
330
39
100
AcDbDictionary
280
     1
281
     1
  3
ACAD_XREC_ROUNDTRIP
360
2BA
  0
DICTIONARY
  5
29D
330
2B
100
AcDbDictionary
280
     1
281
     1
  3
ACAD_XREC_ROUNDTRIP
360
29E
  0
DICTIONARY
  5
29F
330
2C
100
AcDbDictionary
280
     1
281
     1
  3
ACAD_XREC_ROUNDTRIP
360
2A0
  0
DICTIONARY
  5
2A1
330
2D
100
AcDbDictionary
280
     1
281
     1
  3
ACAD_XREC_ROUNDTRIP
360
2A2
  0
DICTIONARY
  5
2A3
330
2E
100
AcDbDictionary
280
     1
281
     1
  3
ACAD_XREC_ROUNDTRIP
360
2A4
  0
DICTIONARY
  5
2B7
330
38
100
AcDbDictionary
280
     1
281
     1
  3
ACAD_XREC_ROUNDTRIP
360
2B8
  0
DICTIONARY
  5
2AD
330
33
100
AcDbDictionary
280
     1
281
     1
  3
ACAD_XREC_ROUNDTRIP
360
2AE
  0
DICTIONARY
  5
2B5
330
37
100
AcDbDictionary
280
     1
281
     1
  3
ACAD_XREC_ROUNDTRIP
360
2B6
  0
XRECORD
  5
2C0
102
{ACAD_REACTORS
330
2BF
102
}
330
2BF
100
AcDbXrecord
280
     1
102
MATERIAL
148
0.0
149
0.0
149
0.0
 93
        0
 94
      127
282
     0
 72
     1
 77
     1
171
     1
175
     1
179
     1
273
     0
  0
XRECORD
  5
2BE
102
{ACAD_REACTORS
330
2BD
102
}
330
2BD
100
AcDbXrecord
280
     1
102
MATERIAL
148
0.0
149
0.0
149
0.0
 93
        0
 94
      127
282
     0
 72
     1
 77
     1
171
     1
175
     1
179
     1
273
     0
  0
XRECORD
  5
2C2
102
{ACAD_REACTORS
330
2C1
102
}
330
2C1
100
AcDbXrecord
280
     1
102
MATERIAL
148
0.0
149
0.0
149
0.0
 93
        0
 94
      127
282
     0
 72
     1
 77
     1
171
     1
175
     1
179
     1
273
     0
  0
XRECORD
  5
2A6
102
{ACAD_REACTORS
330
2A5
102
}
330
2A5
100
AcDbXrecord
280
     1
102
RTVSPropertyOp0
 70
     1
102
RTVSPropertyOp1
 70
     1
102
RTVSPropertyOp2
 70
     1
102
RTVSPropertyOp3
 70
     1
102
RTVSPropertyOp4
 70
     1
102
RTVSPropertyOp5
 70
     1
102
RTVSPropertyOp6
 70
     1
102
RTVSPropertyOp7
 70
     1
102
RTVSPropertyOp8
 70
     1
102
RTVSPropertyOp9
 70
     1
102
RTVSPropertyOp10
 70
     1
102
RTVSPropertyOp11
 70
     1
102
RTVSPropertyOp12
 70
     1
102
RTVSPropertyOp13
 70
     1
102
RTVSPropertyOp14
 70
     1
102
RTVSPropertyOp15
 70
     1
102
RTVSPropertyOp16
 70
     1
102
RTVSPropertyOp17
 70
     1
102
RTVSPropertyOp18
 70
     1
102
RTVSPropertyOp19
 70
     1
102
RTVSPropertyOp20
 70
     1
102
RTVSPropertyOp21
 70
     1
102
RTVSPropertyOp22
 70
     1
102
RTVSPropertyOp23
 70
     1
102
RTVSPropertyOp24
 70
     1
102
RTVSPropertyOp25
 70
     1
102
RTVSPropertyOp26
 70
     1
102
RTVSPropertyOp27
 70
     1
  0
XRECORD
  5
2AA
102
{ACAD_REACTORS
330
2A9
102
}
330
2A9
100
AcDbXrecord
280
     1
102
RTVSPropertyOp0
 70
     1
102
RTVSPropertyOp1
 70
     1
102
RTVSPropertyOp2
 70
     1
102
RTVSPropertyOp3
 70
     1
102
RTVSPropertyOp4
 70
     1
102
RTVSPropertyOp5
 70
     1
102
RTVSPropertyOp6
 70
     1
102
RTVSPropertyOp7
 70
     1
102
RTVSPropertyOp8
 70
     1
102
RTVSPropertyOp9
 70
     1
102
RTVSPropertyOp10
 70
     1
102
RTVSPropertyOp11
 70
     1
102
RTVSPropertyOp12
 70
     1
102
RTVSPropertyOp13
 70
     1
102
RTVSPropertyOp14
 70
     1
102
RTVSPropertyOp15
 70
     1
102
RTVSPropertyOp16
 70
     1
102
RTVSPropertyOp17
 70
     1
102
RTVSPropertyOp18
 70
     1
102
RTVSPropertyOp19
 70
     1
102
RTVSPropertyOp20
 70
     1
102
RTVSPropertyOp21
 70
     1
102
RTVSPropertyOp22
 70
     1
102
RTVSPropertyOp23
 70
     1
102
RTVSPropertyOp24
 70
     1
102
RTVSPropertyOp25
 70
     1
102
RTVSPropertyOp26
 70
     1
102
RTVSPropertyOp27
 70
     1
  0
XRECORD
  5
2A8
102
{ACAD_REACTORS
330
2A7
102
}
330
2A7
100
AcDbXrecord
280
     1
102
RTVSPropertyOp0
 70
     1
102
RTVSPropertyOp1
 70
     1
102
RTVSPropertyOp2
 70
     1
102
RTVSPropertyOp3
 70
     1
102
RTVSPropertyOp4
 70
     1
102
RTVSPropertyOp5
 70
     1
102
RTVSPropertyOp6
 70
     1
102
RTVSPropertyOp7
 70
     1
102
RTVSPropertyOp8
 70
     1
102
RTVSPropertyOp9
 70
     1
102
RTVSPropertyOp10
 70
     1
102
RTVSPropertyOp11
 70
     1
102
RTVSPropertyOp12
 70
     1
102
RTVSPropertyOp13
 70
     1
102
RTVSPropertyOp14
 70
     1
102
RTVSPropertyOp15
 70
     1
102
RTVSPropertyOp16
 70
     1
102
RTVSPropertyOp17
 70
     1
102
RTVSPropertyOp18
 70
     1
102
RTVSPropertyOp19
 70
     1
102
RTVSPropertyOp20
 70
     1
102
RTVSPropertyOp21
 70
     1
102
RTVSPropertyOp22
 70
     1
102
RTVSPropertyOp23
 70
     1
102
RTVSPropertyOp24
 70
     1
102
RTVSPropertyOp25
 70
     1
102
RTVSPropertyOp26
 70
     1
102
RTVSPropertyOp27
 70
     1
  0
XRECORD
  5
2AC
102
{ACAD_REACTORS
330
2AB
102
}
330
2AB
100
AcDbXrecord
280
     1
102
RTVSPropertyOp0
 70
     1
102
RTVSPropertyOp1
 70
     1
102
RTVSPropertyOp2
 70
     1
102
RTVSPropertyOp3
 70
     1
102
RTVSPropertyOp4
 70
     1
102
RTVSPropertyOp5
 70
     1
102
RTVSPropertyOp6
 70
     1
102
RTVSPropertyOp7
 70
     1
102
RTVSPropertyOp8
 70
     1
102
RTVSPropertyOp9
 70
     1
102
RTVSPropertyOp10
 70
     1
102
RTVSPropertyOp11
 70
     1
102
RTVSPropertyOp12
 70
     1
102
RTVSPropertyOp13
 70
     1
102
RTVSPropertyOp14
 70
     1
102
RTVSPropertyOp15
 70
     1
102
RTVSPropertyOp16
 70
     1
102
RTVSPropertyOp17
 70
     1
102
RTVSPropertyOp18
 70
     1
102
RTVSPropertyOp19
 70
     1
102
RTVSPropertyOp20
 70
     1
102
RTVSPropertyOp21
 70
     1
102
RTVSPropertyOp22
 70
     1
102
RTVSPropertyOp23
 70
     1
102
RTVSPropertyOp24
 70
     1
102
RTVSPropertyOp25
 70
     1
102
RTVSPropertyOp26
 70
     1
102
RTVSPropertyOp27
 70
     1
  0
XRECORD
  5
2B4
102
{ACAD_REACTORS
330
2B3
102
}
330
2B3
100
AcDbXrecord
280
     1
102
RTVSPropertyOp0
 70
     1
102
RTVSPropertyOp1
 70
     1
102
RTVSPropertyOp2
 70
     1
102
RTVSPropertyOp3
 70
     1
102
RTVSPropertyOp4
 70
     1
102
RTVSPropertyOp5
 70
     1
102
RTVSPropertyOp6
 70
     1
102
RTVSPropertyOp7
 70
     1
102
RTVSPropertyOp8
 70
     1
102
RTVSPropertyOp9
 70
     1
102
RTVSPropertyOp10
 70
     1
102
RTVSPropertyOp11
 70
     1
102
RTVSPropertyOp12
 70
     1
102
RTVSPropertyOp13
 70
     1
102
RTVSPropertyOp14
 70
     1
102
RTVSPropertyOp15
 70
     1
102
RTVSPropertyOp16
 70
     1
102
RTVSPropertyOp17
 70
     1
102
RTVSPropertyOp18
 70
     1
102
RTVSPropertyOp19
 70
     1
102
RTVSPropertyOp20
 70
     1
102
RTVSPropertyOp21
 70
     1
102
RTVSPropertyOp22
 70
     1
102
RTVSPropertyOp23
 70
     1
102
RTVSPropertyOp24
 70
     1
102
RTVSPropertyOp25
 70
     1
102
RTVSPropertyOp26
 70
     1
102
RTVSPropertyOp27
 70
     1
  0
XRECORD
  5
2BC
102
{ACAD_REACTORS
330
2BB
102
}
330
2BB
100
AcDbXrecord
280
     1
102
RTVSPropertyOp0
 70
     1
102
RTVSPropertyOp1
 70
     1
102
RTVSPropertyOp2
 70
     1
102
RTVSPropertyOp3
 70
     1
102
RTVSPropertyOp4
 70
     1
102
RTVSPropertyOp5
 70
     1
102
RTVSPropertyOp6
 70
     1
102
RTVSPropertyOp7
 70
     1
102
RTVSPropertyOp8
 70
     1
102
RTVSPropertyOp9
 70
     1
102
RTVSPropertyOp10
 70
     1
102
RTVSPropertyOp11
 70
     1
102
RTVSPropertyOp12
 70
     1
102
RTVSPropertyOp13
 70
     1
102
RTVSPropertyOp14
 70
     1
102
RTVSPropertyOp15
 70
     1
102
RTVSPropertyOp16
 70
     1
102
RTVSPropertyOp17
 70
     1
102
RTVSPropertyOp18
 70
     1
102
RTVSPropertyOp19
 70
     1
102
RTVSPropertyOp20
 70
     1
102
RTVSPropertyOp21
 70
     1
102
RTVSPropertyOp22
 70
     1
102
RTVSPropertyOp23
 70
     1
102
RTVSPropertyOp24
 70
     1
102
RTVSPropertyOp25
 70
     1
102
RTVSPropertyOp26
 70
     1
102
RTVSPropertyOp27
 70
     1
  0
XRECORD
  5
2B0
102
{ACAD_REACTORS
330
2AF
102
}
330
2AF
100
AcDbXrecord
280
     1
102
RTVSPropertyOp0
 70
     1
102
RTVSPropertyOp1
 70
     1
102
RTVSPropertyOp2
 70
     1
102
RTVSPropertyOp3
 70
     1
102
RTVSPropertyOp4
 70
     1
102
RTVSPropertyOp5
 70
     1
102
RTVSPropertyOp6
 70
     1
102
RTVSPropertyOp7
 70
     1
102
RTVSPropertyOp8
 70
     1
102
RTVSPropertyOp9
 70
     1
102
RTVSPropertyOp10
 70
     1
102
RTVSPropertyOp11
 70
     1
102
RTVSPropertyOp12
 70
     1
102
RTVSPropertyOp13
 70
     1
102
RTVSPropertyOp14
 70
     1
102
RTVSPropertyOp15
 70
     1
102
RTVSPropertyOp16
 70
     1
102
RTVSPropertyOp17
 70
     1
102
RTVSPropertyOp18
 70
     1
102
RTVSPropertyOp19
 70
     1
102
RTVSPropertyOp20
 70
     1
102
RTVSPropertyOp21
 70
     1
102
RTVSPropertyOp22
 70
     1
102
RTVSPropertyOp23
 70
     1
102
RTVSPropertyOp24
 70
     1
102
RTVSPropertyOp25
 70
     1
102
RTVSPropertyOp26
 70
     1
102
RTVSPropertyOp27
 70
     1
  0
XRECORD
  5
2B2
102
{ACAD_REACTORS
330
2B1
102
}
330
2B1
100
AcDbXrecord
280
     1
102
RTVSPropertyOp0
 70
     1
102
RTVSPropertyOp1
 70
     1
102
RTVSPropertyOp2
 70
     1
102
RTVSPropertyOp3
 70
     1
102
RTVSPropertyOp4
 70
     1
102
RTVSPropertyOp5
 70
     1
102
RTVSPropertyOp6
 70
     1
102
RTVSPropertyOp7
 70
     1
102
RTVSPropertyOp8
 70
     1
102
RTVSPropertyOp9
 70
     1
102
RTVSPropertyOp10
 70
     1
102
RTVSPropertyOp11
 70
     1
102
RTVSPropertyOp12
 70
     1
102
RTVSPropertyOp13
 70
     1
102
RTVSPropertyOp14
 70
     1
102
RTVSPropertyOp15
 70
     1
102
RTVSPropertyOp16
 70
     1
102
RTVSPropertyOp17
 70
     1
102
RTVSPropertyOp18
 70
     1
102
RTVSPropertyOp19
 70
     1
102
RTVSPropertyOp20
 70
     1
102
RTVSPropertyOp21
 70
     1
102
RTVSPropertyOp22
 70
     1
102
RTVSPropertyOp23
 70
     1
102
RTVSPropertyOp24
 70
     1
102
RTVSPropertyOp25
 70
     1
102
RTVSPropertyOp26
 70
     1
102
RTVSPropertyOp27
 70
     1
  0
XRECORD
  5
2BA
102
{ACAD_REACTORS
330
2B9
102
}
330
2B9
100
AcDbXrecord
280
     1
102
RTVSPropertyOp0
 70
     1
102
RTVSPropertyOp1
 70
     1
102
RTVSPropertyOp2
 70
     1
102
RTVSPropertyOp3
 70
     1
102
RTVSPropertyOp4
 70
     1
102
RTVSPropertyOp5
 70
     1
102
RTVSPropertyOp6
 70
     1
102
RTVSPropertyOp7
 70
     1
102
RTVSPropertyOp8
 70
     1
102
RTVSPropertyOp9
 70
     1
102
RTVSPropertyOp10
 70
     1
102
RTVSPropertyOp11
 70
     1
102
RTVSPropertyOp12
 70
     1
102
RTVSPropertyOp13
 70
     1
102
RTVSPropertyOp14
 70
     1
102
RTVSPropertyOp15
 70
     1
102
RTVSPropertyOp16
 70
     1
102
RTVSPropertyOp17
 70
     1
102
RTVSPropertyOp18
 70
     1
102
RTVSPropertyOp19
 70
     1
102
RTVSPropertyOp20
 70
     1
102
RTVSPropertyOp21
 70
     1
102
RTVSPropertyOp22
 70
     1
102
RTVSPropertyOp23
 70
     1
102
RTVSPropertyOp24
 70
     1
102
RTVSPropertyOp25
 70
     1
102
RTVSPropertyOp26
 70
     1
102
RTVSPropertyOp27
 70
     1
  0
XRECORD
  5
29E
102
{ACAD_REACTORS
330
29D
102
}
330
29D
100
AcDbXrecord
280
     1
102
RTVSPropertyOp0
 70
     1
102
RTVSPropertyOp1
 70
     1
102
RTVSPropertyOp2
 70
     1
102
RTVSPropertyOp3
 70
     1
102
RTVSPropertyOp4
 70
     1
102
RTVSPropertyOp5
 70
     1
102
RTVSPropertyOp6
 70
     1
102
RTVSPropertyOp7
 70
     1
102
RTVSPropertyOp8
 70
     1
102
RTVSPropertyOp9
 70
     1
102
RTVSPropertyOp10
 70
     1
102
RTVSPropertyOp11
 70
     1
102
RTVSPropertyOp12
 70
     1
102
RTVSPropertyOp13
 70
     1
102
RTVSPropertyOp14
 70
     1
102
RTVSPropertyOp15
 70
     1
102
RTVSPropertyOp16
 70
     1
102
RTVSPropertyOp17
 70
     1
102
RTVSPropertyOp18
 70
     1
102
RTVSPropertyOp19
 70
     1
102
RTVSPropertyOp20
 70
     1
102
RTVSPropertyOp21
 70
     1
102
RTVSPropertyOp22
 70
     1
102
RTVSPropertyOp23
 70
     1
102
RTVSPropertyOp24
 70
     1
102
RTVSPropertyOp25
 70
     1
102
RTVSPropertyOp26
 70
     1
102
RTVSPropertyOp27
 70
     1
  0
XRECORD
  5
2A0
102
{ACAD_REACTORS
330
29F
102
}
330
29F
100
AcDbXrecord
280
     1
102
RTVSPropertyOp0
 70
     1
102
RTVSPropertyOp1
 70
     1
102
RTVSPropertyOp2
 70
     1
102
RTVSPropertyOp3
 70
     1
102
RTVSPropertyOp4
 70
     1
102
RTVSPropertyOp5
 70
     1
102
RTVSPropertyOp6
 70
     1
102
RTVSPropertyOp7
 70
     1
102
RTVSPropertyOp8
 70
     1
102
RTVSPropertyOp9
 70
     1
102
RTVSPropertyOp10
 70
     1
102
RTVSPropertyOp11
 70
     1
102
RTVSPropertyOp12
 70
     1
102
RTVSPropertyOp13
 70
     1
102
RTVSPropertyOp14
 70
     1
102
RTVSPropertyOp15
 70
     1
102
RTVSPropertyOp16
 70
     1
102
RTVSPropertyOp17
 70
     1
102
RTVSPropertyOp18
 70
     1
102
RTVSPropertyOp19
 70
     1
102
RTVSPropertyOp20
 70
     1
102
RTVSPropertyOp21
 70
     1
102
RTVSPropertyOp22
 70
     1
102
RTVSPropertyOp23
 70
     1
102
RTVSPropertyOp24
 70
     1
102
RTVSPropertyOp25
 70
     1
102
RTVSPropertyOp26
 70
     1
102
RTVSPropertyOp27
 70
     1
  0
XRECORD
  5
2A2
102
{ACAD_REACTORS
330
2A1
102
}
330
2A1
100
AcDbXrecord
280
     1
102
RTVSPropertyOp0
 70
     1
102
RTVSPropertyOp1
 70
     1
102
RTVSPropertyOp2
 70
     1
102
RTVSPropertyOp3
 70
     1
102
RTVSPropertyOp4
 70
     1
102
RTVSPropertyOp5
 70
     1
102
RTVSPropertyOp6
 70
     1
102
RTVSPropertyOp7
 70
     1
102
RTVSPropertyOp8
 70
     1
102
RTVSPropertyOp9
 70
     1
102
RTVSPropertyOp10
 70
     1
102
RTVSPropertyOp11
 70
     1
102
RTVSPropertyOp12
 70
     1
102
RTVSPropertyOp13
 70
     1
102
RTVSPropertyOp14
 70
     1
102
RTVSPropertyOp15
 70
     1
102
RTVSPropertyOp16
 70
     1
102
RTVSPropertyOp17
 70
     1
102
RTVSPropertyOp18
 70
     1
102
RTVSPropertyOp19
 70
     1
102
RTVSPropertyOp20
 70
     1
102
RTVSPropertyOp21
 70
     1
102
RTVSPropertyOp22
 70
     1
102
RTVSPropertyOp23
 70
     1
102
RTVSPropertyOp24
 70
     1
102
RTVSPropertyOp25
 70
     1
102
RTVSPropertyOp26
 70
     1
102
RTVSPropertyOp27
 70
     1
  0
XRECORD
  5
2A4
102
{ACAD_REACTORS
330
2A3
102
}
330
2A3
100
AcDbXrecord
280
     1
102
RTVSPropertyOp0
 70
     1
102
RTVSPropertyOp1
 70
     1
102
RTVSPropertyOp2
 70
     1
102
RTVSPropertyOp3
 70
     1
102
RTVSPropertyOp4
 70
     1
102
RTVSPropertyOp5
 70
     1
102
RTVSPropertyOp6
 70
     1
102
RTVSPropertyOp7
 70
     1
102
RTVSPropertyOp8
 70
     1
102
RTVSPropertyOp9
 70
     1
102
RTVSPropertyOp10
 70
     1
102
RTVSPropertyOp11
 70
     1
102
RTVSPropertyOp12
 70
     1
102
RTVSPropertyOp13
 70
     1
102
RTVSPropertyOp14
 70
     1
102
RTVSPropertyOp15
 70
     1
102
RTVSPropertyOp16
 70
     1
102
RTVSPropertyOp17
 70
     1
102
RTVSPropertyOp18
 70
     1
102
RTVSPropertyOp19
 70
     1
102
RTVSPropertyOp20
 70
     1
102
RTVSPropertyOp21
 70
     1
102
RTVSPropertyOp22
 70
     1
102
RTVSPropertyOp23
 70
     1
102
RTVSPropertyOp24
 70
     1
102
RTVSPropertyOp25
 70
     1
102
RTVSPropertyOp26
 70
     1
102
RTVSPropertyOp27
 70
     1
  0
XRECORD
  5
2B8
102
{ACAD_REACTORS
330
2B7
102
}
330
2B7
100
AcDbXrecord
280
     1
102
RTVSPropertyOp0
 70
     1
102
RTVSPropertyOp1
 70
     1
102
RTVSPropertyOp2
 70
     1
102
RTVSPropertyOp3
 70
     1
102
RTVSPropertyOp4
 70
     1
102
RTVSPropertyOp5
 70
     1
102
RTVSPropertyOp6
 70
     1
102
RTVSPropertyOp7
 70
     1
102
RTVSPropertyOp8
 70
     1
102
RTVSPropertyOp9
 70
     1
102
RTVSPropertyOp10
 70
     1
102
RTVSPropertyOp11
 70
     1
102
RTVSPropertyOp12
 70
     1
102
RTVSPropertyOp13
 70
     1
102
RTVSPropertyOp14
 70
     1
102
RTVSPropertyOp15
 70
     1
102
RTVSPropertyOp16
 70
     1
102
RTVSPropertyOp17
 70
     1
102
RTVSPropertyOp18
 70
     1
102
RTVSPropertyOp19
 70
     1
102
RTVSPropertyOp20
 70
     1
102
RTVSPropertyOp21
 70
     1
102
RTVSPropertyOp22
 70
     1
102
RTVSPropertyOp23
 70
     1
102
RTVSPropertyOp24
 70
     1
102
RTVSPropertyOp25
 70
     1
102
RTVSPropertyOp26
 70
     1
102
RTVSPropertyOp27
 70
     1
  0
XRECORD
  5
2AE
102
{ACAD_REACTORS
330
2AD
102
}
330
2AD
100
AcDbXrecord
280
     1
102
RTVSPropertyOp0
 70
     1
102
RTVSPropertyOp1
 70
     1
102
RTVSPropertyOp2
 70
     1
102
RTVSPropertyOp3
 70
     1
102
RTVSPropertyOp4
 70
     1
102
RTVSPropertyOp5
 70
     1
102
RTVSPropertyOp6
 70
     1
102
RTVSPropertyOp7
 70
     1
102
RTVSPropertyOp8
 70
     1
102
RTVSPropertyOp9
 70
     1
102
RTVSPropertyOp10
 70
     1
102
RTVSPropertyOp11
 70
     1
102
RTVSPropertyOp12
 70
     1
102
RTVSPropertyOp13
 70
     1
102
RTVSPropertyOp14
 70
     1
102
RTVSPropertyOp15
 70
     1
102
RTVSPropertyOp16
 70
     1
102
RTVSPropertyOp17
 70
     1
102
RTVSPropertyOp18
 70
     1
102
RTVSPropertyOp19
 70
     1
102
RTVSPropertyOp20
 70
     1
102
RTVSPropertyOp21
 70
     1
102
RTVSPropertyOp22
 70
     1
102
RTVSPropertyOp23
 70
     1
102
RTVSPropertyOp24
 70
     1
102
RTVSPropertyOp25
 70
     1
102
RTVSPropertyOp26
 70
     1
102
RTVSPropertyOp27
 70
     1
  0
XRECORD
  5
2B6
102
{ACAD_REACTORS
330
2B5
102
}
330
2B5
100
AcDbXrecord
280
     1
102
RTVSPropertyOp0
 70
     1
102
RTVSPropertyOp1
 70
     1
102
RTVSPropertyOp2
 70
     1
102
RTVSPropertyOp3
 70
     1
102
RTVSPropertyOp4
 70
     1
102
RTVSPropertyOp5
 70
     1
102
RTVSPropertyOp6
 70
     1
102
RTVSPropertyOp7
 70
     1
102
RTVSPropertyOp8
 70
     1
102
RTVSPropertyOp9
 70
     1
102
RTVSPropertyOp10
 70
     1
102
RTVSPropertyOp11
 70
     1
102
RTVSPropertyOp12
 70
     1
102
RTVSPropertyOp13
 70
     1
102
RTVSPropertyOp14
 70
     1
102
RTVSPropertyOp15
 70
     1
102
RTVSPropertyOp16
 70
     1
102
RTVSPropertyOp17
 70
     1
102
RTVSPropertyOp18
 70
     1
102
RTVSPropertyOp19
 70
     1
102
RTVSPropertyOp20
 70
     1
102
RTVSPropertyOp21
 70
     1
102
RTVSPropertyOp22
 70
     1
102
RTVSPropertyOp23
 70
     1
102
RTVSPropertyOp24
 70
     1
102
RTVSPropertyOp25
 70
     1
102
RTVSPropertyOp26
 70
     1
102
RTVSPropertyOp27
 70
     1
  0
ENDSEC
  0
EOF
