  0
SECTION
  2
HEADER
  9
$ACADVER
  1
AC1015
  9
$ACADMAINTVER
 70
     6
  9
$DWGCODEPAGE
  3
ANSI_932
  9
$INSBASE
 10
0.0
 20
0.0
 30
0.0
  9
$EXTMIN
 10
496.533744594109
 20
1200.961054579
 30
0.0
  9
$EXTMAX
 10
1157.9594403171
 20
1522.43597932046
 30
0.0
  9
$LIMMIN
 10
0.0
 20
0.0
  9
$LIMMAX
 10
12.0
 20
9.0
  9
$ORTHOMODE
 70
     0
  9
$REGENMODE
 70
     1
  9
$FILLMODE
 70
     1
  9
$QTEXTMODE
 70
     0
  9
$MIRRTEXT
 70
     1
  9
$LTSCALE
 40
1.0
  9
$ATTMODE
 70
     1
  9
$TEXTSIZE
 40
0.2
  9
$TRACEWID
 40
0.05
  9
$TEXTSTYLE
  7
Standard
  9
$CLAYER
  8
0
  9
$CELTYPE
  6
ByLayer
  9
$CECOLOR
 62
   256
  9
$CELTSCALE
 40
1.0
  9
$DISPSILH
 70
     0
  9
$DIMSCALE
 40
1.0
  9
$DIMASZ
 40
0.18
  9
$DIMEXO
 40
0.0625
  9
$DIMDLI
 40
0.38
  9
$DIMRND
 40
0.0
  9
$DIMDLE
 40
0.0
  9
$DIMEXE
 40
0.18
  9
$DIMTP
 40
0.0
  9
$DIMTM
 40
0.0
  9
$DIMTXT
 40
0.18
  9
$DIMCEN
 40
0.09
  9
$DIMTSZ
 40
0.0
  9
$DIMTOL
 70
     0
  9
$DIMLIM
 70
     0
  9
$DIMTIH
 70
     1
  9
$DIMTOH
 70
     1
  9
$DIMSE1
 70
     0
  9
$DIMSE2
 70
     0
  9
$DIMTAD
 70
     0
  9
$DIMZIN
 70
     0
  9
$DIMBLK
  1

  9
$DIMASO
 70
     1
  9
$DIMSHO
 70
     1
  9
$DIMPOST
  1

  9
$DIMAPOST
  1

  9
$DIMALT
 70
     0
  9
$DIMALTD
 70
     2
  9
$DIMALTF
 40
25.4
  9
$DIMLFAC
 40
1.0
  9
$DIMTOFL
 70
     0
  9
$DIMTVP
 40
0.0
  9
$DIMTIX
 70
     0
  9
$DIMSOXD
 70
     0
  9
$DIMSAH
 70
     0
  9
$DIMBLK1
  1

  9
$DIMBLK2
  1

  9
$DIMSTYLE
  2
Standard
  9
$DIMCLRD
 70
     0
  9
$DIMCLRE
 70
     0
  9
$DIMCLRT
 70
     0
  9
$DIMTFAC
 40
1.0
  9
$DIMGAP
 40
0.09
  9
$DIMJUST
 70
     0
  9
$DIMSD1
 70
     0
  9
$DIMSD2
 70
     0
  9
$DIMTOLJ
 70
     1
  9
$DIMTZIN
 70
     0
  9
$DIMALTZ
 70
     0
  9
$DIMALTTZ
 70
     0
  9
$DIMUPT
 70
     0
  9
$DIMDEC
 70
     4
  9
$DIMTDEC
 70
     4
  9
$DIMALTU
 70
     2
  9
$DIMALTTD
 70
     2
  9
$DIMTXSTY
  7
Standard
  9
$DIMAUNIT
 70
     0
  9
$DIMADEC
 70
     0
  9
$DIMALTRND
 40
0.0
  9
$DIMAZIN
 70
     0
  9
$DIMDSEP
 70
    46
  9
$DIMATFIT
 70
     3
  9
$DIMFRAC
 70
     0
  9
$DIMLDRBLK
  1

  9
$DIMLUNIT
 70
     2
  9
$DIMLWD
 70
    -2
  9
$DIMLWE
 70
    -2
  9
$DIMTMOVE
 70
     0
  9
$LUNITS
 70
     2
  9
$LUPREC
 70
     4
  9
$SKETCHINC
 40
0.1
  9
$FILLETRAD
 40
0.5
  9
$AUNITS
 70
     0
  9
$AUPREC
 70
     0
  9
$MENU
  1
.
  9
$ELEVATION
 40
0.0
  9
$PELEVATION
 40
0.0
  9
$THICKNESS
 40
0.0
  9
$LIMCHECK
 70
     0
  9
$CHAMFERA
 40
0.5
  9
$CHAMFERB
 40
0.5
  9
$CHAMFERC
 40
1.0
  9
$CHAMFERD
 40
0.0
  9
$SKPOLY
 70
     0
  9
$TDCREATE
 40
2457624.56976669
  9
$TDUCREATE
 40
2457624.19476669
  9
$TDUPDATE
 40
2457624.569766701
  9
$TDUUPDATE
 40
2457624.194766701
  9
$TDINDWG
 40
0.0000000116
  9
$TDUSRTIMER
 40
0.0000000116
  9
$USRTIMER
 70
     1
  9
$ANGBASE
 50
0.0
  9
$ANGDIR
 70
     0
  9
$PDMODE
 70
     0
  9
$PDSIZE
 40
0.0
  9
$PLINEWID
 40
0.0
  9
$SPLFRAME
 70
     0
  9
$SPLINETYPE
 70
     6
  9
$SPLINESEGS
 70
     8
  9
$HANDSEED
  5
2E8
  9
$SURFTAB1
 70
     6
  9
$SURFTAB2
 70
     6
  9
$SURFTYPE
 70
     6
  9
$SURFU
 70
     6
  9
$SURFV
 70
     6
  9
$UCSBASE
  2

  9
$UCSNAME
  2

  9
$UCSORG
 10
0.0
 20
0.0
 30
0.0
  9
$UCSXDIR
 10
1.0
 20
0.0
 30
0.0
  9
$UCSYDIR
 10
0.0
 20
1.0
 30
0.0
  9
$UCSORTHOREF
  2

  9
$UCSORTHOVIEW
 70
     0
  9
$UCSORGTOP
 10
0.0
 20
0.0
 30
0.0
  9
$UCSORGBOTTOM
 10
0.0
 20
0.0
 30
0.0
  9
$UCSORGLEFT
 10
0.0
 20
0.0
 30
0.0
  9
$UCSORGRIGHT
 10
0.0
 20
0.0
 30
0.0
  9
$UCSORGFRONT
 10
0.0
 20
0.0
 30
0.0
  9
$UCSORGBACK
 10
0.0
 20
0.0
 30
0.0
  9
$PUCSBASE
  2

  9
$PUCSNAME
  2

  9
$PUCSORG
 10
0.0
 20
0.0
 30
0.0
  9
$PUCSXDIR
 10
1.0
 20
0.0
 30
0.0
  9
$PUCSYDIR
 10
0.0
 20
1.0
 30
0.0
  9
$PUCSORTHOREF
  2

  9
$PUCSORTHOVIEW
 70
     0
  9
$PUCSORGTOP
 10
0.0
 20
0.0
 30
0.0
  9
$PUCSORGBOTTOM
 10
0.0
 20
0.0
 30
0.0
  9
$PUCSORGLEFT
 10
0.0
 20
0.0
 30
0.0
  9
$PUCSORGRIGHT
 10
0.0
 20
0.0
 30
0.0
  9
$PUCSORGFRONT
 10
0.0
 20
0.0
 30
0.0
  9
$PUCSORGBACK
 10
0.0
 20
0.0
 30
0.0
  9
$USERI1
 70
     0
  9
$USERI2
 70
     0
  9
$USERI3
 70
     0
  9
$USERI4
 70
     0
  9
$USERI5
 70
     0
  9
$USERR1
 40
18.0
  9
$USERR2
 40
0.0
  9
$USERR3
 40
0.0
  9
$USERR4
 40
0.0
  9
$USERR5
 40
0.0
  9
$WORLDVIEW
 70
     1
  9
$SHADEDGE
 70
     3
  9
$SHADEDIF
 70
    70
  9
$TILEMODE
 70
     1
  9
$MAXACTVP
 70
    64
  9
$PINSBASE
 10
0.0
 20
0.0
 30
0.0
  9
$PLIMCHECK
 70
     0
  9
$PEXTMIN
 10
1.00000000000000E+20
 20
1.00000000000000E+20
 30
1.00000000000000E+20
  9
$PEXTMAX
 10
-1.00000000000000E+20
 20
-1.00000000000000E+20
 30
-1.00000000000000E+20
  9
$PLIMMIN
 10
0.0
 20
0.0
  9
$PLIMMAX
 10
12.0
 20
9.0
  9
$UNITMODE
 70
     0
  9
$VISRETAIN
 70
     1
  9
$PLINEGEN
 70
     0
  9
$PSLTSCALE
 70
     1
  9
$TREEDEPTH
 70
  3020
  9
$CMLSTYLE
  2
Standard
  9
$CMLJUST
 70
     0
  9
$CMLSCALE
 40
1.0
  9
$PROXYGRAPHICS
 70
     1
  9
$MEASUREMENT
 70
     1
  9
$CELWEIGHT
370
    -1
  9
$ENDCAPS
280
     0
  9
$JOINSTYLE
280
     0
  9
$LWDISPLAY
290
     0
  9
$INSUNITS
 70
     1
  9
$HYPERLINKBASE
  1

  9
$STYLESHEET
  1

  9
$XEDIT
290
     1
  9
$CEPSNTYPE
380
     0
  9
$PSTYLEMODE
290
     1
  9
$FINGERPRINTGUID
  2
{22EFFE43-32D3-4918-94F3-D09C09EDABD0}
  9
$VERSIONGUID
  2
{FAEB1C32-E019-11D5-929B-00C0DF256EC4}
  9
$EXTNAMES
290
     1
  9
$PSVPSCALE
 40
0.0
  9
$OLESTARTUP
290
     0
  0
ENDSEC
  0
SECTION
  2
CLASSES
  0
CLASS
  1
ACDBDICTIONARYWDFLT
  2
AcDbDictionaryWithDefault
  3
ObjectDBX Classes
 90
        0
280
     0
281
     0
  0
CLASS
  1
VISUALSTYLE
  2
AcDbVisualStyle
  3
ObjectDBX Classes
 90
     4095
280
     0
281
     0
  0
CLASS
  1
MATERIAL
  2
AcDbMaterial
  3
ObjectDBX Classes
 90
     1153
280
     0
281
     0
  0
CLASS
  1

  2
exOdDbCircle
  3

 90
        0
280
     0
281
     1
  0
CLASS
  1

  2
exOdDbPolyline
  3

 90
        0
280
     0
281
     1
  0
CLASS
  1
DICTIONARYVAR
  2
AcDbDictionaryVar
  3
ObjectDBX Classes
 90
        0
280
     0
281
     0
  0
CLASS
  1
ACDBPLACEHOLDER
  2
AcDbPlaceHolder
  3
ObjectDBX Classes
 90
        0
280
     0
281
     0
  0
CLASS
  1
LAYOUT
  2
AcDbLayout
  3
ObjectDBX Classes
 90
        0
280
     0
281
     0
  0
ENDSEC
  0
SECTION
  2
TABLES
  0
TABLE
  2
VPORT
  5
8
330
0
100
AcDbSymbolTable
 70
     1
  0
VPORT
  5
29
330
8
100
AcDbSymbolTableRecord
100
AcDbViewportTableRecord
  2
*Active
 70
     0
 10
0.0
 20
0.0
 11
1.0
 21
1.0
 12
827.2465924556045
 22
1361.69851694973
 13
0.0
 23
0.0
 14
0.5
 24
0.5
 15
0.5
 25
0.5
 16
0.0
 26
0.0
 36
1.0
 17
0.0
 27
0.0
 37
0.0
 40
453.970171103468
 41
1.60267857142857
 42
50.0
 43
0.0
 44
0.0
 50
0.0
 51
0.0
 71
     0
 72
   100
 73
     1
 74
     3
 75
     0
 76
     0
 77
     0
 78
     0
281
     0
 65
     1
110
0.0
120
0.0
130
0.0
111
1.0
121
0.0
131
0.0
112
0.0
122
1.0
132
0.0
 79
     0
146
0.0
  0
ENDTAB
  0
TABLE
  2
LTYPE
  5
5
330
0
100
AcDbSymbolTable
 70
     8
  0
LTYPE
  5
14
330
5
100
AcDbSymbolTableRecord
100
AcDbLinetypeTableRecord
  2
ByBlock
 70
     0
  3

 72
    65
 73
     0
 40
0.0
  0
LTYPE
  5
15
330
5
100
AcDbSymbolTableRecord
100
AcDbLinetypeTableRecord
  2
ByLayer
 70
     0
  3

 72
    65
 73
     0
 40
0.0
  0
LTYPE
  5
16
330
5
100
AcDbSymbolTableRecord
100
AcDbLinetypeTableRecord
  2
Continuous
 70
     0
  3
Solid line
 72
    65
 73
     0
 40
0.0
  0
LTYPE
  5
3F
330
5
100
AcDbSymbolTableRecord
100
AcDbLinetypeTableRecord
  2
DASHED
 70
     0
  3
Dashed
 72
    65
 73
     2
 40
15.0
 49
7.0
 74
     0
 49
-8.0
 74
     0
  0
LTYPE
  5
40
330
5
100
AcDbSymbolTableRecord
100
AcDbLinetypeTableRecord
  2
DOTTED
 70
     0
  3
Dotted
 72
    65
 73
     2
 40
1.0
 49
0.0
 74
     0
 49
-1.0
 74
     0
  0
LTYPE
  5
41
330
5
100
AcDbSymbolTableRecord
100
AcDbLinetypeTableRecord
  2
DOT_CENTER
 70
     0
  3
Dot_Center
 72
    65
 73
     4
 40
14.0
 49
12.0
 74
     0
 49
-1.0
 74
     0
 49
0.0
 74
     0
 49
-1.0
 74
     0
  0
LTYPE
  5
42
330
5
100
AcDbSymbolTableRecord
100
AcDbLinetypeTableRecord
  2
LONG_DASHED
 70
     0
  3
Long_Dashed
 72
    65
 73
     2
 40
15.0
 49
10.0
 74
     0
 49
-5.0
 74
     0
  0
LTYPE
  5
43
330
5
100
AcDbSymbolTableRecord
100
AcDbLinetypeTableRecord
  2
DASH_CENTER
 70
     0
  3
Dash_Center
 72
    65
 73
     4
 40
14.0
 49
11.0
 74
     0
 49
-1.0
 74
     0
 49
1.0
 74
     0
 49
-1.0
 74
     0
  0
LTYPE
  5
44
330
5
100
AcDbSymbolTableRecord
100
AcDbLinetypeTableRecord
  2
PHANTOM
 70
     0
  3
Phantom
 72
    65
 73
     6
 40
13.0
 49
10.0
 74
     0
 49
-1.0
 74
     0
 49
0.0
 74
     0
 49
-1.0
 74
     0
 49
0.0
 74
     0
 49
-1.0
 74
     0
  0
LTYPE
  5
45
330
5
100
AcDbSymbolTableRecord
100
AcDbLinetypeTableRecord
  2
CENTER_DASH_DASH
 70
     0
  3
Center_Dash_Dash
 72
    65
 73
     6
 40
14.0
 49
9.0
 74
     0
 49
-1.0
 74
     0
 49
1.0
 74
     0
 49
-1.0
 74
     0
 49
1.0
 74
     0
 49
-1.0
 74
     0
  0
ENDTAB
  0
TABLE
  2
LAYER
  5
2
330
0
100
AcDbSymbolTable
 70
     4
  0
LAYER
  5
10
330
2
100
AcDbSymbolTableRecord
100
AcDbLayerTableRecord
  2
0
 70
     0
 62
     7
  6
Continuous
370
    -3
390
F
  0
LAYER
  5
46
330
2
100
AcDbSymbolTableRecord
100
AcDbLayerTableRecord
  2
1
 70
     0
 62
     7
  6
Continuous
370
    -3
390
F
  0
LAYER
  5
47
330
2
100
AcDbSymbolTableRecord
100
AcDbLayerTableRecord
  2
100
 70
     0
 62
     7
  6
Continuous
370
    -3
390
F
  0
LAYER
  5
48
330
2
100
AcDbSymbolTableRecord
100
AcDbLayerTableRecord
  2
4
 70
     0
 62
     7
  6
Continuous
370
    -3
390
F
  0
ENDTAB
  0
TABLE
  2
STYLE
  5
3
330
0
100
AcDbSymbolTable
 70
     1
  0
STYLE
  5
11
330
3
100
AcDbSymbolTableRecord
100
AcDbTextStyleTableRecord
  2
Standard
 70
     0
 40
0.0
 41
1.0
 50
0.0
 71
     0
 42
0.2
  3
txt
  4

  0
ENDTAB
  0
TABLE
  2
VIEW
  5
6
330
0
100
AcDbSymbolTable
 70
     0
  0
ENDTAB
  0
TABLE
  2
UCS
  5
7
330
0
100
AcDbSymbolTable
 70
     0
  0
ENDTAB
  0
TABLE
  2
APPID
  5
9
330
0
100
AcDbSymbolTable
 70
     1
  0
APPID
  5
12
330
9
100
AcDbSymbolTableRecord
100
AcDbRegAppTableRecord
  2
ACAD
 70
     0
  0
ENDTAB
  0
TABLE
  2
DIMSTYLE
  5
A
330
0
100
AcDbSymbolTable
 70
     1
100
AcDbDimStyleTable
  0
DIMSTYLE
105
27
330
A
100
AcDbSymbolTableRecord
100
AcDbDimStyleTableRecord
  2
Standard
 70
     0
340
11
  0
ENDTAB
  0
TABLE
  2
BLOCK_RECORD
  5
1
330
0
100
AcDbSymbolTable
 70
     1
  0
BLOCK_RECORD
  5
1F
330
1
100
AcDbSymbolTableRecord
100
AcDbBlockTableRecord
  2
*Model_Space
340
22
  0
BLOCK_RECORD
  5
1B
330
1
100
AcDbSymbolTableRecord
100
AcDbBlockTableRecord
  2
*Paper_Space
340
1E
  0
BLOCK_RECORD
  5
23
330
1
100
AcDbSymbolTableRecord
100
AcDbBlockTableRecord
  2
*Paper_Space0
340
26
  0
ENDTAB
  0
ENDSEC
  0
SECTION
  2
BLOCKS
  0
BLOCK
  5
20
330
1F
100
AcDbEntity
  8
0
100
AcDbBlockBegin
  2
*Model_Space
 70
     0
 10
0.0
 20
0.0
 30
0.0
  3
*Model_Space
  1

  0
ENDBLK
  5
21
330
1F
100
AcDbEntity
  8
0
100
AcDbBlockEnd
  0
BLOCK
  5
1C
330
1B
100
AcDbEntity
 67
     1
  8
0
100
AcDbBlockBegin
  2
*Paper_Space
 70
     0
 10
0.0
 20
0.0
 30
0.0
  3
*Paper_Space
  1

  0
ENDBLK
  5
1D
330
1B
100
AcDbEntity
 67
     1
  8
0
100
AcDbBlockEnd
  0
BLOCK
  5
24
330
23
100
AcDbEntity
  8
0
100
AcDbBlockBegin
  2
*Paper_Space0
 70
     0
 10
0.0
 20
0.0
 30
0.0
  3
*Paper_Space0
  1

  0
ENDBLK
  5
25
330
23
100
AcDbEntity
  8
0
100
AcDbBlockEnd
  0
ENDSEC
  0
SECTION
  2
ENTITIES
  0
LINE
  5
49
330
1F
100
AcDbEntity
  8
1
  6
Continuous
 62
     4
100
AcDbLine
 10
777.36158007752
 20
1205.961054579
 30
0.0
 11
776.56948007752
 21
1204.711054579
 31
0.0
  0
LINE
  5
4A
330
1F
100
AcDbEntity
  8
1
  6
Continuous
 62
     4
100
AcDbLine
 10
776.56948007752
 20
1207.211054579
 30
0.0
 11
777.36158007752
 21
1205.961054579
 31
0.0
  0
LINE
  5
4B
330
1F
100
AcDbEntity
  8
1
  6
Continuous
 62
     4
100
AcDbLine
 10
771.4208300775199
 20
1205.961054579
 30
0.0
 11
777.36158007752
 21
1205.961054579
 31
0.0
  0
LINE
  5
4C
330
1F
100
AcDbEntity
  8
1
  6
Continuous
 62
     4
100
AcDbLine
 10
764.88600507752
 20
1208.836054579
 30
0.0
 11
769.44058007752
 21
1208.836054579
 31
0.0
  0
LINE
  5
4D
330
1F
100
AcDbEntity
  8
1
  6
Continuous
 62
     4
100
AcDbLine
 10
764.88600507752
 20
1208.836054579
 30
0.0
 11
765.97514257752
 21
1210.711054579
 31
0.0
  0
LINE
  5
4E
330
1F
100
AcDbEntity
  8
1
  6
Continuous
 62
     4
100
AcDbLine
 10
767.46033007752
 20
1204.086054579
 30
0.0
 11
765.77711757752
 21
1204.086054579
 31
0.0
  0
LINE
  5
4F
330
1F
100
AcDbEntity
  8
1
  6
Continuous
 62
     4
100
AcDbLine
 10
767.46033007752
 20
1206.586054579
 30
0.0
 11
767.46033007752
 21
1204.086054579
 31
0.0
  0
LINE
  5
50
330
1F
100
AcDbEntity
  8
1
  6
Continuous
 62
     4
100
AcDbLine
 10
765.77711757752
 20
1206.586054579
 30
0.0
 11
767.46033007752
 21
1206.586054579
 31
0.0
  0
LINE
  5
51
330
1F
100
AcDbEntity
  8
1
  6
Continuous
 62
     4
100
AcDbLine
 10
765.77711757752
 20
1204.086054579
 30
0.0
 11
765.77711757752
 21
1206.586054579
 31
0.0
  0
LINE
  5
52
330
1F
100
AcDbEntity
  8
1
  6
Continuous
 62
     4
100
AcDbLine
 10
769.44058007752
 20
1201.336054579
 30
0.0
 11
768.3514425775201
 21
1201.336054579
 31
0.0
  0
LINE
  5
53
330
1F
100
AcDbEntity
  8
1
  6
Continuous
 62
     4
100
AcDbLine
 10
769.44058007752
 20
1208.836054579
 30
0.0
 11
769.44058007752
 21
1201.336054579
 31
0.0
  0
LINE
  5
54
330
1F
100
AcDbEntity
  8
1
  6
Continuous
 62
     4
100
AcDbLine
 10
763.7968675775201
 20
1208.836054579
 30
0.0
 11
764.88600507752
 21
1208.836054579
 31
0.0
  0
LINE
  5
55
330
1F
100
AcDbEntity
  8
1
  6
Continuous
 62
     4
100
AcDbLine
 10
763.7968675775201
 20
1201.336054579
 30
0.0
 11
763.7968675775201
 21
1208.836054579
 31
0.0
  0
LINE
  5
56
330
1F
100
AcDbEntity
  8
1
  6
Continuous
 62
     4
100
AcDbLine
 10
759.5393300775199
 20
1200.961054579
 30
0.0
 11
758.7472300775199
 21
1201.586054579
 31
0.0
  0
LINE
  5
57
330
1F
100
AcDbEntity
  8
1
  6
Continuous
 62
     4
100
AcDbLine
 10
760.03439257752
 20
1201.961054579
 30
0.0
 11
759.5393300775199
 21
1200.961054579
 31
0.0
  0
LINE
  5
58
330
1F
100
AcDbEntity
  8
1
  6
Continuous
 62
     4
100
AcDbLine
 10
760.43044257752
 20
1203.461054579
 30
0.0
 11
760.03439257752
 21
1201.961054579
 31
0.0
  0
LINE
  5
59
330
1F
100
AcDbEntity
  8
1
  6
Continuous
 62
     4
100
AcDbLine
 10
760.9255050775199
 20
1205.711054579
 30
0.0
 11
760.43044257752
 21
1203.461054579
 31
0.0
  0
LINE
  5
5A
330
1F
100
AcDbEntity
  8
1
  6
Continuous
 62
     4
100
AcDbLine
 10
760.9255050775199
 20
1206.586054579
 30
0.0
 11
760.9255050775199
 21
1205.711054579
 31
0.0
  0
LINE
  5
5B
330
1F
100
AcDbEntity
  8
1
  6
Continuous
 62
     4
100
AcDbLine
 10
758.05414257752
 20
1206.586054579
 30
0.0
 11
760.9255050775199
 21
1206.586054579
 31
0.0
  0
LINE
  5
5C
330
1F
100
AcDbEntity
  8
1
  6
Continuous
 62
     4
100
AcDbLine
 10
755.38080507752
 20
1209.086054579
 30
0.0
 11
762.01464257752
 21
1209.086054579
 31
0.0
  0
LINE
  5
5D
330
1F
100
AcDbEntity
  8
1
  6
Continuous
 62
     4
100
AcDbLine
 10
758.2521675775199
 20
1208.211054579
 30
0.0
 11
758.4501925775199
 21
1210.711054579
 31
0.0
  0
LINE
  5
5E
330
1F
100
AcDbEntity
  8
1
  6
Continuous
 62
     4
100
AcDbLine
 10
757.85611757752
 20
1205.711054579
 30
0.0
 11
758.2521675775199
 21
1208.211054579
 31
0.0
  0
LINE
  5
5F
330
1F
100
AcDbEntity
  8
1
  6
Continuous
 62
     4
100
AcDbLine
 10
757.36105507752
 20
1204.086054579
 30
0.0
 11
757.85611757752
 21
1205.711054579
 31
0.0
  0
LINE
  5
60
330
1F
100
AcDbEntity
  8
1
  6
Continuous
 62
     4
100
AcDbLine
 10
756.76698007752
 20
1202.586054579
 30
0.0
 11
757.36105507752
 21
1204.086054579
 31
0.0
  0
LINE
  5
61
330
1F
100
AcDbEntity
  8
1
  6
Continuous
 62
     4
100
AcDbLine
 10
755.87586757752
 20
1201.336054579
 30
0.0
 11
756.76698007752
 21
1202.586054579
 31
0.0
  0
LINE
  5
62
330
1F
100
AcDbEntity
  8
1
  6
Continuous
 62
     4
100
AcDbLine
 10
753.20253007752
 20
1204.086054579
 30
0.0
 11
754.29166757752
 21
1202.586054579
 31
0.0
  0
LINE
  5
63
330
1F
100
AcDbEntity
  8
1
  6
Continuous
 62
     4
100
AcDbLine
 10
752.31141757752
 20
1205.961054579
 30
0.0
 11
753.20253007752
 21
1204.086054579
 31
0.0
  0
LINE
  5
64
330
1F
100
AcDbEntity
  8
1
  6
Continuous
 62
     4
100
AcDbLine
 10
751.61833007752
 20
1208.211054579
 30
0.0
 11
752.31141757752
 21
1205.961054579
 31
0.0
  0
LINE
  5
65
330
1F
100
AcDbEntity
  8
1
  6
Continuous
 62
     4
100
AcDbLine
 10
753.5985800775201
 20
1208.461054579
 30
0.0
 11
752.11339257752
 21
1206.961054579
 31
0.0
  0
LINE
  5
66
330
1F
100
AcDbEntity
  8
1
  6
Continuous
 62
     4
100
AcDbLine
 10
751.02425507752
 20
1200.961054579
 30
0.0
 11
750.33116757752
 21
1201.336054579
 31
0.0
  0
LINE
  5
67
330
1F
100
AcDbEntity
  8
1
  6
Continuous
 62
     4
100
AcDbLine
 10
751.02425507752
 20
1210.711054579
 30
0.0
 11
751.02425507752
 21
1200.961054579
 31
0.0
  0
LINE
  5
68
330
1F
100
AcDbEntity
  8
1
  6
Continuous
 62
     4
100
AcDbLine
 10
749.93511757752
 20
1207.586054579
 30
0.0
 11
747.65783007752
 21
1207.586054579
 31
0.0
  0
LINE
  5
69
330
1F
100
AcDbEntity
  8
1
  6
Continuous
 62
     4
100
AcDbLine
 10
749.44005507752
 20
1205.711054579
 30
0.0
 11
749.93511757752
 21
1207.586054579
 31
0.0
  0
LINE
  5
6A
330
1F
100
AcDbEntity
  8
1
  6
Continuous
 62
     4
100
AcDbLine
 10
748.54894257752
 20
1203.836054579
 30
0.0
 11
749.44005507752
 21
1205.711054579
 31
0.0
  0
LINE
  5
6B
330
1F
100
AcDbEntity
  8
1
  6
Continuous
 62
     4
100
AcDbLine
 10
747.65783007752
 20
1202.586054579
 30
0.0
 11
748.54894257752
 21
1203.836054579
 31
0.0
  0
LINE
  5
6C
330
1F
100
AcDbEntity
  8
1
  6
Continuous
 62
     4
100
AcDbLine
 10
743.30128007752
 20
1209.461054579
 30
0.0
 11
745.97461757752
 21
1209.461054579
 31
0.0
  0
LINE
  5
6D
330
1F
100
AcDbEntity
  8
1
  6
Continuous
 62
     4
100
AcDbLine
 10
746.37066757752
 20
1201.961054579
 30
0.0
 11
746.37066757752
 21
1202.586054579
 31
0.0
  0
LINE
  5
6E
330
1F
100
AcDbEntity
  8
1
  6
Continuous
 62
     4
100
AcDbLine
 10
745.97461757752
 20
1201.336054579
 30
0.0
 11
746.37066757752
 21
1201.961054579
 31
0.0
  0
LINE
  5
6F
330
1F
100
AcDbEntity
  8
1
  6
Continuous
 62
     4
100
AcDbLine
 10
745.0835050775199
 20
1201.336054579
 30
0.0
 11
745.97461757752
 21
1201.336054579
 31
0.0
  0
LINE
  5
70
330
1F
100
AcDbEntity
  8
1
  6
Continuous
 62
     4
100
AcDbLine
 10
744.58844257752
 20
1202.211054579
 30
0.0
 11
745.0835050775199
 21
1201.336054579
 31
0.0
  0
LINE
  5
71
330
1F
100
AcDbEntity
  8
1
  6
Continuous
 62
     4
100
AcDbLine
 10
744.58844257752
 20
1205.336054579
 30
0.0
 11
744.58844257752
 21
1202.211054579
 31
0.0
  0
LINE
  5
72
330
1F
100
AcDbEntity
  8
1
  6
Continuous
 62
     4
100
AcDbLine
 10
743.30128007752
 20
1201.336054579
 30
0.0
 11
743.30128007752
 21
1205.336054579
 31
0.0
  0
LINE
  5
73
330
1F
100
AcDbEntity
  8
1
  6
Continuous
 62
     4
100
AcDbLine
 10
741.3210300775199
 20
1201.586054579
 30
0.0
 11
740.62794257752
 21
1200.961054579
 31
0.0
  0
LINE
  5
74
330
1F
100
AcDbEntity
  8
1
  6
Continuous
 62
     4
100
AcDbLine
 10
741.71708007752
 20
1202.211054579
 30
0.0
 11
741.3210300775199
 21
1201.586054579
 31
0.0
  0
LINE
  5
75
330
1F
100
AcDbEntity
  8
1
  6
Continuous
 62
     4
100
AcDbLine
 10
742.01411757752
 20
1203.211054579
 30
0.0
 11
741.71708007752
 21
1202.211054579
 31
0.0
  0
LINE
  5
76
330
1F
100
AcDbEntity
  8
1
  6
Continuous
 62
     4
100
AcDbLine
 10
742.21214257752
 20
1205.336054579
 30
0.0
 11
742.01411757752
 21
1203.211054579
 31
0.0
  0
LINE
  5
77
330
1F
100
AcDbEntity
  8
1
  6
Continuous
 62
     4
100
AcDbLine
 10
744.39041757752
 20
1208.461054579
 30
0.0
 11
745.28153007752
 21
1206.336054579
 31
0.0
  0
LINE
  5
78
330
1F
100
AcDbEntity
  8
1
  6
Continuous
 62
     4
100
AcDbLine
 10
741.51905507752
 20
1206.961054579
 30
0.0
 11
744.88548007752
 21
1207.211054579
 31
0.0
  0
LINE
  5
79
330
1F
100
AcDbEntity
  8
1
  6
Continuous
 62
     4
100
AcDbLine
 10
743.30128007752
 20
1209.461054579
 30
0.0
 11
742.4101675775199
 21
1206.961054579
 31
0.0
  0
LINE
  5
7A
330
1F
100
AcDbEntity
  8
1
  6
Continuous
 62
     4
100
AcDbLine
 10
743.49930507752
 20
1210.961054579
 30
0.0
 11
743.49930507752
 21
1209.461054579
 31
0.0
  0
LINE
  5
7B
330
1F
100
AcDbEntity
  8
1
  6
Continuous
 62
     4
100
AcDbLine
 10
741.12300507752
 20
1209.461054579
 30
0.0
 11
743.30128007752
 21
1209.461054579
 31
0.0
  0
LINE
  5
7C
330
1F
100
AcDbEntity
  8
1
  6
Continuous
 62
     4
100
AcDbLine
 10
739.53880507752
 20
1201.336054579
 30
0.0
 11
740.42991757752
 21
1205.336054579
 31
0.0
  0
LINE
  5
7D
330
1F
100
AcDbEntity
  8
1
  6
Continuous
 62
     4
100
AcDbLine
 10
739.34078007752
 20
1207.836054579
 30
0.0
 11
740.03386757752
 21
1206.961054579
 31
0.0
  0
LINE
  5
7E
330
1F
100
AcDbEntity
  8
1
  6
Continuous
 62
     4
100
AcDbLine
 10
740.03386757752
 20
1210.711054579
 30
0.0
 11
740.42991757752
 21
1209.711054579
 31
0.0
  0
LINE
  5
7F
330
1F
100
AcDbEntity
  8
1
  6
Continuous
 62
     4
100
AcDbLine
 10
1050.77666738015
 20
1434.51395205109
 30
0.0
 11
1050.77666738015
 21
1430.51395205109
 31
0.0
  0
LINE
  5
80
330
1F
100
AcDbEntity
  8
1
  6
Continuous
 62
     4
100
AcDbLine
 10
1046.27666738015
 20
1432.51395205109
 30
0.0
 11
1052.27666738015
 21
1432.51395205109
 31
0.0
  0
LINE
  5
81
330
1F
100
AcDbEntity
  8
1
  6
Continuous
 62
     4
100
AcDbLine
 10
1050.77666738015
 20
1440.51395205109
 30
0.0
 11
1046.27666738015
 21
1432.51395205109
 31
0.0
  0
LINE
  5
82
330
1F
100
AcDbEntity
  8
1
  6
Continuous
 62
     4
100
AcDbLine
 10
1039.27666738015
 20
1430.51395205109
 30
0.0
 11
1043.27666738015
 21
1440.51395205109
 31
0.0
  0
LINE
  5
83
330
1F
100
AcDbEntity
  8
1
  6
Continuous
 62
     4
100
AcDbLine
 10
1036.27666738015
 20
1440.51395205109
 30
0.0
 11
1036.27666738015
 21
1430.51395205109
 31
0.0
  0
LINE
  5
84
330
1F
100
AcDbEntity
  8
1
  6
Continuous
 62
     4
100
AcDbLine
 10
1033.27666738015
 20
1437.51395205109
 30
0.0
 11
1036.27666738015
 21
1440.51395205109
 31
0.0
  0
LINE
  5
85
330
1F
100
AcDbEntity
  8
1
  6
Continuous
 62
     4
100
AcDbLine
 10
1022.27666738015
 20
1440.51395205109
 30
0.0
 11
1022.27666738015
 21
1430.51395205109
 31
0.0
  0
LINE
  5
86
330
1F
100
AcDbEntity
  8
1
  6
Continuous
 62
     4
100
AcDbLine
 10
1019.27666738015
 20
1437.51395205109
 30
0.0
 11
1022.27666738015
 21
1440.51395205109
 31
0.0
  0
LINE
  5
87
330
1F
100
AcDbEntity
  8
1
  6
Continuous
 62
     4
100
AcDbLine
 10
1016.27666738015
 20
1436.01395205109
 30
0.0
 11
1013.77666738015
 21
1436.01395205109
 31
0.0
  0
LINE
  5
88
330
1F
100
AcDbEntity
  8
1
  6
Continuous
 62
     4
100
AcDbLine
 10
1016.27666738015
 20
1430.51395205109
 30
0.0
 11
1016.27666738015
 21
1436.01395205109
 31
0.0
  0
LINE
  5
89
330
1F
100
AcDbEntity
  8
1
  6
Continuous
 62
     4
100
AcDbLine
 10
1012.02666738015
 20
1430.51395205109
 30
0.0
 11
1016.27666738015
 21
1430.51395205109
 31
0.0
  0
LINE
  5
8A
330
1F
100
AcDbEntity
  8
1
  6
Continuous
 62
     4
100
AcDbLine
 10
1011.27666738015
 20
1430.76395205109
 30
0.0
 11
1012.02666738015
 21
1430.51395205109
 31
0.0
  0
LINE
  5
8B
330
1F
100
AcDbEntity
  8
1
  6
Continuous
 62
     4
100
AcDbLine
 10
1010.27666738015
 20
1431.26395205109
 30
0.0
 11
1011.27666738015
 21
1430.76395205109
 31
0.0
  0
LINE
  5
8C
330
1F
100
AcDbEntity
  8
1
  6
Continuous
 62
     4
100
AcDbLine
 10
1009.77666738015
 20
1431.76395205109
 30
0.0
 11
1010.27666738015
 21
1431.26395205109
 31
0.0
  0
LINE
  5
8D
330
1F
100
AcDbEntity
  8
1
  6
Continuous
 62
     4
100
AcDbLine
 10
1009.52666738015
 20
1432.51395205109
 30
0.0
 11
1009.77666738015
 21
1431.76395205109
 31
0.0
  0
LINE
  5
8E
330
1F
100
AcDbEntity
  8
1
  6
Continuous
 62
     4
100
AcDbLine
 10
1009.27666738015
 20
1433.51395205109
 30
0.0
 11
1009.52666738015
 21
1432.51395205109
 31
0.0
  0
LINE
  5
8F
330
1F
100
AcDbEntity
  8
1
  6
Continuous
 62
     4
100
AcDbLine
 10
1009.27666738015
 20
1437.51395205109
 30
0.0
 11
1009.27666738015
 21
1433.51395205109
 31
0.0
  0
LINE
  5
90
330
1F
100
AcDbEntity
  8
1
  6
Continuous
 62
     4
100
AcDbLine
 10
1009.52666738015
 20
1438.51395205109
 30
0.0
 11
1009.27666738015
 21
1437.51395205109
 31
0.0
  0
LINE
  5
91
330
1F
100
AcDbEntity
  8
1
  6
Continuous
 62
     4
100
AcDbLine
 10
1009.77666738015
 20
1439.26395205109
 30
0.0
 11
1009.52666738015
 21
1438.51395205109
 31
0.0
  0
LINE
  5
92
330
1F
100
AcDbEntity
  8
1
  6
Continuous
 62
     4
100
AcDbLine
 10
1010.27666738015
 20
1439.76395205109
 30
0.0
 11
1009.77666738015
 21
1439.26395205109
 31
0.0
  0
LINE
  5
93
330
1F
100
AcDbEntity
  8
1
  6
Continuous
 62
     4
100
AcDbLine
 10
1011.02666738015
 20
1440.26395205109
 30
0.0
 11
1010.27666738015
 21
1439.76395205109
 31
0.0
  0
LINE
  5
94
330
1F
100
AcDbEntity
  8
1
  6
Continuous
 62
     4
100
AcDbLine
 10
1012.02666738015
 20
1440.51395205109
 30
0.0
 11
1011.02666738015
 21
1440.26395205109
 31
0.0
  0
LINE
  5
95
330
1F
100
AcDbEntity
  8
1
  6
Continuous
 62
     4
100
AcDbLine
 10
1016.27666738015
 20
1440.51395205109
 30
0.0
 11
1012.02666738015
 21
1440.51395205109
 31
0.0
  0
LINE
  5
96
330
1F
100
AcDbEntity
  8
1
  6
Continuous
 62
     4
100
AcDbLine
 10
541.9609241424901
 20
1430.83747366856
 30
0.0
 11
541.9609241424901
 21
1426.83747366856
 31
0.0
  0
LINE
  5
97
330
1F
100
AcDbEntity
  8
1
  6
Continuous
 62
     4
100
AcDbLine
 10
537.4609241424901
 20
1428.83747366856
 30
0.0
 11
543.4609241424901
 21
1428.83747366856
 31
0.0
  0
LINE
  5
98
330
1F
100
AcDbEntity
  8
1
  6
Continuous
 62
     4
100
AcDbLine
 10
541.9609241424901
 20
1436.83747366856
 30
0.0
 11
537.4609241424901
 21
1428.83747366856
 31
0.0
  0
LINE
  5
99
330
1F
100
AcDbEntity
  8
1
  6
Continuous
 62
     4
100
AcDbLine
 10
530.4609241424901
 20
1426.83747366856
 30
0.0
 11
534.4609241424901
 21
1436.83747366856
 31
0.0
  0
LINE
  5
9A
330
1F
100
AcDbEntity
  8
1
  6
Continuous
 62
     4
100
AcDbLine
 10
527.4609241424901
 20
1436.83747366856
 30
0.0
 11
527.4609241424901
 21
1426.83747366856
 31
0.0
  0
LINE
  5
9B
330
1F
100
AcDbEntity
  8
1
  6
Continuous
 62
     4
100
AcDbLine
 10
524.4609241424901
 20
1433.83747366856
 30
0.0
 11
527.4609241424901
 21
1436.83747366856
 31
0.0
  0
LINE
  5
9C
330
1F
100
AcDbEntity
  8
1
  6
Continuous
 62
     4
100
AcDbLine
 10
513.4609241424901
 20
1436.83747366856
 30
0.0
 11
513.4609241424901
 21
1426.83747366856
 31
0.0
  0
LINE
  5
9D
330
1F
100
AcDbEntity
  8
1
  6
Continuous
 62
     4
100
AcDbLine
 10
510.46092414249
 20
1433.83747366856
 30
0.0
 11
513.4609241424901
 21
1436.83747366856
 31
0.0
  0
LINE
  5
9E
330
1F
100
AcDbEntity
  8
1
  6
Continuous
 62
     4
100
AcDbLine
 10
507.46092414249
 20
1432.33747366856
 30
0.0
 11
504.96092414249
 21
1432.33747366856
 31
0.0
  0
LINE
  5
9F
330
1F
100
AcDbEntity
  8
1
  6
Continuous
 62
     4
100
AcDbLine
 10
507.46092414249
 20
1426.83747366856
 30
0.0
 11
507.46092414249
 21
1432.33747366856
 31
0.0
  0
LINE
  5
A0
330
1F
100
AcDbEntity
  8
1
  6
Continuous
 62
     4
100
AcDbLine
 10
503.21092414249
 20
1426.83747366856
 30
0.0
 11
507.46092414249
 21
1426.83747366856
 31
0.0
  0
LINE
  5
A1
330
1F
100
AcDbEntity
  8
1
  6
Continuous
 62
     4
100
AcDbLine
 10
502.46092414249
 20
1427.08747366856
 30
0.0
 11
503.21092414249
 21
1426.83747366856
 31
0.0
  0
LINE
  5
A2
330
1F
100
AcDbEntity
  8
1
  6
Continuous
 62
     4
100
AcDbLine
 10
501.46092414249
 20
1427.58747366856
 30
0.0
 11
502.46092414249
 21
1427.08747366856
 31
0.0
  0
LINE
  5
A3
330
1F
100
AcDbEntity
  8
1
  6
Continuous
 62
     4
100
AcDbLine
 10
500.96092414249
 20
1428.08747366856
 30
0.0
 11
501.46092414249
 21
1427.58747366856
 31
0.0
  0
LINE
  5
A4
330
1F
100
AcDbEntity
  8
1
  6
Continuous
 62
     4
100
AcDbLine
 10
500.71092414249
 20
1428.83747366856
 30
0.0
 11
500.96092414249
 21
1428.08747366856
 31
0.0
  0
LINE
  5
A5
330
1F
100
AcDbEntity
  8
1
  6
Continuous
 62
     4
100
AcDbLine
 10
500.46092414249
 20
1429.83747366856
 30
0.0
 11
500.71092414249
 21
1428.83747366856
 31
0.0
  0
LINE
  5
A6
330
1F
100
AcDbEntity
  8
1
  6
Continuous
 62
     4
100
AcDbLine
 10
500.46092414249
 20
1433.83747366856
 30
0.0
 11
500.46092414249
 21
1429.83747366856
 31
0.0
  0
LINE
  5
A7
330
1F
100
AcDbEntity
  8
1
  6
Continuous
 62
     4
100
AcDbLine
 10
500.71092414249
 20
1434.83747366856
 30
0.0
 11
500.46092414249
 21
1433.83747366856
 31
0.0
  0
LINE
  5
A8
330
1F
100
AcDbEntity
  8
1
  6
Continuous
 62
     4
100
AcDbLine
 10
500.96092414249
 20
1435.58747366856
 30
0.0
 11
500.71092414249
 21
1434.83747366856
 31
0.0
  0
LINE
  5
A9
330
1F
100
AcDbEntity
  8
1
  6
Continuous
 62
     4
100
AcDbLine
 10
501.46092414249
 20
1436.08747366856
 30
0.0
 11
500.96092414249
 21
1435.58747366856
 31
0.0
  0
LINE
  5
AA
330
1F
100
AcDbEntity
  8
1
  6
Continuous
 62
     4
100
AcDbLine
 10
502.21092414249
 20
1436.58747366856
 30
0.0
 11
501.46092414249
 21
1436.08747366856
 31
0.0
  0
LINE
  5
AB
330
1F
100
AcDbEntity
  8
1
  6
Continuous
 62
     4
100
AcDbLine
 10
503.21092414249
 20
1436.83747366856
 30
0.0
 11
502.21092414249
 21
1436.58747366856
 31
0.0
  0
LINE
  5
AC
330
1F
100
AcDbEntity
  8
1
  6
Continuous
 62
     4
100
AcDbLine
 10
507.46092414249
 20
1436.83747366856
 30
0.0
 11
503.21092414249
 21
1436.83747366856
 31
0.0
  0
LINE
  5
AD
330
1F
100
AcDbEntity
  8
1
  6
Continuous
 62
     4
100
AcDbLine
 10
1155.7094403171
 20
1512.43597932046
 30
0.0
 11
1151.9594403171
 21
1512.43597932046
 31
0.0
  0
LINE
  5
AE
330
1F
100
AcDbEntity
  8
1
  6
Continuous
 62
     4
100
AcDbLine
 10
1156.4594403171
 20
1512.68597932046
 30
0.0
 11
1155.7094403171
 21
1512.43597932046
 31
0.0
  0
LINE
  5
AF
330
1F
100
AcDbEntity
  8
1
  6
Continuous
 62
     4
100
AcDbLine
 10
1157.2094403171
 20
1513.18597932046
 30
0.0
 11
1156.4594403171
 21
1512.68597932046
 31
0.0
  0
LINE
  5
B0
330
1F
100
AcDbEntity
  8
1
  6
Continuous
 62
     4
100
AcDbLine
 10
1157.7094403171
 20
1513.93597932046
 30
0.0
 11
1157.2094403171
 21
1513.18597932046
 31
0.0
  0
LINE
  5
B1
330
1F
100
AcDbEntity
  8
1
  6
Continuous
 62
     4
100
AcDbLine
 10
1157.9594403171
 20
1514.93597932046
 30
0.0
 11
1157.7094403171
 21
1513.93597932046
 31
0.0
  0
LINE
  5
B2
330
1F
100
AcDbEntity
  8
1
  6
Continuous
 62
     4
100
AcDbLine
 10
1157.9594403171
 20
1516.43597932046
 30
0.0
 11
1157.9594403171
 21
1514.93597932046
 31
0.0
  0
LINE
  5
B3
330
1F
100
AcDbEntity
  8
1
  6
Continuous
 62
     4
100
AcDbLine
 10
1157.7094403171
 20
1517.43597932046
 30
0.0
 11
1157.9594403171
 21
1516.43597932046
 31
0.0
  0
LINE
  5
B4
330
1F
100
AcDbEntity
  8
1
  6
Continuous
 62
     4
100
AcDbLine
 10
1156.9594403171
 20
1518.18597932046
 30
0.0
 11
1157.7094403171
 21
1517.43597932046
 31
0.0
  0
LINE
  5
B5
330
1F
100
AcDbEntity
  8
1
  6
Continuous
 62
     4
100
AcDbLine
 10
1155.7094403171
 20
1518.43597932046
 30
0.0
 11
1156.9594403171
 21
1518.18597932046
 31
0.0
  0
LINE
  5
B6
330
1F
100
AcDbEntity
  8
1
  6
Continuous
 62
     4
100
AcDbLine
 10
1151.9594403171
 20
1518.43597932046
 30
0.0
 11
1155.7094403171
 21
1518.43597932046
 31
0.0
  0
LINE
  5
B7
330
1F
100
AcDbEntity
  8
1
  6
Continuous
 62
     4
100
AcDbLine
 10
1151.9594403171
 20
1522.43597932046
 30
0.0
 11
1151.9594403171
 21
1518.43597932046
 31
0.0
  0
LINE
  5
B8
330
1F
100
AcDbEntity
  8
1
  6
Continuous
 62
     4
100
AcDbLine
 10
1157.4594403171
 20
1522.43597932046
 30
0.0
 11
1151.9594403171
 21
1522.43597932046
 31
0.0
  0
LINE
  5
B9
330
1F
100
AcDbEntity
  8
1
  6
Continuous
 62
     4
100
AcDbLine
 10
1142.9594403171
 20
1512.43597932046
 30
0.0
 11
1148.9594403171
 21
1512.43597932046
 31
0.0
  0
LINE
  5
BA
330
1F
100
AcDbEntity
  8
1
  6
Continuous
 62
     4
100
AcDbLine
 10
1148.4594403171
 20
1518.93597932046
 30
0.0
 11
1142.9594403171
 21
1512.43597932046
 31
0.0
  0
LINE
  5
BB
330
1F
100
AcDbEntity
  8
1
  6
Continuous
 62
     4
100
AcDbLine
 10
1148.9594403171
 20
1519.93597932046
 30
0.0
 11
1148.4594403171
 21
1518.93597932046
 31
0.0
  0
LINE
  5
BC
330
1F
100
AcDbEntity
  8
1
  6
Continuous
 62
     4
100
AcDbLine
 10
1148.9594403171
 20
1520.93597932046
 30
0.0
 11
1148.9594403171
 21
1519.93597932046
 31
0.0
  0
LINE
  5
BD
330
1F
100
AcDbEntity
  8
1
  6
Continuous
 62
     4
100
AcDbLine
 10
1148.4594403171
 20
1521.68597932046
 30
0.0
 11
1148.9594403171
 21
1520.93597932046
 31
0.0
  0
LINE
  5
BE
330
1F
100
AcDbEntity
  8
1
  6
Continuous
 62
     4
100
AcDbLine
 10
1147.7094403171
 20
1522.18597932046
 30
0.0
 11
1148.4594403171
 21
1521.68597932046
 31
0.0
  0
LINE
  5
BF
330
1F
100
AcDbEntity
  8
1
  6
Continuous
 62
     4
100
AcDbLine
 10
1146.7094403171
 20
1522.43597932046
 30
0.0
 11
1147.7094403171
 21
1522.18597932046
 31
0.0
  0
LINE
  5
C0
330
1F
100
AcDbEntity
  8
1
  6
Continuous
 62
     4
100
AcDbLine
 10
1145.2094403171
 20
1522.43597932046
 30
0.0
 11
1146.7094403171
 21
1522.43597932046
 31
0.0
  0
LINE
  5
C1
330
1F
100
AcDbEntity
  8
1
  6
Continuous
 62
     4
100
AcDbLine
 10
1144.2094403171
 20
1522.18597932046
 30
0.0
 11
1145.2094403171
 21
1522.43597932046
 31
0.0
  0
LINE
  5
C2
330
1F
100
AcDbEntity
  8
1
  6
Continuous
 62
     4
100
AcDbLine
 10
1143.4594403171
 20
1521.68597932046
 30
0.0
 11
1144.2094403171
 21
1522.18597932046
 31
0.0
  0
LINE
  5
C3
330
1F
100
AcDbEntity
  8
1
  6
Continuous
 62
     4
100
AcDbLine
 10
1142.9594403171
 20
1520.93597932046
 30
0.0
 11
1143.4594403171
 21
1521.68597932046
 31
0.0
  0
LINE
  5
C4
330
1F
100
AcDbEntity
  8
1
  6
Continuous
 62
     4
100
AcDbLine
 10
1134.9594403171
 20
1515.93597932046
 30
0.0
 11
1139.9594403171
 21
1515.93597932046
 31
0.0
  0
LINE
  5
C5
330
1F
100
AcDbEntity
  8
1
  6
Continuous
 62
     4
100
AcDbLine
 10
1131.9594403171
 20
1517.93597932046
 30
0.0
 11
1129.4594403171
 21
1517.93597932046
 31
0.0
  0
LINE
  5
C6
330
1F
100
AcDbEntity
  8
1
  6
Continuous
 62
     4
100
AcDbLine
 10
1131.9594403171
 20
1512.43597932046
 30
0.0
 11
1131.9594403171
 21
1517.93597932046
 31
0.0
  0
LINE
  5
C7
330
1F
100
AcDbEntity
  8
1
  6
Continuous
 62
     4
100
AcDbLine
 10
1127.7094403171
 20
1512.43597932046
 30
0.0
 11
1131.9594403171
 21
1512.43597932046
 31
0.0
  0
LINE
  5
C8
330
1F
100
AcDbEntity
  8
1
  6
Continuous
 62
     4
100
AcDbLine
 10
1126.9594403171
 20
1512.68597932046
 30
0.0
 11
1127.7094403171
 21
1512.43597932046
 31
0.0
  0
LINE
  5
C9
330
1F
100
AcDbEntity
  8
1
  6
Continuous
 62
     4
100
AcDbLine
 10
1125.9594403171
 20
1513.18597932046
 30
0.0
 11
1126.9594403171
 21
1512.68597932046
 31
0.0
  0
LINE
  5
CA
330
1F
100
AcDbEntity
  8
1
  6
Continuous
 62
     4
100
AcDbLine
 10
1125.4594403171
 20
1513.68597932046
 30
0.0
 11
1125.9594403171
 21
1513.18597932046
 31
0.0
  0
LINE
  5
CB
330
1F
100
AcDbEntity
  8
1
  6
Continuous
 62
     4
100
AcDbLine
 10
1125.2094403171
 20
1514.43597932046
 30
0.0
 11
1125.4594403171
 21
1513.68597932046
 31
0.0
  0
LINE
  5
CC
330
1F
100
AcDbEntity
  8
1
  6
Continuous
 62
     4
100
AcDbLine
 10
1124.9594403171
 20
1515.43597932046
 30
0.0
 11
1125.2094403171
 21
1514.43597932046
 31
0.0
  0
LINE
  5
CD
330
1F
100
AcDbEntity
  8
1
  6
Continuous
 62
     4
100
AcDbLine
 10
1124.9594403171
 20
1519.43597932046
 30
0.0
 11
1124.9594403171
 21
1515.43597932046
 31
0.0
  0
LINE
  5
CE
330
1F
100
AcDbEntity
  8
1
  6
Continuous
 62
     4
100
AcDbLine
 10
1125.2094403171
 20
1520.43597932046
 30
0.0
 11
1124.9594403171
 21
1519.43597932046
 31
0.0
  0
LINE
  5
CF
330
1F
100
AcDbEntity
  8
1
  6
Continuous
 62
     4
100
AcDbLine
 10
1125.4594403171
 20
1521.18597932046
 30
0.0
 11
1125.2094403171
 21
1520.43597932046
 31
0.0
  0
LINE
  5
D0
330
1F
100
AcDbEntity
  8
1
  6
Continuous
 62
     4
100
AcDbLine
 10
1125.9594403171
 20
1521.68597932046
 30
0.0
 11
1125.4594403171
 21
1521.18597932046
 31
0.0
  0
LINE
  5
D1
330
1F
100
AcDbEntity
  8
1
  6
Continuous
 62
     4
100
AcDbLine
 10
1126.7094403171
 20
1522.18597932046
 30
0.0
 11
1125.9594403171
 21
1521.68597932046
 31
0.0
  0
LINE
  5
D2
330
1F
100
AcDbEntity
  8
1
  6
Continuous
 62
     4
100
AcDbLine
 10
1127.7094403171
 20
1522.43597932046
 30
0.0
 11
1126.7094403171
 21
1522.18597932046
 31
0.0
  0
LINE
  5
D3
330
1F
100
AcDbEntity
  8
1
  6
Continuous
 62
     4
100
AcDbLine
 10
1131.9594403171
 20
1522.43597932046
 30
0.0
 11
1127.7094403171
 21
1522.43597932046
 31
0.0
  0
LINE
  5
D4
330
1F
100
AcDbEntity
  8
1
  6
Continuous
 62
     4
100
AcDbLine
 10
1119.9594403171
 20
1512.43597932046
 30
0.0
 11
1121.9594403171
 21
1522.43597932046
 31
0.0
  0
LINE
  5
D5
330
1F
100
AcDbEntity
  8
1
  6
Continuous
 62
     4
100
AcDbLine
 10
1117.4594403171
 20
1519.43597932046
 30
0.0
 11
1119.9594403171
 21
1512.43597932046
 31
0.0
  0
LINE
  5
D6
330
1F
100
AcDbEntity
  8
1
  6
Continuous
 62
     4
100
AcDbLine
 10
1114.9594403171
 20
1512.43597932046
 30
0.0
 11
1117.4594403171
 21
1519.43597932046
 31
0.0
  0
LINE
  5
D7
330
1F
100
AcDbEntity
  8
1
  6
Continuous
 62
     4
100
AcDbLine
 10
1112.9594403171
 20
1522.43597932046
 30
0.0
 11
1114.9594403171
 21
1512.43597932046
 31
0.0
  0
LINE
  5
D8
330
1F
100
AcDbEntity
  8
1
  6
Continuous
 62
     4
100
AcDbLine
 10
1108.4594403171
 20
1516.43597932046
 30
0.0
 11
1108.4594403171
 21
1512.43597932046
 31
0.0
  0
LINE
  5
D9
330
1F
100
AcDbEntity
  8
1
  6
Continuous
 62
     4
100
AcDbLine
 10
1103.9594403171
 20
1514.43597932046
 30
0.0
 11
1109.9594403171
 21
1514.43597932046
 31
0.0
  0
LINE
  5
DA
330
1F
100
AcDbEntity
  8
1
  6
Continuous
 62
     4
100
AcDbLine
 10
1108.4594403171
 20
1522.43597932046
 30
0.0
 11
1103.9594403171
 21
1514.43597932046
 31
0.0
  0
LINE
  5
DB
330
1F
100
AcDbEntity
  8
1
  6
Continuous
 62
     4
100
AcDbLine
 10
1094.4594403171
 20
1517.93597932046
 30
0.0
 11
1094.4594403171
 21
1522.43597932046
 31
0.0
  0
LINE
  5
DC
330
1F
100
AcDbEntity
  8
1
  6
Continuous
 62
     4
100
AcDbLine
 10
1099.2094403171
 20
1518.18597932046
 30
0.0
 11
1098.4594403171
 21
1517.93597932046
 31
0.0
  0
LINE
  5
DD
330
1F
100
AcDbEntity
  8
1
  6
Continuous
 62
     4
100
AcDbLine
 10
1099.9594403171
 20
1518.68597932046
 30
0.0
 11
1099.2094403171
 21
1518.18597932046
 31
0.0
  0
LINE
  5
DE
330
1F
100
AcDbEntity
  8
1
  6
Continuous
 62
     4
100
AcDbLine
 10
1100.4594403171
 20
1519.68597932046
 30
0.0
 11
1099.9594403171
 21
1518.68597932046
 31
0.0
  0
LINE
  5
DF
330
1F
100
AcDbEntity
  8
1
  6
Continuous
 62
     4
100
AcDbLine
 10
1100.4594403171
 20
1520.43597932046
 30
0.0
 11
1100.4594403171
 21
1519.68597932046
 31
0.0
  0
LINE
  5
E0
330
1F
100
AcDbEntity
  8
1
  6
Continuous
 62
     4
100
AcDbLine
 10
1100.2094403171
 20
1521.43597932046
 30
0.0
 11
1100.4594403171
 21
1520.43597932046
 31
0.0
  0
LINE
  5
E1
330
1F
100
AcDbEntity
  8
1
  6
Continuous
 62
     4
100
AcDbLine
 10
1099.4594403171
 20
1522.18597932046
 30
0.0
 11
1100.2094403171
 21
1521.43597932046
 31
0.0
  0
LINE
  5
E2
330
1F
100
AcDbEntity
  8
1
  6
Continuous
 62
     4
100
AcDbLine
 10
1098.2094403171
 20
1522.43597932046
 30
0.0
 11
1099.4594403171
 21
1522.18597932046
 31
0.0
  0
LINE
  5
E3
330
1F
100
AcDbEntity
  8
1
  6
Continuous
 62
     4
100
AcDbLine
 10
1094.4594403171
 20
1522.43597932046
 30
0.0
 11
1098.2094403171
 21
1522.43597932046
 31
0.0
  0
LINE
  5
E4
330
1F
100
AcDbEntity
  8
1
  6
Continuous
 62
     4
100
AcDbLine
 10
1094.4594403171
 20
1512.43597932046
 30
0.0
 11
1094.4594403171
 21
1517.93597932046
 31
0.0
  0
LINE
  5
E5
330
1F
100
AcDbEntity
  8
1
  6
Continuous
 62
     4
100
AcDbLine
 10
1098.9594403171
 20
1512.43597932046
 30
0.0
 11
1094.4594403171
 21
1512.43597932046
 31
0.0
  0
LINE
  5
E6
330
1F
100
AcDbEntity
  8
1
  6
Continuous
 62
     4
100
AcDbLine
 10
1099.9594403171
 20
1512.93597932046
 30
0.0
 11
1098.9594403171
 21
1512.43597932046
 31
0.0
  0
LINE
  5
E7
330
1F
100
AcDbEntity
  8
1
  6
Continuous
 62
     4
100
AcDbLine
 10
1100.4594403171
 20
1513.43597932046
 30
0.0
 11
1099.9594403171
 21
1512.93597932046
 31
0.0
  0
LINE
  5
E8
330
1F
100
AcDbEntity
  8
1
  6
Continuous
 62
     4
100
AcDbLine
 10
1100.9594403171
 20
1514.43597932046
 30
0.0
 11
1100.4594403171
 21
1513.43597932046
 31
0.0
  0
LINE
  5
E9
330
1F
100
AcDbEntity
  8
1
  6
Continuous
 62
     4
100
AcDbLine
 10
1100.9594403171
 20
1515.68597932046
 30
0.0
 11
1100.9594403171
 21
1514.43597932046
 31
0.0
  0
LINE
  5
EA
330
1F
100
AcDbEntity
  8
1
  6
Continuous
 62
     4
100
AcDbLine
 10
1100.4594403171
 20
1516.93597932046
 30
0.0
 11
1100.9594403171
 21
1515.68597932046
 31
0.0
  0
LINE
  5
EB
330
1F
100
AcDbEntity
  8
1
  6
Continuous
 62
     4
100
AcDbLine
 10
1099.9594403171
 20
1517.43597932046
 30
0.0
 11
1100.4594403171
 21
1516.93597932046
 31
0.0
  0
LINE
  5
EC
330
1F
100
AcDbEntity
  8
1
  6
Continuous
 62
     4
100
AcDbLine
 10
1098.9594403171
 20
1517.93597932046
 30
0.0
 11
1099.9594403171
 21
1517.43597932046
 31
0.0
  0
LINE
  5
ED
330
1F
100
AcDbEntity
  8
1
  6
Continuous
 62
     4
100
AcDbLine
 10
1098.4594403171
 20
1517.93597932046
 30
0.0
 11
1098.9594403171
 21
1517.93597932046
 31
0.0
  0
LINE
  5
EE
330
1F
100
AcDbEntity
  8
1
  6
Continuous
 62
     4
100
AcDbLine
 10
1094.4594403171
 20
1517.93597932046
 30
0.0
 11
1098.4594403171
 21
1517.93597932046
 31
0.0
  0
LINE
  5
EF
330
1F
100
AcDbEntity
  8
1
  6
Continuous
 62
     4
100
AcDbLine
 10
1086.4594403171
 20
1515.93597932046
 30
0.0
 11
1091.4594403171
 21
1515.93597932046
 31
0.0
  0
LINE
  5
F0
330
1F
100
AcDbEntity
  8
1
  6
Continuous
 62
     4
100
AcDbLine
 10
1076.4594403171
 20
1517.93597932046
 30
0.0
 11
1076.4594403171
 21
1517.43597932046
 31
0.0
  0
LINE
  5
F1
330
1F
100
AcDbEntity
  8
1
  6
Continuous
 62
     4
100
AcDbLine
 10
1076.4594403171
 20
1512.43597932046
 30
0.0
 11
1083.4594403171
 21
1512.43597932046
 31
0.0
  0
LINE
  5
F2
330
1F
100
AcDbEntity
  8
1
  6
Continuous
 62
     4
100
AcDbLine
 10
1076.4594403171
 20
1517.43597932046
 30
0.0
 11
1076.4594403171
 21
1512.43597932046
 31
0.0
  0
LINE
  5
F3
330
1F
100
AcDbEntity
  8
1
  6
Continuous
 62
     4
100
AcDbLine
 10
1076.4594403171
 20
1522.43597932046
 30
0.0
 11
1076.4594403171
 21
1517.93597932046
 31
0.0
  0
LINE
  5
F4
330
1F
100
AcDbEntity
  8
1
  6
Continuous
 62
     4
100
AcDbLine
 10
1083.4594403171
 20
1522.43597932046
 30
0.0
 11
1076.4594403171
 21
1522.43597932046
 31
0.0
  0
LINE
  5
F5
330
1F
100
AcDbEntity
  8
1
  6
Continuous
 62
     4
100
AcDbLine
 10
1082.4594403171
 20
1517.93597932046
 30
0.0
 11
1076.4594403171
 21
1517.93597932046
 31
0.0
  0
LINE
  5
F6
330
1F
100
AcDbEntity
  8
1
  6
Continuous
 62
     4
100
AcDbLine
 10
1073.4594403171
 20
1522.43597932046
 30
0.0
 11
1073.4594403171
 21
1512.43597932046
 31
0.0
  0
LINE
  5
F7
330
1F
100
AcDbEntity
  8
1
  6
Continuous
 62
     4
100
AcDbLine
 10
1069.9594403171
 20
1516.93597932046
 30
0.0
 11
1073.4594403171
 21
1522.43597932046
 31
0.0
  0
LINE
  5
F8
330
1F
100
AcDbEntity
  8
1
  6
Continuous
 62
     4
100
AcDbLine
 10
1066.4594403171
 20
1522.43597932046
 30
0.0
 11
1069.9594403171
 21
1516.93597932046
 31
0.0
  0
LINE
  5
F9
330
1F
100
AcDbEntity
  8
1
  6
Continuous
 62
     4
100
AcDbLine
 10
1066.4594403171
 20
1512.43597932046
 30
0.0
 11
1066.4594403171
 21
1522.43597932046
 31
0.0
  0
LINE
  5
FA
330
1F
100
AcDbEntity
  8
1
  6
Continuous
 62
     4
100
AcDbLine
 10
1060.2094403171
 20
1522.43597932046
 30
0.0
 11
1063.4594403171
 21
1522.43597932046
 31
0.0
  0
LINE
  5
FB
330
1F
100
AcDbEntity
  8
1
  6
Continuous
 62
     4
100
AcDbLine
 10
1059.2094403171
 20
1522.18597932046
 30
0.0
 11
1060.2094403171
 21
1522.43597932046
 31
0.0
  0
LINE
  5
FC
330
1F
100
AcDbEntity
  8
1
  6
Continuous
 62
     4
100
AcDbLine
 10
1058.4594403171
 20
1521.68597932046
 30
0.0
 11
1059.2094403171
 21
1522.18597932046
 31
0.0
  0
LINE
  5
FD
330
1F
100
AcDbEntity
  8
1
  6
Continuous
 62
     4
100
AcDbLine
 10
1057.9594403171
 20
1521.18597932046
 30
0.0
 11
1058.4594403171
 21
1521.68597932046
 31
0.0
  0
LINE
  5
FE
330
1F
100
AcDbEntity
  8
1
  6
Continuous
 62
     4
100
AcDbLine
 10
1057.7094403171
 20
1520.43597932046
 30
0.0
 11
1057.9594403171
 21
1521.18597932046
 31
0.0
  0
LINE
  5
FF
330
1F
100
AcDbEntity
  8
1
  6
Continuous
 62
     4
100
AcDbLine
 10
1057.4594403171
 20
1519.43597932046
 30
0.0
 11
1057.7094403171
 21
1520.43597932046
 31
0.0
  0
LINE
  5
100
330
1F
100
AcDbEntity
  8
1
  6
Continuous
 62
     4
100
AcDbLine
 10
1057.4594403171
 20
1515.43597932046
 30
0.0
 11
1057.4594403171
 21
1519.43597932046
 31
0.0
  0
LINE
  5
101
330
1F
100
AcDbEntity
  8
1
  6
Continuous
 62
     4
100
AcDbLine
 10
1057.7094403171
 20
1514.43597932046
 30
0.0
 11
1057.4594403171
 21
1515.43597932046
 31
0.0
  0
LINE
  5
102
330
1F
100
AcDbEntity
  8
1
  6
Continuous
 62
     4
100
AcDbLine
 10
1057.9594403171
 20
1513.68597932046
 30
0.0
 11
1057.7094403171
 21
1514.43597932046
 31
0.0
  0
LINE
  5
103
330
1F
100
AcDbEntity
  8
1
  6
Continuous
 62
     4
100
AcDbLine
 10
1058.4594403171
 20
1513.18597932046
 30
0.0
 11
1057.9594403171
 21
1513.68597932046
 31
0.0
  0
LINE
  5
104
330
1F
100
AcDbEntity
  8
1
  6
Continuous
 62
     4
100
AcDbLine
 10
1059.2094403171
 20
1512.68597932046
 30
0.0
 11
1058.4594403171
 21
1513.18597932046
 31
0.0
  0
LINE
  5
105
330
1F
100
AcDbEntity
  8
1
  6
Continuous
 62
     4
100
AcDbLine
 10
1060.2094403171
 20
1512.43597932046
 30
0.0
 11
1059.2094403171
 21
1512.68597932046
 31
0.0
  0
LINE
  5
106
330
1F
100
AcDbEntity
  8
1
  6
Continuous
 62
     4
100
AcDbLine
 10
1063.4594403171
 20
1512.43597932046
 30
0.0
 11
1060.2094403171
 21
1512.43597932046
 31
0.0
  0
LINE
  5
126
330
1F
100
AcDbEntity
  8
1
  6
Continuous
 62
     4
100
AcDbLine
 10
555.230577686248
 20
1445.434354925
 30
0.0
 11
553.269915852609
 21
1443.02562577841
 31
0.0
  0
LINE
  5
127
330
1F
100
AcDbEntity
  8
1
  6
Continuous
 62
     4
100
AcDbLine
 10
555.230577686248
 20
1445.434354925
 30
0.0
 11
554.736959303381
 21
1442.3680033764
 31
0.0
  0
LINE
  5
128
330
1F
100
AcDbEntity
  8
1
  6
Continuous
 62
     4
100
AcDbLine
 10
997.458561480922
 20
1445.43435507987
 30
0.0
 11
998.201803324511
 21
1442.4187684886
 31
0.0
  0
LINE
  5
129
330
1F
100
AcDbEntity
  8
1
  6
Continuous
 62
     4
100
AcDbLine
 10
997.458561480922
 20
1445.43435507987
 30
0.0
 11
999.610021094262
 21
1443.19440140631
 31
0.0
  0
LINE
  5
12A
330
1F
100
AcDbEntity
  8
1
  6
Continuous
 62
     3
100
AcDbLine
 10
921.639249139938
 20
1436.22834118377
 30
0.0
 11
921.639249139938
 21
1496.22834118377
 31
0.0
  0
LINE
  5
12B
330
1F
100
AcDbEntity
  8
1
  6
Continuous
 62
     3
100
AcDbLine
 10
921.639249139938
 20
1436.22834118377
 30
0.0
 11
908.639249139938
 21
1436.22834118377
 31
0.0
  0
LINE
  5
12C
330
1F
100
AcDbEntity
  8
1
  6
Continuous
 62
     3
100
AcDbLine
 10
909.505274543722
 20
1477.36386990943
 30
0.0
 11
909.505274543722
 21
1479.56753674535
 31
0.0
  0
LINE
  5
12D
330
1F
100
AcDbEntity
  8
1
  6
Continuous
 62
     3
100
AcDbLine
 10
920.773223736154
 20
1477.36386990943
 30
0.0
 11
909.505274543722
 21
1477.36386990943
 31
0.0
  0
LINE
  5
12E
330
1F
100
AcDbEntity
  8
1
  6
Continuous
 62
     3
100
AcDbLine
 10
920.773223736154
 20
1479.56753674535
 30
0.0
 11
920.773223736154
 21
1477.36386990943
 31
0.0
  0
LINE
  5
12F
330
1F
100
AcDbEntity
  8
1
  6
Continuous
 62
     3
100
AcDbLine
 10
909.505274543722
 20
1479.56753674535
 30
0.0
 11
920.773223736154
 21
1479.56753674535
 31
0.0
  0
LINE
  5
130
330
1F
100
AcDbEntity
  8
1
  6
Continuous
 62
     3
100
AcDbLine
 10
909.505274543722
 20
1452.88914562218
 30
0.0
 11
909.505274543722
 21
1455.09281245811
 31
0.0
  0
LINE
  5
131
330
1F
100
AcDbEntity
  8
1
  6
Continuous
 62
     3
100
AcDbLine
 10
920.773223736154
 20
1452.88914562218
 30
0.0
 11
909.505274543722
 21
1452.88914562218
 31
0.0
  0
LINE
  5
132
330
1F
100
AcDbEntity
  8
1
  6
Continuous
 62
     3
100
AcDbLine
 10
920.773223736154
 20
1455.09281245811
 30
0.0
 11
920.773223736154
 21
1452.88914562218
 31
0.0
  0
LINE
  5
133
330
1F
100
AcDbEntity
  8
1
  6
Continuous
 62
     3
100
AcDbLine
 10
909.505274543722
 20
1455.09281245811
 30
0.0
 11
920.773223736154
 21
1455.09281245811
 31
0.0
  0
LINE
  5
134
330
1F
100
AcDbEntity
  8
1
  6
Continuous
 62
     3
100
AcDbLine
 10
908.639249139938
 20
1496.22834118377
 30
0.0
 11
908.639249139938
 21
1436.22834118377
 31
0.0
  0
LINE
  5
135
330
1F
100
AcDbEntity
  8
1
  6
Continuous
 62
     3
100
AcDbLine
 10
908.639249139938
 20
1496.22834118377
 30
0.0
 11
921.639249139938
 21
1496.22834118377
 31
0.0
  0
LINE
  5
136
330
1F
100
AcDbEntity
  8
100
  6
Continuous
 62
     3
100
AcDbLine
 10
604.107555170722
 20
1439.72834138827
 30
0.0
 11
611.173337587759
 21
1428.42073346069
 31
0.0
  0
LINE
  5
137
330
1F
100
AcDbEntity
  8
100
  6
Continuous
 62
     3
100
AcDbLine
 10
915.67638929184
 20
1254.82834558172
 30
0.0
 11
636.17636860284
 21
1254.82834558172
 31
0.0
  0
LINE
  5
138
330
1F
100
AcDbEntity
  8
100
  6
Continuous
 62
     3
100
AcDbLine
 10
565.4763777466
 20
1463.30949667707
 30
0.0
 11
565.4763777466
 21
1440.22834147272
 31
0.0
  0
LINE
  5
139
330
1F
100
AcDbEntity
  8
100
  6
Continuous
 62
     3
100
AcDbLine
 10
565.4763777466
 20
1492.22834049512
 30
0.0
 11
565.4763777466
 21
1469.14743648086
 31
0.0
  0
LINE
  5
13A
330
1F
100
AcDbEntity
  8
100
  6
Continuous
 62
     3
100
AcDbLine
 10
607.476376957
 20
1320.2283439708
 30
0.0
 11
617.976376374
 21
1320.2283439708
 31
0.0
  0
LINE
  5
13B
330
1F
100
AcDbEntity
  8
100
  6
Continuous
 62
     3
100
AcDbLine
 10
565.476378318634
 20
1291.7283445066
 30
0.0
 11
568.9763776808
 21
1291.7283445066
 31
0.0
  0
LINE
  5
13C
330
1F
100
AcDbEntity
  8
100
  6
Continuous
 62
     3
100
AcDbLine
 10
565.4763777466
 20
1295.7283444314
 30
0.0
 11
568.9763776808
 21
1295.7283444314
 31
0.0
  0
LINE
  5
13D
330
1F
100
AcDbEntity
  8
100
  6
Continuous
 62
     3
100
AcDbLine
 10
571.476377646058
 20
1469.18334115747
 30
0.0
 11
571.4763776338
 21
1492.72833999577
 31
0.0
  0
LINE
  5
13E
330
1F
100
AcDbEntity
  8
100
  6
Continuous
 62
     3
100
AcDbLine
 10
571.476377661392
 20
1439.72834202777
 30
0.0
 11
571.476377649135
 21
1463.27334086608
 31
0.0
  0
LINE
  5
13F
330
1F
100
AcDbEntity
  8
100
  6
Continuous
 62
     3
100
AcDbLine
 10
617.976376401592
 20
1439.72834111647
 30
0.0
 11
569.9763780944
 21
1439.72834205716
 31
0.0
  0
LINE
  5
140
330
1F
100
AcDbEntity
  8
100
  6
Continuous
 62
     3
100
AcDbLine
 10
617.976376377077
 20
1463.27334086783
 30
0.0
 11
617.976376401592
 21
1439.72834156021
 31
0.0
  0
LINE
  5
141
330
1F
100
AcDbEntity
  8
100
  6
Continuous
 62
     3
100
AcDbLine
 10
617.976376390139
 20
1450.72834132556
 30
0.0
 11
638.9763763648
 21
1450.72834134742
 31
0.0
  0
LINE
  5
142
330
1F
100
AcDbEntity
  8
100
  6
Continuous
 62
     3
100
AcDbLine
 10
617.976376374
 20
1469.18334115572
 30
0.0
 11
617.976376374
 21
1492.72834048572
 31
0.0
  0
LINE
  5
143
330
1F
100
AcDbEntity
  8
100
  6
Continuous
 62
     3
100
AcDbLine
 10
617.976376374
 20
1492.72834048572
 30
0.0
 11
596.4763771638
 21
1492.72834048572
 31
0.0
  0
LINE
  5
144
330
1F
100
AcDbEntity
  8
100
  6
Continuous
 62
     3
100
AcDbLine
 10
596.4763771638
 20
1492.72834048572
 30
0.0
 11
569.9763780944
 21
1492.72833996638
 31
0.0
  0
LINE
  5
145
330
1F
100
AcDbEntity
  8
100
  6
Continuous
 62
     3
100
AcDbLine
 10
571.4763776338
 20
1440.22834147272
 30
0.0
 11
565.4763777466
 21
1440.22834147272
 31
0.0
  0
LINE
  5
146
330
1F
100
AcDbEntity
  8
100
  6
Continuous
 62
     3
100
AcDbLine
 10
571.4763776338
 20
1492.22834049512
 30
0.0
 11
565.4763777466
 21
1492.22834049512
 31
0.0
  0
LINE
  5
147
330
1F
100
AcDbEntity
  8
100
  6
Continuous
 62
     3
100
AcDbLine
 10
568.9763776808
 20
1319.7283439802
 30
0.0
 11
568.9763776808
 21
1264.22834466365
 31
0.0
  0
LINE
  5
148
330
1F
100
AcDbEntity
  8
100
  6
Continuous
 62
     3
100
AcDbLine
 10
617.976376374
 20
1309.2283441776
 30
0.0
 11
617.976376374
 21
1320.2283439708
 31
0.0
  0
LINE
  5
149
330
1F
100
AcDbEntity
  8
100
  6
Continuous
 62
     3
100
AcDbLine
 10
565.4763777466
 20
1319.7283439802
 30
0.0
 11
565.4763777466
 21
1295.7283444314
 31
0.0
  0
LINE
  5
14A
330
1F
100
AcDbEntity
  8
100
  6
Continuous
 62
     3
100
AcDbLine
 10
589.976377286002
 20
1350.2283420928
 30
0.0
 11
589.976377286002
 21
1347.2283532288
 31
0.0
  0
LINE
  5
14B
330
1F
100
AcDbEntity
  8
100
  6
Continuous
 62
     3
100
AcDbLine
 10
602.976377041602
 20
1350.2283420928
 30
0.0
 11
602.976377041601
 21
1347.2283532288
 31
0.0
  0
LINE
  5
14C
330
1F
100
AcDbEntity
  8
100
  6
Continuous
 62
     3
100
AcDbLine
 10
566.156003535218
 20
1367.22834177319
 30
0.0
 11
626.796750792383
 21
1367.22834177322
 31
0.0
  0
LINE
  5
14D
330
1F
100
AcDbEntity
  8
100
  6
Continuous
 62
     3
100
AcDbLine
 10
626.796750792383
 20
1350.2283420928
 30
0.0
 11
566.156003535218
 21
1350.2283420928
 31
0.0
  0
LINE
  5
14E
330
1F
100
AcDbEntity
  8
100
  6
Continuous
 62
     3
100
AcDbLine
 10
613.589624866667
 20
1426.72834254939
 30
0.0
 11
619.363127449925
 21
1426.72834225655
 31
0.0
  0
LINE
  5
14F
330
1F
100
AcDbEntity
  8
100
  6
Continuous
 62
     3
100
AcDbLine
 10
585.895076974351
 20
1334.22834512229
 30
0.0
 11
585.999265615782
 21
1336.21638287484
 31
0.0
  0
LINE
  5
150
330
1F
100
AcDbEntity
  8
100
  6
Continuous
 62
     3
100
AcDbLine
 10
586.2263773565
 20
1336.60975194876
 30
0.0
 11
585.999262571072
 21
1336.21637760125
 31
0.0
  0
LINE
  5
151
330
1F
100
AcDbEntity
  8
1
  6
Continuous
 62
     3
100
AcDbLine
 10
587.160877338931
 20
1338.228353398
 30
0.0
 11
586.2263773565
 21
1336.60975194876
 31
0.0
  0
LINE
  5
152
330
1F
100
AcDbEntity
  8
100
  6
Continuous
 62
     3
100
AcDbLine
 10
586.2263773565
 20
1336.60975194876
 30
0.0
 11
586.2263773565
 21
1340.54995551365
 31
0.0
  0
LINE
  5
153
330
1F
100
AcDbEntity
  8
100
  6
Continuous
 62
     3
100
AcDbLine
 10
606.7263769711
 20
1338.228353398
 30
0.0
 11
586.2263773565
 21
1338.228353398
 31
0.0
  0
LINE
  5
154
330
1F
100
AcDbEntity
  8
100
  6
Continuous
 62
     3
100
AcDbLine
 10
586.2263773565
 20
1340.54995551365
 30
0.0
 11
586.576377349856
 21
1347.2283532288
 31
0.0
  0
LINE
  5
155
330
1F
100
AcDbEntity
  8
1
  6
Continuous
 62
     3
100
AcDbLine
 10
587.160877338931
 20
1338.228353398
 30
0.0
 11
587.160877338931
 21
1347.2283532288
 31
0.0
  0
LINE
  5
156
330
1F
100
AcDbEntity
  8
100
  6
Continuous
 62
     3
100
AcDbLine
 10
606.7263769711
 20
1336.60975194876
 30
0.0
 11
606.953491756528
 21
1336.21637760125
 31
0.0
  0
LINE
  5
157
330
1F
100
AcDbEntity
  8
1
  6
Continuous
 62
     3
100
AcDbLine
 10
605.791876988669
 20
1338.228353398
 30
0.0
 11
606.7263769711
 21
1336.60975194876
 31
0.0
  0
LINE
  5
158
330
1F
100
AcDbEntity
  8
100
  6
Continuous
 62
     3
100
AcDbLine
 10
606.7263769711
 20
1336.60975194876
 30
0.0
 11
606.7263769711
 21
1340.54995551365
 31
0.0
  0
LINE
  5
159
330
1F
100
AcDbEntity
  8
100
  6
Continuous
 62
     3
100
AcDbLine
 10
606.7263769711
 20
1340.54995551365
 30
0.0
 11
606.376376977626
 21
1347.2283532288
 31
0.0
  0
LINE
  5
15A
330
1F
100
AcDbEntity
  8
1
  6
Continuous
 62
     3
100
AcDbLine
 10
605.791876988669
 20
1338.228353398
 30
0.0
 11
605.791876988669
 21
1347.2283532288
 31
0.0
  0
LINE
  5
15B
330
1F
100
AcDbEntity
  8
100
  6
Continuous
 62
     3
100
AcDbLine
 10
582.976374202334
 20
1323.2283426937
 30
0.0
 11
609.976373694734
 21
1323.2283426937
 31
0.0
  0
LINE
  5
15C
330
1F
100
AcDbEntity
  8
100
  6
Continuous
 62
     3
100
AcDbLine
 10
582.976374202334
 20
1323.2283426937
 30
0.0
 11
582.976374202334
 21
1334.22834512229
 31
0.0
  0
LINE
  5
15D
330
1F
100
AcDbEntity
  8
100
  6
Continuous
 62
     3
100
AcDbLine
 10
609.976373694734
 20
1323.2283426937
 30
0.0
 11
609.976373694734
 21
1334.22834512229
 31
0.0
  0
LINE
  5
15E
330
1F
100
AcDbEntity
  8
100
  6
Continuous
 62
     3
100
AcDbLine
 10
607.057677353249
 20
1334.22834512229
 30
0.0
 11
606.953488711818
 21
1336.21638287484
 31
0.0
  0
LINE
  5
15F
330
1F
100
AcDbEntity
  8
100
  6
Continuous
 62
     3
100
AcDbLine
 10
586.576377349856
 20
1347.2283532288
 30
0.0
 11
606.376376977626
 21
1347.2283532288
 31
0.0
  0
LINE
  5
160
330
1F
100
AcDbEntity
  8
100
  6
Continuous
 62
     3
100
AcDbLine
 10
624.543030198547
 20
1278.2283447604
 30
0.0
 11
638.976377095
 21
1278.2283447604
 31
0.0
  0
LINE
  5
161
330
1F
100
AcDbEntity
  8
100
  6
Continuous
 62
     3
100
AcDbLine
 10
617.976376374
 20
1309.2283441776
 30
0.0
 11
638.976377095
 21
1309.2283441776
 31
0.0
  0
LINE
  5
162
330
1F
100
AcDbEntity
  8
100
  6
Continuous
 62
     3
100
AcDbLine
 10
571.4763776338
 20
1320.2283439708
 30
0.0
 11
571.4763776338
 21
1264.22834437355
 31
0.0
  0
LINE
  5
163
330
1F
100
AcDbEntity
  8
100
  6
Continuous
 62
     3
100
AcDbLine
 10
607.476376957
 20
1320.2283439708
 30
0.0
 11
607.476376957
 21
1323.2283426937
 31
0.0
  0
LINE
  5
164
330
1F
100
AcDbEntity
  8
100
  6
Continuous
 62
     3
100
AcDbLine
 10
585.4763773706
 20
1320.2283439708
 30
0.0
 11
571.4763776338
 21
1320.2283439708
 31
0.0
  0
LINE
  5
165
330
1F
100
AcDbEntity
  8
100
  6
Continuous
 62
     3
100
AcDbLine
 10
565.476378318634
 20
1264.2283450236
 30
0.0
 11
624.476376100234
 21
1264.2283450236
 31
0.0
  0
LINE
  5
166
330
1F
100
AcDbEntity
  8
100
  6
Continuous
 62
     3
100
AcDbLine
 10
585.4763773706
 20
1320.2283439708
 30
0.0
 11
585.4763773706
 21
1323.2283426937
 31
0.0
  0
LINE
  5
167
330
1F
100
AcDbEntity
  8
100
  6
Continuous
 62
     3
100
AcDbLine
 10
565.476378318634
 20
1291.7283445066
 30
0.0
 11
565.476378318634
 21
1264.2283450236
 31
0.0
  0
LINE
  5
168
330
1F
100
AcDbEntity
  8
100
  6
Continuous
 62
     3
100
AcDbLine
 10
622.249878995258
 20
1500.72833942173
 30
0.0
 11
619.363127449925
 21
1495.72833966215
 31
0.0
  0
LINE
  5
169
330
1F
100
AcDbEntity
  8
100
  6
Continuous
 62
     3
100
AcDbLine
 10
619.363127449925
 20
1495.72833966215
 30
0.0
 11
613.589624866667
 21
1495.72833995499
 31
0.0
  0
LINE
  5
16A
330
1F
100
AcDbEntity
  8
100
  6
Continuous
 62
     3
100
AcDbLine
 10
613.589624866667
 20
1495.72833995499
 30
0.0
 11
610.702873828542
 21
1500.72834000741
 31
0.0
  0
LINE
  5
16B
330
1F
100
AcDbEntity
  8
100
  6
Continuous
 62
     3
100
AcDbLine
 10
610.702873828542
 20
1500.72834000741
 30
0.0
 11
613.589625373875
 21
1505.72833976699
 31
0.0
  0
LINE
  5
16C
330
1F
100
AcDbEntity
  8
100
  6
Continuous
 62
     3
100
AcDbLine
 10
613.589625373875
 20
1505.72833976699
 30
0.0
 11
619.363127957133
 21
1505.72833947415
 31
0.0
  0
LINE
  5
16D
330
1F
100
AcDbEntity
  8
100
  6
Continuous
 62
     3
100
AcDbLine
 10
619.363127957133
 20
1505.72833947415
 30
0.0
 11
622.249878995258
 21
1500.72833942173
 31
0.0
  0
LINE
  5
16E
330
1F
100
AcDbEntity
  8
100
  6
Continuous
 62
     3
100
AcDbLine
 10
622.249878995258
 20
1431.72834201613
 30
0.0
 11
619.363127449925
 21
1426.72834225655
 31
0.0
  0
LINE
  5
16F
330
1F
100
AcDbEntity
  8
100
  6
Continuous
 62
     3
100
AcDbLine
 10
613.589624866667
 20
1426.72834254939
 30
0.0
 11
610.702873828542
 21
1431.72834260181
 31
0.0
  0
LINE
  5
170
330
1F
100
AcDbEntity
  8
100
  6
Continuous
 62
     3
100
AcDbLine
 10
610.702873828542
 20
1431.72834260181
 30
0.0
 11
613.589625373875
 21
1436.72834236139
 31
0.0
  0
LINE
  5
171
330
1F
100
AcDbEntity
  8
100
  6
Continuous
 62
     3
100
AcDbLine
 10
613.589625373875
 20
1436.72834236139
 30
0.0
 11
619.363127957133
 21
1436.72834206855
 31
0.0
  0
LINE
  5
172
330
1F
100
AcDbEntity
  8
100
  6
Continuous
 62
     3
100
AcDbLine
 10
619.363127957133
 20
1436.72834206855
 30
0.0
 11
622.249878995258
 21
1431.72834201613
 31
0.0
  0
LINE
  5
173
330
1F
100
AcDbEntity
  8
100
  6
Continuous
 62
     3
100
AcDbLine
 10
579.249880612058
 20
1439.72834171533
 30
0.0
 11
576.363129066725
 21
1434.72834195575
 31
0.0
  0
LINE
  5
174
330
1F
100
AcDbEntity
  8
100
  6
Continuous
 62
     3
100
AcDbLine
 10
576.363129066725
 20
1434.72834195575
 30
0.0
 11
570.589626483467
 21
1434.72834224859
 31
0.0
  0
LINE
  5
175
330
1F
100
AcDbEntity
  8
100
  6
Continuous
 62
     3
100
AcDbLine
 10
570.589626483467
 20
1434.72834224859
 30
0.0
 11
567.702875445342
 21
1439.72834230101
 31
0.0
  0
LINE
  5
176
330
1F
100
AcDbEntity
  8
100
  6
Continuous
 62
     3
100
AcDbLine
 10
567.702875445342
 20
1439.72834230101
 30
0.0
 11
567.991550135543
 21
1440.22834147272
 31
0.0
  0
LINE
  5
177
330
1F
100
AcDbEntity
  8
100
  6
Continuous
 62
     3
100
AcDbLine
 10
567.991550438215
 20
1492.22834049512
 30
0.0
 11
567.702875445342
 21
1492.72834030821
 31
0.0
  0
LINE
  5
178
330
1F
100
AcDbEntity
  8
100
  6
Continuous
 62
     3
100
AcDbLine
 10
567.702875445342
 20
1492.72834030821
 30
0.0
 11
570.589626990675
 21
1497.72834006779
 31
0.0
  0
LINE
  5
179
330
1F
100
AcDbEntity
  8
100
  6
Continuous
 62
     3
100
AcDbLine
 10
570.589626990675
 20
1497.72834006779
 30
0.0
 11
576.363129573933
 21
1497.72833977495
 31
0.0
  0
LINE
  5
17A
330
1F
100
AcDbEntity
  8
100
  6
Continuous
 62
     3
100
AcDbLine
 10
576.363129573933
 20
1497.72833977495
 30
0.0
 11
579.249880612058
 21
1492.72833972253
 31
0.0
  0
LINE
  5
17B
330
1F
100
AcDbEntity
  8
100
  6
Continuous
 62
     3
100
AcDbLine
 10
617.976376374
 20
1481.72834072037
 30
0.0
 11
638.9763763648
 21
1481.72834072037
 31
0.0
  0
LINE
  5
17C
330
1F
100
AcDbEntity
  8
100
  6
Continuous
 62
     3
100
AcDbLine
 10
622.903713959433
 20
1435.0827171677
 30
0.0
 11
622.718423793423
 21
1431.41315736631
 31
0.0
  0
LINE
  5
17D
330
1F
100
AcDbEntity
  8
100
  6
Continuous
 62
     3
100
AcDbLine
 10
622.903713959433
 20
1435.0827171677
 30
0.0
 11
623.693721604914
 21
1450.72834133151
 31
0.0
  0
LINE
  5
17E
330
1F
100
AcDbEntity
  8
100
  6
Continuous
 62
     3
100
AcDbLine
 10
622.903713959434
 20
1497.37396485584
 30
0.0
 11
623.693721603482
 21
1481.72834072037
 31
0.0
  0
LINE
  5
17F
330
1F
100
AcDbEntity
  8
100
  6
Continuous
 62
     3
100
AcDbLine
 10
622.718423793423
 20
1501.04352465723
 30
0.0
 11
622.836256900532
 21
1498.7099111556
 31
0.0
  0
LINE
  5
180
330
1F
100
AcDbEntity
  8
100
  6
Continuous
 62
     3
100
AcDbLine
 10
622.903713959434
 20
1497.37396485584
 30
0.0
 11
622.836256900532
 21
1498.7099111556
 31
0.0
  0
LINE
  5
181
330
1F
100
AcDbEntity
  8
100
  6
Continuous
 62
     3
100
AcDbLine
 10
606.040614994571
 20
1495.82188092544
 30
0.0
 11
611.173337587763
 21
1504.03594856285
 31
0.0
  0
LINE
  5
182
330
1F
100
AcDbEntity
  8
100
  6
Continuous
 62
     3
100
AcDbLine
 10
567.239755270826
 20
1493.1370375071
 30
0.0
 11
567.180206665122
 21
1492.22834049512
 31
0.0
  0
LINE
  5
183
330
1F
100
AcDbEntity
  8
100
  6
Continuous
 62
     3
100
AcDbLine
 10
567.239755270829
 20
1439.31964451644
 30
0.0
 11
567.180206668772
 21
1440.22834147272
 31
0.0
  0
LINE
  5
184
330
1F
100
AcDbEntity
  8
100
  6
Continuous
 62
     3
100
AcDbLine
 10
984.149872567538
 20
1492.72834054707
 30
0.0
 11
981.263121275809
 21
1497.72834045307
 31
0.0
  0
LINE
  5
185
330
1F
100
AcDbEntity
  8
100
  6
Continuous
 62
     3
100
AcDbLine
 10
985.941468818056
 20
1464.65826238759
 30
0.0
 11
984.634923535619
 21
1439.72789326468
 31
0.0
  0
LINE
  5
186
330
1F
100
AcDbEntity
  8
100
  6
Continuous
 62
     3
100
AcDbLine
 10
985.87636984308
 20
1469.0405821426
 30
0.0
 11
985.87636984308
 21
1488.22834063167
 31
0.0
  0
LINE
  5
187
330
1F
100
AcDbEntity
  8
100
  6
Continuous
 62
     3
100
AcDbLine
 10
985.87636984308
 20
1463.41609994794
 30
0.0
 11
985.87636984308
 21
1444.22834145887
 31
0.0
  0
LINE
  5
188
330
1F
100
AcDbEntity
  8
100
  6
Continuous
 62
     3
100
AcDbLine
 10
952.506536568833
 20
1492.5724848194
 30
0.0
 11
952.51150254914
 21
1492.5353469449
 31
0.0
  0
LINE
  5
189
330
1F
100
AcDbEntity
  8
100
  6
Continuous
 62
     3
100
AcDbLine
 10
972.602867400822
 20
1492.72834054707
 30
0.0
 11
975.489618692551
 21
1487.72834064107
 31
0.0
  0
LINE
  5
18A
330
1F
100
AcDbEntity
  8
100
  6
Continuous
 62
     3
100
AcDbLine
 10
981.263121275809
 20
1434.72834163747
 30
0.0
 11
984.149872567538
 21
1439.72834154347
 31
0.0
  0
LINE
  5
18B
330
1F
100
AcDbEntity
  8
100
  6
Continuous
 62
     3
100
AcDbLine
 10
975.489618692551
 20
1444.72834144947
 30
0.0
 11
972.602867400822
 21
1439.72834154347
 31
0.0
  0
LINE
  5
18C
330
1F
100
AcDbEntity
  8
100
  6
Continuous
 62
     3
100
AcDbLine
 10
984.149872567538
 20
1439.72834154347
 30
0.0
 11
981.263121275809
 21
1444.72834144947
 31
0.0
  0
LINE
  5
18D
330
1F
100
AcDbEntity
  8
100
  6
Continuous
 62
     3
100
AcDbLine
 10
941.149873375938
 20
1500.72834039667
 30
0.0
 11
938.263122084209
 21
1505.72834030267
 31
0.0
  0
LINE
  5
18E
330
1F
100
AcDbEntity
  8
100
  6
Continuous
 62
     3
100
AcDbLine
 10
940.676671293834
 20
1504.04033573581
 30
0.0
 11
945.812130389288
 21
1495.82188322312
 31
0.0
  0
LINE
  5
18F
330
1F
100
AcDbEntity
  8
100
  6
Continuous
 62
     3
100
AcDbLine
 10
981.263121275809
 20
1487.72834064107
 30
0.0
 11
984.149872567538
 21
1492.72834054707
 31
0.0
  0
LINE
  5
190
330
1F
100
AcDbEntity
  8
100
  6
Continuous
 62
     3
100
AcDbLine
 10
953.439248542098
 20
1469.28829741455
 30
0.0
 11
953.439248542098
 21
1463.1683846762
 31
0.0
  0
LINE
  5
191
330
1F
100
AcDbEntity
  8
100
  6
Continuous
 62
     3
100
AcDbLine
 10
942.839248741378
 20
1463.1683846762
 30
0.0
 11
942.839248741378
 21
1469.28829741455
 31
0.0
  0
LINE
  5
192
330
1F
100
AcDbEntity
  8
100
  6
Continuous
 62
     3
100
AcDbLine
 10
972.602867400822
 20
1439.72834154347
 30
0.0
 11
975.489618692551
 21
1434.72834163747
 31
0.0
  0
LINE
  5
193
330
1F
100
AcDbEntity
  8
100
  6
Continuous
 62
     3
100
AcDbLine
 10
929.602868209222
 20
1500.72834039667
 30
0.0
 11
932.489619500951
 21
1495.72834049067
 31
0.0
  0
LINE
  5
194
330
1F
100
AcDbEntity
  8
100
  6
Continuous
 62
     3
100
AcDbLine
 10
973.002036025518
 20
1436.53788185366
 30
0.0
 11
972.099736357081
 21
1438.05780694908
 31
0.0
  0
LINE
  5
195
330
1F
100
AcDbEntity
  8
100
  6
Continuous
 62
     3
100
AcDbLine
 10
955.124592395813
 20
1483.76271190483
 30
0.0
 11
955.125787956991
 21
1483.76134519265
 31
0.0
  0
LINE
  5
196
330
1F
100
AcDbEntity
  8
100
  6
Continuous
 62
     3
100
AcDbLine
 10
945.812130389203
 20
1436.63479886748
 30
0.0
 11
940.676671293834
 21
1428.41634635474
 31
0.0
  0
LINE
  5
197
330
1F
100
AcDbEntity
  8
100
  6
Continuous
 62
     3
100
AcDbLine
 10
972.099736357092
 20
1494.39887514146
 30
0.0
 11
973.002036025518
 21
1495.91880023689
 31
0.0
  0
LINE
  5
198
330
1F
100
AcDbEntity
  8
100
  6
Continuous
 62
     3
100
AcDbLine
 10
938.263122084209
 20
1426.72834178787
 30
0.0
 11
941.149873375938
 21
1431.72834169387
 31
0.0
  0
LINE
  5
199
330
1F
100
AcDbEntity
  8
100
  6
Continuous
 62
     3
100
AcDbLine
 10
975.489618692551
 20
1497.72834045307
 30
0.0
 11
972.602867400822
 21
1492.72834054707
 31
0.0
  0
LINE
  5
19A
330
1F
100
AcDbEntity
  8
100
  6
Continuous
 62
     3
100
AcDbLine
 10
932.489619500951
 20
1436.72834159987
 30
0.0
 11
929.602868209222
 21
1431.72834169387
 31
0.0
  0
LINE
  5
19B
330
1F
100
AcDbEntity
  8
100
  6
Continuous
 62
     3
100
AcDbLine
 10
928.724735410531
 20
1493.22834053767
 30
0.0
 11
929.117817240941
 21
1500.72878867547
 31
0.0
  0
LINE
  5
19C
330
1F
100
AcDbEntity
  8
100
  6
Continuous
 62
     3
100
AcDbLine
 10
922.889249116438
 20
1438.22834157167
 30
0.0
 11
922.889249116438
 21
1494.22834051887
 31
0.0
  0
LINE
  5
19D
330
1F
100
AcDbEntity
  8
100
  6
Continuous
 62
     3
100
AcDbLine
 10
929.117817240941
 20
1431.72789341508
 30
0.0
 11
928.724735410531
 21
1439.22834155287
 31
0.0
  0
LINE
  5
19E
330
1F
100
AcDbEntity
  8
100
  6
Continuous
 62
     3
100
AcDbLine
 10
967.238172225278
 20
1455.63808961457
 30
0.0
 11
975.769905304882
 21
1447.10635653497
 31
0.0
  0
LINE
  5
19F
330
1F
100
AcDbEntity
  8
100
  6
Continuous
 62
     3
100
AcDbLine
 10
955.125784356391
 20
1448.69533278149
 30
0.0
 11
955.124589265213
 21
1448.69396660752
 31
0.0
  0
LINE
  5
1A0
330
1F
100
AcDbEntity
  8
100
  6
Continuous
 62
     3
100
AcDbLine
 10
941.149873375938
 20
1431.72834169387
 30
0.0
 11
938.263122084209
 21
1436.72834159987
 31
0.0
  0
LINE
  5
1A1
330
1F
100
AcDbEntity
  8
100
  6
Continuous
 62
     3
100
AcDbLine
 10
929.602868209222
 20
1431.72834169387
 30
0.0
 11
932.489619500951
 21
1426.72834178787
 31
0.0
  0
LINE
  5
1A2
330
1F
100
AcDbEntity
  8
100
  6
Continuous
 62
     3
100
AcDbLine
 10
922.889249116438
 20
1494.22834051887
 30
0.0
 11
923.889257957222
 21
1493.22833167809
 31
0.0
  0
LINE
  5
1A3
330
1F
100
AcDbEntity
  8
100
  6
Continuous
 62
     3
100
AcDbLine
 10
957.881385206986
 20
1481.07650359453
 30
0.0
 11
957.881030754792
 21
1481.07675148172
 31
0.0
  0
LINE
  5
1A4
330
1F
100
AcDbEntity
  8
100
  6
Continuous
 62
     3
100
AcDbLine
 10
975.769905304895
 20
1485.35032555558
 30
0.0
 11
967.238232510877
 21
1476.81865276178
 31
0.0
  0
LINE
  5
1A5
330
1F
100
AcDbEntity
  8
100
  6
Continuous
 62
     3
100
AcDbLine
 10
922.889249116438
 20
1438.22834157167
 30
0.0
 11
923.88925795722
 21
1439.22835041246
 31
0.0
  0
LINE
  5
1A6
330
1F
100
AcDbEntity
  8
100
  6
Continuous
 62
     3
100
AcDbLine
 10
938.263122084209
 20
1495.72834049067
 30
0.0
 11
941.149873375938
 21
1500.72834039667
 31
0.0
  0
LINE
  5
1A7
330
1F
100
AcDbEntity
  8
100
  6
Continuous
 62
     3
100
AcDbLine
 10
903.4763570528
 20
1444.17834145981
 30
0.0
 11
903.4763570528
 21
1488.27834063073
 31
0.0
  0
LINE
  5
1A8
330
1F
100
AcDbEntity
  8
100
  6
Continuous
 62
     3
100
AcDbLine
 10
957.89232115698
 20
1451.38767054508
 30
0.0
 11
957.881123780591
 21
1451.37983658163
 31
0.0
  0
LINE
  5
1A9
330
1F
100
AcDbEntity
  8
100
  6
Continuous
 62
     3
100
AcDbLine
 10
957.797469842163
 20
1451.31999170055
 30
0.0
 11
957.881035858192
 21
1451.37992330102
 31
0.0
  0
LINE
  5
1AA
330
1F
100
AcDbEntity
  8
100
  6
Continuous
 62
     3
100
AcDbLine
 10
932.489619500951
 20
1505.72834030267
 30
0.0
 11
929.602868209222
 21
1500.72834039667
 31
0.0
  0
LINE
  5
1AB
330
1F
100
AcDbEntity
  8
100
  6
Continuous
 62
     3
100
AcDbLine
 10
887.4763573536
 20
1493.94115344547
 30
0.0
 11
887.4763573536
 21
1438.51552864528
 31
0.0
  0
LINE
  5
1AC
330
1F
100
AcDbEntity
  8
100
  6
Continuous
 62
     3
100
AcDbLine
 10
948.139248641738
 20
1472.34825378362
 30
0.0
 11
953.439248542098
 21
1469.28829741455
 31
0.0
  0
LINE
  5
1AD
330
1F
100
AcDbEntity
  8
100
  6
Continuous
 62
     3
100
AcDbLine
 10
948.139248641738
 20
1460.10842830693
 30
0.0
 11
942.839248741378
 21
1463.1683846762
 31
0.0
  0
LINE
  5
1AE
330
1F
100
AcDbEntity
  8
100
  6
Continuous
 62
     3
100
AcDbLine
 10
953.439248542098
 20
1463.1683846762
 30
0.0
 11
948.139248641738
 21
1460.10842830693
 31
0.0
  0
LINE
  5
1AF
330
1F
100
AcDbEntity
  8
100
  6
Continuous
 62
     3
100
AcDbLine
 10
863.4763578048
 20
1438.51552864528
 30
0.0
 11
863.4763578048
 21
1493.94115344547
 31
0.0
  0
LINE
  5
1B0
330
1F
100
AcDbEntity
  8
4
  6
PHANTOM
 62
     6
100
AcDbLine
 10
859.4763746608
 20
1487.17834065141
 30
0.0
 11
859.4763746608
 21
1445.27834143913
 31
0.0
  0
LINE
  5
1B1
330
1F
100
AcDbEntity
  8
100
  6
Continuous
 62
     3
100
AcDbLine
 10
942.839248741378
 20
1469.28829741455
 30
0.0
 11
948.139248641738
 21
1472.34825378362
 31
0.0
  0
LINE
  5
1B2
330
1F
100
AcDbEntity
  8
4
  6
PHANTOM
 62
     6
100
AcDbLine
 10
802.823001272483
 20
1497.69623392448
 30
0.0
 11
859.4763746608
 21
1487.17834065141
 31
0.0
  0
LINE
  5
1B3
330
1F
100
AcDbEntity
  8
100
  6
Continuous
 62
     3
100
AcDbLine
 10
938.263122084209
 20
1505.72834030267
 30
0.0
 11
932.489619500951
 21
1505.72834030267
 31
0.0
  0
LINE
  5
1B4
330
1F
100
AcDbEntity
  8
100
  6
Continuous
 62
     3
100
AcDbLine
 10
981.263121275809
 20
1497.72834045307
 30
0.0
 11
975.489618692551
 21
1497.72834045307
 31
0.0
  0
LINE
  5
1B5
330
1F
100
AcDbEntity
  8
100
  6
Continuous
 62
     3
100
AcDbLine
 10
932.489619500951
 20
1495.72834049067
 30
0.0
 11
938.263122084209
 21
1495.72834049067
 31
0.0
  0
LINE
  5
1B6
330
1F
100
AcDbEntity
  8
4
  6
PHANTOM
 62
     6
100
AcDbLine
 10
668.4763782516
 20
1487.17834065141
 30
0.0
 11
725.129751640117
 21
1497.69623392448
 31
0.0
  0
LINE
  5
1B7
330
1F
100
AcDbEntity
  8
100
  6
Continuous
 62
     3
100
AcDbLine
 10
922.889249116438
 20
1494.22834051887
 30
0.0
 11
921.639249139938
 21
1494.22834051887
 31
0.0
  0
LINE
  5
1B8
330
1F
100
AcDbEntity
  8
100
  6
Continuous
 62
     3
100
AcDbLine
 10
863.4763578048
 20
1493.94115344547
 30
0.0
 11
887.4763573536
 21
1493.94115344547
 31
0.0
  0
LINE
  5
1B9
330
1F
100
AcDbEntity
  8
100
  6
Continuous
 62
     3
100
AcDbLine
 10
628.3153823382
 20
1493.72834052827
 30
0.0
 11
632.894739930055
 21
1493.72834052827
 31
0.0
  0
LINE
  5
1BA
330
1F
100
AcDbEntity
  8
100
  6
Continuous
 62
     3
100
AcDbLine
 10
922.889249116438
 20
1493.41634053414
 30
0.0
 11
921.639249139938
 21
1493.41634053414
 31
0.0
  0
LINE
  5
1BB
330
1F
100
AcDbEntity
  8
100
  6
Continuous
 62
     3
100
AcDbLine
 10
923.889257957222
 20
1493.22833167809
 30
0.0
 11
932.65698660019
 21
1493.2284567014
 31
0.0
  0
LINE
  5
1BC
330
1F
100
AcDbEntity
  8
100
  6
Continuous
 62
     3
100
AcDbLine
 10
662.9763759136
 20
1490.22834059407
 30
0.0
 11
638.9763763648
 21
1490.22834059407
 31
0.0
  0
LINE
  5
1BD
330
1F
100
AcDbEntity
  8
100
  6
Continuous
 62
     3
100
AcDbLine
 10
908.639249384338
 20
1488.27834063073
 30
0.0
 11
903.4763570528
 21
1488.27834063073
 31
0.0
  0
LINE
  5
1BE
330
1F
100
AcDbEntity
  8
100
  6
Continuous
 62
     3
100
AcDbLine
 10
975.489618692551
 20
1487.72834064107
 30
0.0
 11
981.263121275809
 21
1487.72834064107
 31
0.0
  0
LINE
  5
1BF
330
1F
100
AcDbEntity
  8
4
  6
PHANTOM
 62
     6
100
AcDbLine
 10
662.9763759136
 20
1487.17834065141
 30
0.0
 11
668.4763782516
 21
1487.17834065141
 31
0.0
  0
LINE
  5
1C0
330
1F
100
AcDbEntity
  8
100
  6
Continuous
 62
     3
100
AcDbLine
 10
985.87636984308
 20
1485.47834068337
 30
0.0
 11
989.87636976788
 21
1485.47834068337
 31
0.0
  0
LINE
  5
1C1
330
1F
100
AcDbEntity
  8
100
  6
Continuous
 62
     3
100
AcDbLine
 10
565.4763777466
 20
1485.47834068337
 30
0.0
 11
561.9763774268
 21
1485.47834068337
 31
0.0
  0
LINE
  5
1C2
330
1F
100
AcDbEntity
  8
100
  6
Continuous
 62
     3
100
AcDbLine
 10
985.021612410139
 20
1485.35032555558
 30
0.0
 11
975.769905304895
 21
1485.35032555558
 31
0.0
  0
LINE
  5
1C3
330
1F
100
AcDbEntity
  8
100
  6
Continuous
 62
     3
100
AcDbLine
 10
903.4763570528
 20
1481.22834076327
 30
0.0
 11
887.4763573536
 21
1481.22834076327
 31
0.0
  0
LINE
  5
1C4
330
1F
100
AcDbEntity
  8
100
  6
Continuous
 62
     3
100
AcDbLine
 10
865.619951303901
 20
1480.08474724537
 30
0.0
 11
885.3327638545
 21
1480.08474724537
 31
0.0
  0
LINE
  5
1C5
330
1F
100
AcDbEntity
  8
100
  6
Continuous
 62
     3
100
AcDbLine
 10
863.4763578048
 20
1479.82834078959
 30
0.0
 11
662.9763759136
 21
1479.82834078959
 31
0.0
  0
LINE
  5
1C6
330
1F
100
AcDbEntity
  8
100
  6
Continuous
 62
     3
100
AcDbLine
 10
966.219850975823
 20
1461.77667919717
 30
0.0
 11
966.380129386009
 21
1461.76500353838
 31
0.0
  0
LINE
  5
1C7
330
1F
100
AcDbEntity
  8
100
  6
Continuous
 62
     3
100
AcDbLine
 10
965.71895173904
 20
1469.22833129847
 30
0.0
 11
965.717983136858
 21
1469.22833143567
 31
0.0
  0
LINE
  5
1C8
330
1F
100
AcDbEntity
  8
100
  6
Continuous
 62
     3
100
AcDbLine
 10
975.236726129905
 20
1469.22831290647
 30
0.0
 11
975.236976911501
 21
1469.22831287568
 31
0.0
  0
LINE
  5
1C9
330
1F
100
AcDbEntity
  8
100
  6
Continuous
 62
     3
100
AcDbLine
 10
975.236949499701
 20
1469.22834098887
 30
0.0
 11
965.718103993655
 21
1469.22833140867
 31
0.0
  0
LINE
  5
1CA
330
1F
100
AcDbEntity
  8
1
  6
DOT_CENTER
 62
     1
100
AcDbLine
 10
542.976377783373
 20
1466.22834098392
 30
0.0
 11
1007.97636904398
 21
1466.228341226
 31
0.0
  0
LINE
  5
1CB
330
1F
100
AcDbEntity
  8
100
  6
Continuous
 62
     3
100
AcDbLine
 10
660.8327824145
 20
1466.22834104527
 30
0.0
 11
641.119969864101
 21
1466.22834104527
 31
0.0
  0
LINE
  5
1CC
330
1F
100
AcDbEntity
  8
100
  6
Continuous
 62
     3
100
AcDbLine
 10
965.718013281057
 20
1463.22835067907
 30
0.0
 11
975.236949498501
 21
1463.22834110167
 31
0.0
  0
LINE
  5
1CD
330
1F
100
AcDbEntity
  8
100
  6
Continuous
 62
     3
100
AcDbLine
 10
975.236977301101
 20
1463.22836865247
 30
0.0
 11
975.236723121905
 21
1463.22836862087
 31
0.0
  0
LINE
  5
1CE
330
1F
100
AcDbEntity
  8
100
  6
Continuous
 62
     3
100
AcDbLine
 10
863.4763578048
 20
1452.62834130095
 30
0.0
 11
662.9763759136
 21
1452.62834130095
 31
0.0
  0
LINE
  5
1CF
330
1F
100
AcDbEntity
  8
100
  6
Continuous
 62
     3
100
AcDbLine
 10
903.4763570528
 20
1451.22834132727
 30
0.0
 11
887.4763573536
 21
1451.22834132727
 31
0.0
  0
LINE
  5
1D0
330
1F
100
AcDbEntity
  8
100
  6
Continuous
 62
     3
100
AcDbLine
 10
923.88925795722
 20
1439.22835041246
 30
0.0
 11
936.206596443586
 21
1439.22817477353
 31
0.0
  0
LINE
  5
1D1
330
1F
100
AcDbEntity
  8
100
  6
Continuous
 62
     3
100
AcDbLine
 10
975.769905304882
 20
1447.10635653497
 30
0.0
 11
985.021612410136
 21
1447.10635653497
 31
0.0
  0
LINE
  5
1D2
330
1F
100
AcDbEntity
  8
100
  6
Continuous
 62
     3
100
AcDbLine
 10
985.87636984308
 20
1446.97834140717
 30
0.0
 11
989.87636976788
 21
1446.97834140717
 31
0.0
  0
LINE
  5
1D3
330
1F
100
AcDbEntity
  8
100
  6
Continuous
 62
     3
100
AcDbLine
 10
565.4763777466
 20
1446.97834140717
 30
0.0
 11
561.9763774268
 21
1446.97834140717
 31
0.0
  0
LINE
  5
1D4
330
1F
100
AcDbEntity
  8
4
  6
PHANTOM
 62
     6
100
AcDbLine
 10
859.4763746608
 20
1445.27834143913
 30
0.0
 11
863.4763578048
 21
1445.27834143913
 31
0.0
  0
LINE
  5
1D5
330
1F
100
AcDbEntity
  8
4
  6
PHANTOM
 62
     6
100
AcDbLine
 10
662.9763759136
 20
1445.27834143913
 30
0.0
 11
668.4763782516
 21
1445.27834143913
 31
0.0
  0
LINE
  5
1D6
330
1F
100
AcDbEntity
  8
100
  6
Continuous
 62
     3
100
AcDbLine
 10
981.263121275809
 20
1444.72834144947
 30
0.0
 11
975.489618692551
 21
1444.72834144947
 31
0.0
  0
LINE
  5
1D7
330
1F
100
AcDbEntity
  8
100
  6
Continuous
 62
     3
100
AcDbLine
 10
985.87636984308
 20
1444.22834145887
 30
0.0
 11
984.870782031385
 21
1444.22834145887
 31
0.0
  0
LINE
  5
1D8
330
1F
100
AcDbEntity
  8
100
  6
Continuous
 62
     3
100
AcDbLine
 10
908.639249384338
 20
1444.17834145981
 30
0.0
 11
903.4763570528
 21
1444.17834145981
 31
0.0
  0
LINE
  5
1D9
330
1F
100
AcDbEntity
  8
100
  6
Continuous
 62
     3
100
AcDbLine
 10
638.9763763648
 20
1442.22834149647
 30
0.0
 11
662.9763759136
 21
1442.22834149647
 31
0.0
  0
LINE
  5
1DA
330
1F
100
AcDbEntity
  8
100
  6
Continuous
 62
     3
100
AcDbLine
 10
922.889249116438
 20
1439.04034155641
 30
0.0
 11
921.639249139938
 21
1439.04034155641
 31
0.0
  0
LINE
  5
1DB
330
1F
100
AcDbEntity
  8
100
  6
Continuous
 62
     3
100
AcDbLine
 10
632.894739930065
 20
1438.72834156227
 30
0.0
 11
628.315382338317
 21
1438.72834156227
 31
0.0
  0
LINE
  5
1DC
330
1F
100
AcDbEntity
  8
100
  6
Continuous
 62
     3
100
AcDbLine
 10
863.4763578048
 20
1438.51552864528
 30
0.0
 11
887.4763573536
 21
1438.51552864528
 31
0.0
  0
LINE
  5
1DD
330
1F
100
AcDbEntity
  8
100
  6
Continuous
 62
     3
100
AcDbLine
 10
922.889249116438
 20
1438.22834157167
 30
0.0
 11
921.639249139938
 21
1438.22834157167
 31
0.0
  0
LINE
  5
1DE
330
1F
100
AcDbEntity
  8
100
  6
Continuous
 62
     3
100
AcDbLine
 10
938.263122084209
 20
1436.72834159987
 30
0.0
 11
932.489619500951
 21
1436.72834159987
 31
0.0
  0
LINE
  5
1DF
330
1F
100
AcDbEntity
  8
100
  6
Continuous
 62
     3
100
AcDbLine
 10
975.489618692551
 20
1434.72834163747
 30
0.0
 11
981.263121275809
 21
1434.72834163747
 31
0.0
  0
LINE
  5
1E0
330
1F
100
AcDbEntity
  8
4
  6
PHANTOM
 62
     6
100
AcDbLine
 10
668.4763782516
 20
1445.27834143913
 30
0.0
 11
725.129751640117
 21
1434.76044816607
 31
0.0
  0
LINE
  5
1E1
330
1F
100
AcDbEntity
  8
100
  6
Continuous
 62
     3
100
AcDbLine
 10
932.489619500951
 20
1426.72834178787
 30
0.0
 11
938.263122084209
 21
1426.72834178787
 31
0.0
  0
LINE
  5
1E2
330
1F
100
AcDbEntity
  8
4
  6
PHANTOM
 62
     6
100
AcDbLine
 10
802.823001272483
 20
1434.76044816607
 30
0.0
 11
859.4763746608
 21
1445.27834143913
 31
0.0
  0
LINE
  5
1E3
330
1F
100
AcDbEntity
  8
100
  6
Continuous
 62
     3
100
AcDbLine
 10
936.206596443586
 20
1439.22817477353
 30
0.0
 11
943.181783855333
 21
1440.64178796798
 31
0.0
  0
LINE
  5
1E4
330
1F
100
AcDbEntity
  8
4
  6
PHANTOM
 62
     6
100
AcDbLine
 10
668.4763782516
 20
1487.17834065141
 30
0.0
 11
668.4763782516
 21
1445.27834143913
 31
0.0
  0
LINE
  5
1E5
330
1F
100
AcDbEntity
  8
100
  6
Continuous
 62
     3
100
AcDbLine
 10
662.9763759136
 20
1442.22834149647
 30
0.0
 11
662.9763759136
 21
1490.22834059407
 31
0.0
  0
LINE
  5
1E6
330
1F
100
AcDbEntity
  8
100
  6
Continuous
 62
     3
100
AcDbLine
 10
638.9763763648
 20
1442.22834149647
 30
0.0
 11
638.9763763648
 21
1490.22834059407
 31
0.0
  0
LINE
  5
1E7
330
1F
100
AcDbEntity
  8
100
  6
Continuous
 62
     3
100
AcDbLine
 10
636.17637641744
 20
1450.72834130317
 30
0.0
 11
636.17637641744
 21
1448.23864233997
 31
0.0
  0
LINE
  5
1E8
330
1F
100
AcDbEntity
  8
100
  6
Continuous
 62
     3
100
AcDbLine
 10
636.17637641744
 20
1484.2182410893
 30
0.0
 11
636.17637641744
 21
1481.72834072037
 31
0.0
  0
LINE
  5
1E9
330
1F
100
AcDbEntity
  8
100
  6
Continuous
 62
     3
100
AcDbLine
 10
632.894739930065
 20
1438.72834156227
 30
0.0
 11
633.226846951346
 21
1448.23864233997
 31
0.0
  0
LINE
  5
1EA
330
1F
100
AcDbEntity
  8
100
  6
Continuous
 62
     3
100
AcDbLine
 10
627.983282347791
 20
1484.2182410893
 30
0.0
 11
628.3153823382
 21
1493.72834052827
 31
0.0
  0
LINE
  5
1EB
330
1F
100
AcDbEntity
  8
100
  6
Continuous
 62
     3
100
AcDbLine
 10
632.894739930055
 20
1493.72834052827
 30
0.0
 11
633.226839920453
 21
1484.2182410893
 31
0.0
  0
LINE
  5
1EC
330
1F
100
AcDbEntity
  8
100
  6
Continuous
 62
     3
100
AcDbLine
 10
628.315382338317
 20
1438.72834156227
 30
0.0
 11
627.98327531687
 21
1448.23864233997
 31
0.0
  0
LINE
  5
1ED
330
1F
100
AcDbEntity
  8
1
  6
DOT_CENTER
 62
     1
100
AcDbLine
 10
596.4763771638
 20
1260.2283450988
 30
0.0
 11
596.4763771638
 21
1370.2283430308
 31
0.0
  0
LINE
  5
1EE
330
1F
100
AcDbEntity
  8
100
  6
Continuous
 62
     3
100
AcDbLine
 10
1003.87636950468
 20
1220.43435933573
 30
0.0
 11
1003.87636950468
 21
1262.02233500947
 31
0.0
  0
LINE
  5
1EF
330
1F
100
AcDbEntity
  8
100
  6
Continuous
 62
     3
100
AcDbLine
 10
989.87636976788
 20
1220.43435933573
 30
0.0
 11
989.87636976788
 21
1262.02233500947
 31
0.0
  0
LINE
  5
1F0
330
1F
100
AcDbEntity
  8
100
  6
Continuous
 62
     3
100
AcDbLine
 10
985.87637332368
 20
1260.47184536642
 30
0.0
 11
985.87637332368
 21
1276.72833676
 31
0.0
  0
LINE
  5
1F1
330
1F
100
AcDbEntity
  8
100
  6
Continuous
 62
     3
100
AcDbLine
 10
985.87637332368
 20
1219.23401899329
 30
0.0
 11
985.87637332368
 21
1221.98483437118
 31
0.0
  0
LINE
  5
1F2
330
1F
100
AcDbEntity
  8
100
  6
Continuous
 62
     3
100
AcDbLine
 10
943.139247278074
 20
1329.92834430484
 30
0.0
 11
953.139248523879
 21
1329.92834430484
 31
0.0
  0
LINE
  5
1F3
330
1F
100
AcDbEntity
  8
100
  6
Continuous
 62
     3
100
AcDbLine
 10
955.622582388651
 20
1310.52531366362
 30
0.0
 11
955.622582388651
 21
1324.52834388996
 31
0.0
  0
LINE
  5
1F4
330
1F
100
AcDbEntity
  8
100
  6
Continuous
 62
     3
100
AcDbLine
 10
953.139239505996
 20
1325.7283443838
 30
0.0
 11
953.139248523879
 21
1329.92834430484
 31
0.0
  0
LINE
  5
1F5
330
1F
100
AcDbEntity
  8
100
  6
Continuous
 62
     3
100
AcDbLine
 10
940.655929838024
 20
1324.52834312696
 30
0.0
 11
955.622582388651
 21
1324.52834312696
 31
0.0
  0
LINE
  5
1F6
330
1F
100
AcDbEntity
  8
100
  6
Continuous
 62
     3
100
AcDbLine
 10
921.639240742338
 20
1323.728345642
 30
0.0
 11
908.639236103938
 21
1323.728345642
 31
0.0
  0
LINE
  5
1F7
330
1F
100
AcDbEntity
  8
100
  6
Continuous
 62
     3
100
AcDbLine
 10
922.889248730638
 20
1321.72387883948
 30
0.0
 11
921.639240742338
 21
1321.72387883948
 31
0.0
  0
LINE
  5
1F8
330
1F
100
AcDbEntity
  8
1
  6
Continuous
 62
     3
100
AcDbLine
 10
923.701273166231
 20
1320.91174506575
 30
0.0
 11
921.639240742338
 21
1320.91174506575
 31
0.0
  0
LINE
  5
1F9
330
1F
100
AcDbEntity
  8
100
  6
Continuous
 62
     3
100
AcDbLine
 10
948.139230478538
 20
1325.7283443838
 30
0.0
 11
948.139230478538
 21
1329.02833333536
 31
0.0
  0
LINE
  5
1FA
330
1F
100
AcDbEntity
  8
100
  6
Continuous
 62
     3
100
AcDbLine
 10
943.139273983921
 20
1325.7283443838
 30
0.0
 11
943.139247278074
 21
1329.92834430484
 31
0.0
  0
LINE
  5
1FB
330
1F
100
AcDbEntity
  8
100
  6
Continuous
 62
     3
100
AcDbLine
 10
940.655929838024
 20
1320.72361513322
 30
0.0
 11
940.655929838024
 21
1324.52834388996
 31
0.0
  0
LINE
  5
1FC
330
1F
100
AcDbEntity
  8
100
  6
Continuous
 62
     3
100
AcDbLine
 10
863.479382707143
 20
1317.728349417
 30
0.0
 11
887.473369072457
 21
1317.728349417
 31
0.0
  0
LINE
  5
1FD
330
1F
100
AcDbEntity
  8
4
  6
PHANTOM
 62
     6
100
AcDbLine
 10
859.4763784278
 20
1314.67834483814
 30
0.0
 11
863.38329211155
 21
1314.67834483814
 31
0.0
  0
LINE
  5
1FE
330
1F
100
AcDbEntity
  8
4
  6
PHANTOM
 62
     6
100
AcDbLine
 10
808.9763710364
 20
1324.05385372929
 30
0.0
 11
859.4763713078
 21
1314.67835069494
 31
0.0
  0
LINE
  5
1FF
330
1F
100
AcDbEntity
  8
100
  6
Continuous
 62
     3
100
AcDbLine
 10
903.4763839082
 20
1308.72001096316
 30
0.0
 11
887.47636834
 21
1308.72001096316
 31
0.0
  0
LINE
  5
200
330
1F
100
AcDbEntity
  8
100
  6
Continuous
 62
     3
100
AcDbLine
 10
923.889317709184
 20
1266.73298294411
 30
0.0
 11
922.889243160238
 21
1265.73281694712
 31
0.0
  0
LINE
  5
201
330
1F
100
AcDbEntity
  8
100
  6
Continuous
 62
     3
100
AcDbLine
 10
927.33595206104
 20
1259.22140715753
 30
0.0
 11
927.33595206104
 21
1266.73298294411
 31
0.0
  0
LINE
  5
202
330
1F
100
AcDbEntity
  8
1
  6
DOT_CENTER
 62
     1
100
AcDbLine
 10
561.9763774268
 20
1293.728344469
 30
0.0
 11
967.976369794
 21
1293.728344469
 31
0.0
  0
LINE
  5
203
330
1F
100
AcDbEntity
  8
100
  6
Continuous
 62
     3
100
AcDbLine
 10
921.639240742338
 20
1263.7283577564
 30
0.0
 11
921.639240742338
 21
1323.728345642
 31
0.0
  0
LINE
  5
204
330
1F
100
AcDbEntity
  8
100
  6
Continuous
 62
     3
100
AcDbLine
 10
917.9976685452
 20
1201.2283522174
 30
0.0
 11
917.9976685452
 21
1221.31315122986
 31
0.0
  0
LINE
  5
205
330
1F
100
AcDbEntity
  8
100
  6
Continuous
 62
     3
100
AcDbLine
 10
915.67638929184
 20
1223.63545689875
 30
0.0
 11
915.67638929184
 21
1259.22140715753
 31
0.0
  0
LINE
  5
206
330
1F
100
AcDbEntity
  8
4
  6
PHANTOM
 62
     6
100
AcDbLine
 10
801.4763821638
 20
1258.7283480848
 30
0.0
 11
808.969270206534
 21
1260.72742397482
 31
0.0
  0
LINE
  5
207
330
1F
100
AcDbEntity
  8
100
  6
Continuous
 62
     3
100
AcDbLine
 10
908.639236103938
 20
1263.7283577564
 30
0.0
 11
908.639236103938
 21
1323.728345642
 31
0.0
  0
LINE
  5
208
330
1F
100
AcDbEntity
  8
100
  6
Continuous
 62
     3
100
AcDbLine
 10
903.4763839082
 20
1278.73669243504
 30
0.0
 11
887.47636834
 21
1278.73669243504
 31
0.0
  0
LINE
  5
209
330
1F
100
AcDbEntity
  8
100
  6
Continuous
 62
     3
100
AcDbLine
 10
985.87637332368
 20
1276.72833676
 30
0.0
 11
978.719333089096
 21
1276.72833676
 31
0.0
  0
LINE
  5
20A
330
1F
100
AcDbEntity
  8
4
  6
PHANTOM
 62
     6
100
AcDbLine
 10
808.9763710364
 20
1263.40284966911
 30
0.0
 11
859.4763713078
 21
1272.77835270346
 31
0.0
  0
LINE
  5
20B
330
1F
100
AcDbEntity
  8
100
  6
Continuous
 62
     3
100
AcDbLine
 10
903.4763839082
 20
1315.77267465157
 30
0.0
 11
903.4763839082
 21
1271.68401428663
 31
0.0
  0
LINE
  5
20C
330
1F
100
AcDbEntity
  8
4
  6
PHANTOM
 62
     6
100
AcDbLine
 10
859.4763784278
 20
1272.77834505366
 30
0.0
 11
863.38329211155
 21
1272.77834505366
 31
0.0
  0
LINE
  5
20D
330
1F
100
AcDbEntity
  8
100
  6
Continuous
 62
     3
100
AcDbLine
 10
908.639236103938
 20
1271.68401428663
 30
0.0
 11
903.4763839082
 21
1271.68401428663
 31
0.0
  0
LINE
  5
20E
330
1F
100
AcDbEntity
  8
100
  6
Continuous
 62
     3
100
AcDbLine
 10
863.479382707143
 20
1269.7283539814
 30
0.0
 11
887.473369072457
 21
1269.7283539814
 31
0.0
  0
LINE
  5
20F
330
1F
100
AcDbEntity
  8
100
  6
Continuous
 62
     3
100
AcDbLine
 10
923.889317709184
 20
1266.73298294411
 30
0.0
 11
927.33595206104
 21
1266.73298294411
 31
0.0
  0
LINE
  5
210
330
1F
100
AcDbEntity
  8
1
  6
Continuous
 62
     3
100
AcDbLine
 10
923.701295830271
 20
1266.54494387225
 30
0.0
 11
921.639240742338
 21
1266.54494387225
 31
0.0
  0
LINE
  5
211
330
1F
100
AcDbEntity
  8
100
  6
Continuous
 62
     3
100
AcDbLine
 10
887.47636834
 20
1269.7335578387
 30
0.0
 11
887.47636834
 21
1317.728349417
 31
0.0
  0
LINE
  5
212
330
1F
100
AcDbEntity
  8
100
  6
Continuous
 62
     3
100
AcDbLine
 10
922.889248730638
 20
1265.73281009852
 30
0.0
 11
921.639240742338
 21
1265.73281009852
 31
0.0
  0
LINE
  5
213
330
1F
100
AcDbEntity
  8
100
  6
Continuous
 62
     3
100
AcDbLine
 10
927.33592847684
 20
1264.2283457866
 30
0.0
 11
985.87637332368
 21
1264.22834502493
 31
0.0
  0
LINE
  5
214
330
1F
100
AcDbEntity
  8
100
  6
Continuous
 62
     3
100
AcDbLine
 10
989.87636976788
 20
1262.02233500947
 30
0.0
 11
1003.87636950468
 21
1262.02233500947
 31
0.0
  0
LINE
  5
215
330
1F
100
AcDbEntity
  8
1
  6
Continuous
 62
     3
100
AcDbLine
 10
989.87636976788
 20
1260.69792554957
 30
0.0
 11
1003.87636950468
 21
1260.69792554957
 31
0.0
  0
LINE
  5
216
330
1F
100
AcDbEntity
  8
100
  6
Continuous
 62
     3
100
AcDbLine
 10
985.87637332368
 20
1260.47184536642
 30
0.0
 11
989.87637080708
 21
1260.47184536642
 31
0.0
  0
LINE
  5
217
330
1F
100
AcDbEntity
  8
100
  6
Continuous
 62
     3
100
AcDbLine
 10
927.33595206104
 20
1259.22140715753
 30
0.0
 11
915.67638929184
 21
1259.22140715753
 31
0.0
  0
LINE
  5
218
330
1F
100
AcDbEntity
  8
4
  6
PHANTOM
 62
     6
100
AcDbLine
 10
726.476358035604
 20
1258.728345127
 30
0.0
 11
801.4763795182
 21
1258.728345127
 31
0.0
  0
LINE
  5
219
330
1F
100
AcDbEntity
  8
100
  6
Continuous
 62
     3
100
AcDbLine
 10
917.9976685452
 20
1221.31315122986
 30
0.0
 11
915.67638929184
 21
1223.63545689875
 31
0.0
  0
LINE
  5
21A
330
1F
100
AcDbEntity
  8
1
  6
DOT_CENTER
 62
     1
100
AcDbLine
 10
1007.976369042
 20
1241.228345456
 30
0.0
 11
542.976377784
 21
1241.228345456
 31
0.0
  0
LINE
  5
21B
330
1F
100
AcDbEntity
  8
100
  6
Continuous
 62
     3
100
AcDbLine
 10
863.4763578048
 20
1269.7335578387
 30
0.0
 11
863.4763578048
 21
1317.7231455597
 31
0.0
  0
LINE
  5
21C
330
1F
100
AcDbEntity
  8
4
  6
PHANTOM
 62
     6
100
AcDbLine
 10
859.4763713078
 20
1272.77835270346
 30
0.0
 11
859.4763713078
 21
1314.67835069494
 31
0.0
  0
LINE
  5
21D
330
1F
100
AcDbEntity
  8
100
  6
Continuous
 62
     3
100
AcDbLine
 10
915.67638929184
 20
1227.62834533028
 30
0.0
 11
636.17636860284
 21
1227.62834533028
 31
0.0
  0
LINE
  5
21E
330
1F
100
AcDbEntity
  8
100
  6
Continuous
 62
     3
100
AcDbLine
 10
973.881661635181
 20
1223.23529821487
 30
0.0
 11
924.480239224127
 21
1223.23529821487
 31
0.0
  0
LINE
  5
21F
330
1F
100
AcDbEntity
  8
100
  6
Continuous
 62
     3
100
AcDbLine
 10
985.87637332368
 20
1221.98483437118
 30
0.0
 11
989.87637080708
 21
1221.98483437118
 31
0.0
  0
LINE
  5
220
330
1F
100
AcDbEntity
  8
100
  6
Continuous
 62
     3
100
AcDbLine
 10
989.87636976788
 20
1220.43435933573
 30
0.0
 11
1003.87636950468
 21
1220.43435933573
 31
0.0
  0
LINE
  5
221
330
1F
100
AcDbEntity
  8
100
  6
Continuous
 62
     3
100
AcDbLine
 10
985.87637332368
 20
1219.23401899329
 30
0.0
 11
983.623333815237
 21
1219.23401899329
 31
0.0
  0
LINE
  5
222
330
1F
100
AcDbEntity
  8
100
  6
Continuous
 62
     3
100
AcDbLine
 10
924.480239224127
 20
1201.2283522174
 30
0.0
 11
917.9976685452
 21
1201.2283522174
 31
0.0
  0
LINE
  5
223
330
1F
100
AcDbEntity
  8
4
  6
PHANTOM
 62
     6
100
AcDbLine
 10
813.976380708
 20
1363.7283461108
 30
0.0
 11
813.976380708
 21
1334.7283515388
 31
0.0
  0
LINE
  5
224
330
1F
100
AcDbEntity
  8
4
  6
PHANTOM
 62
     6
100
AcDbLine
 10
808.9763710364
 20
1263.40284966911
 30
0.0
 11
808.9763710364
 21
1260.7283468264
 31
0.0
  0
LINE
  5
225
330
1F
100
AcDbEntity
  8
4
  6
PHANTOM
 62
     6
100
AcDbLine
 10
808.9763710364
 20
1334.7283515388
 30
0.0
 11
808.9763710364
 21
1324.05385372929
 31
0.0
  0
LINE
  5
226
330
1F
100
AcDbEntity
  8
4
  6
PHANTOM
 62
     6
100
AcDbLine
 10
718.976378523
 20
1263.40284966911
 30
0.0
 11
718.976378523
 21
1260.7283468264
 31
0.0
  0
LINE
  5
227
330
1F
100
AcDbEntity
  8
4
  6
PHANTOM
 62
     6
100
AcDbLine
 10
718.976378523
 20
1334.7283515388
 30
0.0
 11
718.976378523
 21
1324.05385372929
 31
0.0
  0
LINE
  5
228
330
1F
100
AcDbEntity
  8
4
  6
PHANTOM
 62
     6
100
AcDbLine
 10
813.976380708
 20
1363.7283461108
 30
0.0
 11
713.9763688514
 21
1363.7283461108
 31
0.0
  0
LINE
  5
229
330
1F
100
AcDbEntity
  8
4
  6
PHANTOM
 62
     6
100
AcDbLine
 10
713.9763688514
 20
1363.7283461108
 30
0.0
 11
713.9763688514
 21
1334.7283515388
 31
0.0
  0
LINE
  5
22A
330
1F
100
AcDbEntity
  8
4
  6
PHANTOM
 62
     6
100
AcDbLine
 10
813.976380708
 20
1334.7283515388
 30
0.0
 11
713.9763688514
 21
1334.7283515388
 31
0.0
  0
LINE
  5
22B
330
1F
100
AcDbEntity
  8
100
  6
Continuous
 62
     3
100
AcDbLine
 10
636.17636860284
 20
1223.63545689875
 30
0.0
 11
633.855063714881
 21
1221.31320457221
 31
0.0
  0
LINE
  5
22C
330
1F
100
AcDbEntity
  8
100
  6
Continuous
 62
     3
100
AcDbLine
 10
662.9763876302
 20
1321.4411606264
 30
0.0
 11
638.976377095
 21
1321.4411606264
 31
0.0
  0
LINE
  5
22D
330
1F
100
AcDbEntity
  8
4
  6
PHANTOM
 62
     6
100
AcDbLine
 10
668.4763782516
 20
1272.77835270346
 30
0.0
 11
668.4763782516
 21
1314.67835069494
 31
0.0
  0
LINE
  5
22E
330
1F
100
AcDbEntity
  8
4
  6
PHANTOM
 62
     6
100
AcDbLine
 10
663.232348689388
 20
1314.67834483814
 30
0.0
 11
668.4763824042
 21
1314.67834483814
 31
0.0
  0
LINE
  5
22F
330
1F
100
AcDbEntity
  8
100
  6
Continuous
 62
     3
100
AcDbLine
 10
662.9763876302
 20
1266.015542772
 30
0.0
 11
662.9763876302
 21
1321.4411606264
 31
0.0
  0
LINE
  5
230
330
1F
100
AcDbEntity
  8
4
  6
PHANTOM
 62
     6
100
AcDbLine
 10
668.4763782516
 20
1314.67835069494
 30
0.0
 11
718.976378523
 21
1324.05385372929
 31
0.0
  0
LINE
  5
231
330
1F
100
AcDbEntity
  8
100
  6
Continuous
 62
     3
100
AcDbLine
 10
577.033312768977
 20
1223.23529821487
 30
0.0
 11
570.105142971351
 21
1219.23401899329
 31
0.0
  0
LINE
  5
232
330
1F
100
AcDbEntity
  8
100
  6
Continuous
 62
     3
100
AcDbLine
 10
638.976377095
 20
1266.015542772
 30
0.0
 11
638.976377095
 21
1321.4411606264
 31
0.0
  0
LINE
  5
233
330
1F
100
AcDbEntity
  8
100
  6
Continuous
 62
     3
100
AcDbLine
 10
636.17636860284
 20
1223.63545689875
 30
0.0
 11
636.17636860284
 21
1259.22140715753
 31
0.0
  0
LINE
  5
234
330
1F
100
AcDbEntity
  8
4
  6
PHANTOM
 62
     6
100
AcDbLine
 10
668.4763782516
 20
1272.77835270346
 30
0.0
 11
718.976378523
 21
1263.40284966911
 31
0.0
  0
LINE
  5
235
330
1F
100
AcDbEntity
  8
100
  6
Continuous
 62
     3
100
AcDbLine
 10
633.855063714881
 20
1201.2283522174
 30
0.0
 11
633.855063714881
 21
1221.31320457221
 31
0.0
  0
LINE
  5
236
330
1F
100
AcDbEntity
  8
4
  6
PHANTOM
 62
     6
100
AcDbLine
 10
663.232348689388
 20
1272.77834505366
 30
0.0
 11
668.4763824042
 21
1272.77834505366
 31
0.0
  0
LINE
  5
237
330
1F
100
AcDbEntity
  8
100
  6
Continuous
 62
     3
100
AcDbLine
 10
624.543030198547
 20
1259.22140715753
 30
0.0
 11
624.543030198547
 21
1278.2283447604
 31
0.0
  0
LINE
  5
238
330
1F
100
AcDbEntity
  8
100
  6
Continuous
 62
     3
100
AcDbLine
 10
662.9763876302
 20
1266.015542772
 30
0.0
 11
638.976377095
 21
1266.015542772
 31
0.0
  0
LINE
  5
239
330
1F
100
AcDbEntity
  8
100
  6
Continuous
 62
     3
100
AcDbLine
 10
561.9763774268
 20
1262.02233500947
 30
0.0
 11
547.97637769
 21
1262.02233500947
 31
0.0
  0
LINE
  5
23A
330
1F
100
AcDbEntity
  8
1
  6
Continuous
 62
     3
100
AcDbLine
 10
561.9763774268
 20
1260.69792554957
 30
0.0
 11
547.97637769
 21
1260.69792554957
 31
0.0
  0
LINE
  5
23B
330
1F
100
AcDbEntity
  8
100
  6
Continuous
 62
     3
100
AcDbLine
 10
565.9763717536
 20
1260.47184536642
 30
0.0
 11
561.9763742702
 21
1260.47184536642
 31
0.0
  0
LINE
  5
23C
330
1F
100
AcDbEntity
  8
100
  6
Continuous
 62
     3
100
AcDbLine
 10
624.543030198547
 20
1259.22140715753
 30
0.0
 11
636.17636860284
 21
1259.22140715753
 31
0.0
  0
LINE
  5
23D
330
1F
100
AcDbEntity
  8
100
  6
Continuous
 62
     3
100
AcDbLine
 10
577.033312768977
 20
1223.23529821487
 30
0.0
 11
627.355061395681
 21
1223.23529821487
 31
0.0
  0
LINE
  5
23E
330
1F
100
AcDbEntity
  8
100
  6
Continuous
 62
     3
100
AcDbLine
 10
565.9763717536
 20
1221.98483437118
 30
0.0
 11
561.9763742702
 21
1221.98483437118
 31
0.0
  0
LINE
  5
23F
330
1F
100
AcDbEntity
  8
1
  6
Continuous
 62
     3
100
AcDbLine
 10
561.9763774268
 20
1221.75876879563
 30
0.0
 11
547.97637769
 21
1221.75876879563
 31
0.0
  0
LINE
  5
240
330
1F
100
AcDbEntity
  8
100
  6
Continuous
 62
     3
100
AcDbLine
 10
561.9763774268
 20
1220.43435933573
 30
0.0
 11
547.97637769
 21
1220.43435933573
 31
0.0
  0
LINE
  5
241
330
1F
100
AcDbEntity
  8
100
  6
Continuous
 62
     3
100
AcDbLine
 10
565.9763717536
 20
1219.23401899329
 30
0.0
 11
570.105142971351
 21
1219.23401899329
 31
0.0
  0
LINE
  5
242
330
1F
100
AcDbEntity
  8
100
  6
Continuous
 62
     3
100
AcDbLine
 10
565.9763717536
 20
1219.23401899329
 30
0.0
 11
565.9763717536
 21
1264.22834501176
 31
0.0
  0
LINE
  5
243
330
1F
100
AcDbEntity
  8
100
  6
Continuous
 62
     3
100
AcDbLine
 10
561.9763774268
 20
1220.43435933573
 30
0.0
 11
561.9763774268
 21
1262.02233500947
 31
0.0
  0
LINE
  5
244
330
1F
100
AcDbEntity
  8
100
  6
Continuous
 62
     3
100
AcDbLine
 10
627.355061395681
 20
1201.2283522174
 30
0.0
 11
633.855063714881
 21
1201.2283522174
 31
0.0
  0
LINE
  5
245
330
1F
100
AcDbEntity
  8
100
  6
Continuous
 62
     3
100
AcDbLine
 10
547.97637769
 20
1220.43435933573
 30
0.0
 11
547.97637769
 21
1262.02233500947
 31
0.0
  0
LINE
  5
246
330
1F
100
AcDbEntity
  8
0
  6
Continuous
 62
     3
100
AcDbLine
 10
898.01468421808
 20
1255.76680175018
 30
0.0
 11
898.01468421808
 21
1255.81680174924
 31
0.0
  0
LINE
  5
247
330
1F
100
AcDbEntity
  8
100
  6
Continuous
 62
     3
100
AcDbLine
 10
978.719333089096
 20
1276.72833676
 30
0.0
 11
963.793715047434
 21
1289.50744662715
 31
0.0
  0
LINE
  5
248
330
1F
100
AcDbEntity
  8
1
  6
Continuous
 62
     3
100
AcDbLine
 10
989.87636976788
 20
1221.75876879563
 30
0.0
 11
1003.87636950468
 21
1221.75876879563
 31
0.0
  0
LINE
  5
249
330
1F
100
AcDbEntity
  8
1
  6
Continuous
 62
     3
100
AcDbLine
 10
973.881661635181
 20
1223.23529821487
 30
0.0
 11
983.623333815237
 21
1219.23401899329
 31
0.0
  0
LINE
  5
24A
330
1F
100
AcDbEntity
  8
100
  6
Continuous
 62
     3
100
AcDbLine
 10
954.53915467462
 20
1325.7283443838
 30
0.0
 11
941.739306282457
 21
1325.7283443838
 31
0.0
  0
LINE
  5
24B
330
1F
100
AcDbEntity
  8
1
  6
Continuous
 62
     3
100
AcDbLine
 10
941.739306282457
 20
1325.7283443838
 30
0.0
 11
941.739325051656
 21
1324.52834312696
 31
0.0
  0
LINE
  5
24C
330
1F
100
AcDbEntity
  8
1
  6
Continuous
 62
     3
100
AcDbLine
 10
954.53915467462
 20
1325.7283443838
 30
0.0
 11
954.539169552819
 21
1324.52834312696
 31
0.0
  0
LINE
  5
24D
330
1F
100
AcDbEntity
  8
100
  6
Continuous
 62
     3
100
AcDbLine
 10
923.889267938902
 20
1320.72372450737
 30
0.0
 11
940.655929838024
 21
1320.72361513322
 31
0.0
  0
LINE
  5
24E
330
1F
100
AcDbEntity
  8
100
  6
Continuous
 62
     3
100
AcDbLine
 10
908.639236103938
 20
1315.77267465157
 30
0.0
 11
903.4763839082
 21
1315.77267465157
 31
0.0
  0
LINE
  5
24F
330
1F
100
AcDbEntity
  8
100
  6
Continuous
 62
     3
100
AcDbLine
 10
922.889243160238
 20
1321.72388645128
 30
0.0
 11
923.889267938902
 21
1320.72372450737
 31
0.0
  0
LINE
  5
250
330
1F
100
AcDbEntity
  8
4
  6
PHANTOM
 62
     6
100
AcDbLine
 10
718.983499679866
 20
1260.72742872762
 30
0.0
 11
726.476358035604
 21
1258.728345127
 31
0.0
  0
LINE
  5
251
330
1F
100
AcDbEntity
  8
1
  6
Continuous
 62
     3
100
AcDbLine
 10
609.976373694734
 20
1334.22834512229
 30
0.0
 11
582.976374202334
 21
1334.22834512229
 31
0.0
  0
LINE
  5
252
330
1F
100
AcDbEntity
  8
1
  6
Continuous
 62
     3
100
AcDbLine
 10
626.796750792383
 20
1350.2283420928
 30
0.0
 11
626.796750792383
 21
1367.22834177322
 31
0.0
  0
LINE
  5
253
330
1F
100
AcDbEntity
  8
1
  6
Continuous
 62
     3
100
AcDbLine
 10
566.156003535218
 20
1350.2283420928
 30
0.0
 11
566.156003535218
 21
1367.22834177319
 31
0.0
  0
LINE
  5
254
330
1F
100
AcDbEntity
  8
1
  6
Continuous
 62
     3
100
AcDbLine
 10
605.9202873502
 20
1469.18334115814
 30
0.0
 11
628.794032623356
 21
1469.18334115814
 31
0.0
  0
LINE
  5
255
330
1F
100
AcDbEntity
  8
1
  6
Continuous
 62
     3
100
AcDbLine
 10
628.794032623356
 20
1469.18334115814
 30
0.0
 11
628.794032623356
 21
1463.27334086549
 31
0.0
  0
LINE
  5
256
330
1F
100
AcDbEntity
  8
1
  6
Continuous
 62
     3
100
AcDbLine
 10
628.794032623356
 20
1463.27334086549
 30
0.0
 11
605.920287350229
 21
1463.27334086549
 31
0.0
  0
LINE
  5
257
330
1F
100
AcDbEntity
  8
1
  6
Continuous
 62
     3
100
AcDbLine
 10
587.032466977371
 20
1463.27334086549
 30
0.0
 11
564.158721704244
 21
1463.27334086549
 31
0.0
  0
LINE
  5
258
330
1F
100
AcDbEntity
  8
1
  6
Continuous
 62
     3
100
AcDbLine
 10
564.158721704244
 20
1463.27334086549
 30
0.0
 11
564.158721704244
 21
1469.18334115814
 31
0.0
  0
LINE
  5
259
330
1F
100
AcDbEntity
  8
1
  6
Continuous
 62
     3
100
AcDbLine
 10
564.158721704244
 20
1469.18334115814
 30
0.0
 11
587.0324669774
 21
1469.18334115814
 31
0.0
  0
LINE
  5
25A
330
1F
100
AcDbEntity
  8
1
  6
Continuous
 62
     3
100
AcDbLine
 10
609.20406349222
 20
1469.18334115814
 30
0.0
 11
603.693255392992
 21
1478.72834077677
 31
0.0
  0
LINE
  5
25B
330
1F
100
AcDbEntity
  8
1
  6
Continuous
 62
     3
100
AcDbLine
 10
603.693255392992
 20
1478.72834077677
 30
0.0
 11
589.259498934607
 21
1478.72834077677
 31
0.0
  0
LINE
  5
25C
330
1F
100
AcDbEntity
  8
1
  6
Continuous
 62
     3
100
AcDbLine
 10
583.748690835327
 20
1463.27334086549
 30
0.0
 11
589.259498934608
 21
1453.72834124677
 31
0.0
  0
LINE
  5
25D
330
1F
100
AcDbEntity
  8
1
  6
Continuous
 62
     3
100
AcDbLine
 10
589.259498934608
 20
1453.72834124677
 30
0.0
 11
603.693255392993
 21
1453.72834124677
 31
0.0
  0
LINE
  5
25E
330
1F
100
AcDbEntity
  8
1
  6
Continuous
 62
     3
100
AcDbLine
 10
603.693255392993
 20
1453.72834124677
 30
0.0
 11
609.204063492273
 21
1463.27334086549
 31
0.0
  0
LINE
  5
25F
330
1F
100
AcDbEntity
  8
1
  6
Continuous
 62
     3
100
AcDbLine
 10
589.259498934607
 20
1478.72834077677
 30
0.0
 11
583.748690835381
 21
1469.18334115814
 31
0.0
  0
LINE
  5
260
330
1F
100
AcDbEntity
  8
100
  6
Continuous
 62
     3
100
AcDbLine
 10
547.97637769
 20
1445.434354925
 30
0.0
 11
547.97637769
 21
1487.02233059875
 31
0.0
  0
LINE
  5
261
330
1F
100
AcDbEntity
  8
100
  6
Continuous
 62
     3
100
AcDbLine
 10
561.9763774268
 20
1445.434354925
 30
0.0
 11
561.9763774268
 21
1487.02233059875
 31
0.0
  0
LINE
  5
262
330
1F
100
AcDbEntity
  8
100
  6
Continuous
 62
     3
100
AcDbLine
 10
561.9763774268
 20
1445.434354925
 30
0.0
 11
547.97637769
 21
1445.434354925
 31
0.0
  0
LINE
  5
263
330
1F
100
AcDbEntity
  8
1
  6
Continuous
 62
     3
100
AcDbLine
 10
561.9763774268
 20
1446.7587643849
 30
0.0
 11
547.97637769
 21
1446.7587643849
 31
0.0
  0
LINE
  5
264
330
1F
100
AcDbEntity
  8
1
  6
Continuous
 62
     3
100
AcDbLine
 10
561.9763774268
 20
1485.69792113885
 30
0.0
 11
547.97637769
 21
1485.69792113885
 31
0.0
  0
LINE
  5
265
330
1F
100
AcDbEntity
  8
100
  6
Continuous
 62
     3
100
AcDbLine
 10
561.9763774268
 20
1487.02233059875
 30
0.0
 11
547.97637769
 21
1487.02233059875
 31
0.0
  0
LINE
  5
266
330
1F
100
AcDbEntity
  8
1
  6
Continuous
 62
     3
100
AcDbLine
 10
989.87636976788
 20
1446.75876453977
 30
0.0
 11
1003.87636950468
 21
1446.75876453977
 31
0.0
  0
LINE
  5
267
330
1F
100
AcDbEntity
  8
100
  6
Continuous
 62
     3
100
AcDbLine
 10
989.87636976788
 20
1445.43435507987
 30
0.0
 11
1003.87636950468
 21
1445.43435507987
 31
0.0
  0
LINE
  5
268
330
1F
100
AcDbEntity
  8
1
  6
Continuous
 62
     3
100
AcDbLine
 10
989.87636976788
 20
1485.69792129372
 30
0.0
 11
1003.87636950468
 21
1485.69792129372
 31
0.0
  0
LINE
  5
269
330
1F
100
AcDbEntity
  8
100
  6
Continuous
 62
     3
100
AcDbLine
 10
989.87636976788
 20
1487.02233075362
 30
0.0
 11
1003.87636950468
 21
1487.02233075362
 31
0.0
  0
LINE
  5
26A
330
1F
100
AcDbEntity
  8
100
  6
Continuous
 62
     3
100
AcDbLine
 10
989.87636976788
 20
1445.43435507987
 30
0.0
 11
989.87636976788
 21
1487.02233075362
 31
0.0
  0
LINE
  5
26B
330
1F
100
AcDbEntity
  8
100
  6
Continuous
 62
     3
100
AcDbLine
 10
1003.87636950468
 20
1445.43435507987
 30
0.0
 11
1003.87636950468
 21
1487.02233075362
 31
0.0
  0
LINE
  5
26C
330
1F
100
AcDbEntity
  8
100
  6
Continuous
 62
     3
100
AcDbLine
 10
985.87636984308
 20
1488.22834063167
 30
0.0
 11
984.870782031385
 21
1488.22834063167
 31
0.0
  0
LINE
  5
26D
330
1F
100
AcDbEntity
  8
100
  6
Continuous
 62
     3
100
AcDbLine
 10
985.941468818045
 20
1467.79841970316
 30
0.0
 11
984.634923535619
 21
1492.72878882587
 31
0.0
  0
LINE
  5
26E
330
1F
100
AcDbEntity
  8
1
  6
Continuous
 62
     3
100
AcDbLine
 10
935.37637079248
 20
1504.22834033087
 30
0.0
 11
935.37637079248
 21
1497.22834046247
 31
0.0
  0
LINE
  5
26F
330
1F
100
AcDbEntity
  8
1
  6
Continuous
 62
     3
100
AcDbLine
 10
931.87637085828
 20
1500.72834039667
 30
0.0
 11
938.87637072668
 21
1500.72834039667
 31
0.0
  0
LINE
  5
270
330
1F
100
AcDbEntity
  8
1
  6
Continuous
 62
     3
100
AcDbLine
 10
974.87637004988
 20
1492.72834054707
 30
0.0
 11
981.87636991828
 21
1492.72834054707
 31
0.0
  0
LINE
  5
271
330
1F
100
AcDbEntity
  8
1
  6
Continuous
 62
     3
100
AcDbLine
 10
978.37636998408
 20
1496.22834048127
 30
0.0
 11
978.37636998408
 21
1489.22834061287
 31
0.0
  0
LINE
  5
272
330
1F
100
AcDbEntity
  8
1
  6
Continuous
 62
     3
100
AcDbLine
 10
978.37636998408
 20
1443.22834147767
 30
0.0
 11
978.37636998408
 21
1436.22834160927
 31
0.0
  0
LINE
  5
273
330
1F
100
AcDbEntity
  8
1
  6
Continuous
 62
     3
100
AcDbLine
 10
974.87637004988
 20
1439.72834154347
 30
0.0
 11
981.87636991828
 21
1439.72834154347
 31
0.0
  0
LINE
  5
274
330
1F
100
AcDbEntity
  8
1
  6
Continuous
 62
     3
100
AcDbLine
 10
935.37637079248
 20
1435.22834162807
 30
0.0
 11
935.37637079248
 21
1428.22834175967
 31
0.0
  0
LINE
  5
275
330
1F
100
AcDbEntity
  8
1
  6
Continuous
 62
     3
100
AcDbLine
 10
931.87637085828
 20
1431.72834169387
 30
0.0
 11
938.87637072668
 21
1431.72834169387
 31
0.0
  0
LINE
  5
276
330
1F
100
AcDbEntity
  8
1
  6
Continuous
 62
     3
100
AcDbLine
 10
948.139248641738
 20
1469.72834097947
 30
0.0
 11
948.139248641738
 21
1462.72834111107
 31
0.0
  0
LINE
  5
277
330
1F
100
AcDbEntity
  8
1
  6
Continuous
 62
     3
100
AcDbLine
 10
953.163723212683
 20
1466.22834119746
 30
0.0
 11
943.210498237356
 21
1466.22834119228
 31
0.0
  0
LINE
  5
278
330
1F
100
AcDbEntity
  8
100
  6
Continuous
 62
     3
100
AcDbLine
 10
865.619951303901
 20
1452.37193484518
 30
0.0
 11
885.3327638545
 21
1452.37193484518
 31
0.0
  0
LINE
  5
279
330
1F
100
AcDbEntity
  8
4
  6
PHANTOM
 62
     6
100
AcDbLine
 10
859.4763746608
 20
1487.17834065141
 30
0.0
 11
863.4763578048
 21
1487.17834065141
 31
0.0
  0
LINE
  5
27A
330
1F
100
AcDbEntity
  8
1
  6
Continuous
 62
     3
100
AcDbLine
 10
616.488473242096
 20
1504.22833964816
 30
0.0
 11
616.48847288705
 21
1497.22833977976
 31
0.0
  0
LINE
  5
27B
330
1F
100
AcDbEntity
  8
1
  6
Continuous
 62
     3
100
AcDbLine
 10
612.976376474591
 20
1500.6690198327
 30
0.0
 11
619.976376342992
 21
1500.66901947766
 31
0.0
  0
LINE
  5
27C
330
1F
100
AcDbEntity
  8
1
  6
Continuous
 62
     3
100
AcDbLine
 10
573.488474858896
 20
1496.22833994896
 30
0.0
 11
573.476377933962
 21
1492.72834056942
 31
0.0
  0
LINE
  5
27D
330
1F
100
AcDbEntity
  8
1
  6
Continuous
 62
     3
100
AcDbLine
 10
573.48847450385
 20
1436.22834207336
 30
0.0
 11
573.48847450385
 21
1439.72834198833
 31
0.0
  0
LINE
  5
27E
330
1F
100
AcDbEntity
  8
1
  6
Continuous
 62
     3
100
AcDbLine
 10
616.488473242096
 20
1435.22834224256
 30
0.0
 11
616.48847288705
 21
1428.22834237416
 31
0.0
  0
LINE
  5
27F
330
1F
100
AcDbEntity
  8
1
  6
Continuous
 62
     3
100
AcDbLine
 10
619.976376342055
 20
1431.65055943338
 30
0.0
 11
612.976376473655
 21
1431.65055978843
 31
0.0
  0
LINE
  5
280
330
1F
100
AcDbEntity
  8
1
  6
Continuous
 62
     3
100
AcDbLine
 10
596.4763771638
 20
1468.72834096477
 30
0.0
 11
596.4763771638
 21
1463.72834105877
 31
0.0
  0
LINE
  5
281
330
1F
100
AcDbEntity
  8
1
  6
Continuous
 62
     3
100
AcDbLine
 10
593.9763772108
 20
1466.22834101047
 30
0.0
 11
598.9763771168
 21
1466.22834101307
 31
0.0
  0
LINE
  5
282
330
1F
100
AcDbEntity
  8
100
  6
Continuous
 62
     3
100
AcDbLine
 10
885.3327638545
 20
1293.7231460109
 30
0.0
 11
865.619951304101
 21
1293.7231460109
 31
0.0
  0
LINE
  5
283
330
1F
100
AcDbEntity
  8
100
  6
Continuous
 62
     3
100
AcDbLine
 10
641.1199815805
 20
1307.5847544263
 30
0.0
 11
660.832794131099
 21
1307.5847544263
 31
0.0
  0
LINE
  5
284
330
1F
100
AcDbEntity
  8
100
  6
Continuous
 62
     3
100
AcDbLine
 10
641.1199815805
 20
1279.8719420261
 30
0.0
 11
660.832794131099
 21
1279.8719420261
 31
0.0
  0
LINE
  5
285
330
1F
100
AcDbEntity
  8
100
  6
Continuous
 62
     3
100
AcDbLine
 10
627.355061395681
 20
1201.2283522174
 30
0.0
 11
627.355061395681
 21
1223.23529821487
 31
0.0
  0
LINE
  5
286
330
1F
100
AcDbEntity
  8
100
  6
Continuous
 62
     3
100
AcDbLine
 10
571.4763776338
 20
1319.7283439802
 30
0.0
 11
565.4763777466
 21
1319.7283439802
 31
0.0
  0
LINE
  5
287
330
1F
100
AcDbEntity
  8
100
  6
Continuous
 62
     3
100
AcDbLine
 10
921.639240742338
 20
1263.7283577564
 30
0.0
 11
908.639236103938
 21
1263.7283577564
 31
0.0
  0
LINE
  5
288
330
1F
100
AcDbEntity
  8
100
  6
Continuous
 62
     3
100
AcDbLine
 10
924.480239224127
 20
1201.2283522174
 30
0.0
 11
924.480239224127
 21
1223.23529821487
 31
0.0
  0
LINE
  5
289
330
1F
100
AcDbEntity
  8
1
  6
Continuous
 62
     3
100
AcDbLine
 10
955.622582388651
 20
1310.52531366362
 30
0.0
 11
963.793715047434
 21
1289.50744662715
 31
0.0
  0
LINE
  5
28A
330
1F
100
AcDbEntity
  8
1
  6
Continuous
 62
     3
100
AcDbLine
 10
623.56799697228
 20
1484.2182410893
 30
0.0
 11
636.17637641744
 21
1484.2182410893
 31
0.0
  0
LINE
  5
28B
330
1F
100
AcDbEntity
  8
1
  6
Continuous
 62
     3
100
AcDbLine
 10
623.568007142028
 20
1448.23864233997
 30
0.0
 11
636.17637641744
 21
1448.23864233997
 31
0.0
  0
ARC
  5
28C
330
1F
100
AcDbEntity
  8
1
  6
Continuous
 62
     3
100
AcDbCircle
 10
946.438808223627
 20
1439.92136661502
 30
0.0
 40
2.08221645609199
100
AcDbArc
 50
101.4565735452416
 51
128.3575296744319
  0
ARC
  5
28D
330
1F
100
AcDbEntity
  8
1
  6
Continuous
 62
     3
100
AcDbCircle
 10
942.256839020538
 20
1445.20574053544
 30
0.0
 40
4.656735550301262
100
AcDbArc
 50
281.4565735282258
 51
308.357529674122
  0
ARC
  5
28E
330
1F
100
AcDbEntity
  8
1
  6
Continuous
 62
     3
100
AcDbCircle
 10
933.378415842382
 20
1463.30716920772
 30
0.0
 40
29.92998338507826
100
AcDbArc
 50
76.31483869150024
 51
91.38118534469373
  0
ARC
  5
28F
330
1F
100
AcDbEntity
  8
100
  6
Continuous
 62
     3
100
AcDbCircle
 10
573.4763780286
 20
1439.72834200817
 30
0.0
 40
6.099999885320486
100
AcDbArc
 50
175.2983547609917
 51
359.999997093882
  0
ARC
  5
290
330
1F
100
AcDbEntity
  8
100
  6
Continuous
 62
     3
100
AcDbCircle
 10
573.4763780286
 20
1492.72834001537
 30
0.0
 40
6.099999885320025
100
AcDbArc
 50
359.9999970938841
 51
184.7016457639505
  0
ARC
  5
291
330
1F
100
AcDbEntity
  8
100
  6
Continuous
 62
     3
100
AcDbCircle
 10
616.47637687656
 20
1431.72834172214
 30
0.0
 40
7.249999765975875
100
AcDbArc
 50
27.55969331594024
 51
49.19752756533202
  0
ARC
  5
292
330
1F
100
AcDbEntity
  8
100
  6
Continuous
 62
     3
100
AcDbCircle
 10
585.660780168708
 20
1497.93437794292
 30
0.0
 40
6.999999746242589
100
AcDbArc
 50
225.1294975169416
 51
228.0492510560973
  0
ARC
  5
293
330
1F
100
AcDbEntity
  8
100
  6
Continuous
 62
     3
100
AcDbCircle
 10
573.4763780286
 20
1439.72834200817
 30
0.0
 40
6.249999764999481
100
AcDbArc
 50
183.7493380718458
 51
336.8644014241572
  0
ARC
  5
294
330
1F
100
AcDbEntity
  8
100
  6
Continuous
 62
     3
100
AcDbCircle
 10
616.47637632059
 20
1431.72834173653
 30
0.0
 40
7.249999387925462
100
AcDbArc
 50
160.3657125761386
 51
181.5280456383281
  0
ARC
  5
295
330
1F
100
AcDbEntity
  8
100
  6
Continuous
 62
     3
100
AcDbCircle
 10
585.660780168516
 20
1434.52230408043
 30
0.0
 40
6.999999746243076
100
AcDbArc
 50
131.9507489415918
 51
156.8676590599256
  0
ARC
  5
296
330
1F
100
AcDbEntity
  8
100
  6
Continuous
 62
     3
100
AcDbCircle
 10
616.476376613385
 20
1431.72834236216
 30
0.0
 40
7.249999453475133
100
AcDbArc
 50
49.197522685802
 51
160.3657180104448
  0
ARC
  5
297
330
1F
100
AcDbEntity
  8
100
  6
Continuous
 62
     3
100
AcDbCircle
 10
616.476376798566
 20
1500.72834036317
 30
0.0
 40
7.249999863699224
100
AcDbArc
 50
199.6342867214959
 51
310.8024725822552
  0
ARC
  5
298
330
1F
100
AcDbEntity
  8
100
  6
Continuous
 62
     3
100
AcDbCircle
 10
600.104279672351
 20
1499.53131744024
 30
0.0
 40
6.999999736796576
100
AcDbArc
 50
283.6260752033034
 51
327.9999825821079
  0
ARC
  5
299
330
1F
100
AcDbEntity
  8
100
  6
Continuous
 62
     3
100
AcDbCircle
 10
616.476376798566
 20
1500.72834036317
 30
0.0
 40
7.24999986369976
100
AcDbArc
 50
310.8024725822552
 51
332.4403065364759
  0
ARC
  5
29A
330
1F
100
AcDbEntity
  8
100
  6
Continuous
 62
     3
100
AcDbCircle
 10
616.476376798566
 20
1500.72834036317
 30
0.0
 40
7.249999863699647
100
AcDbArc
 50
178.4719550641472
 51
199.6342867214959
  0
ARC
  5
29B
330
1F
100
AcDbEntity
  8
100
  6
Continuous
 62
     3
100
AcDbCircle
 10
616.476376593679
 20
1500.72834041627
 30
0.0
 40
6.249999547966476
100
AcDbArc
 50
2.8906225832504
 51
148.0474109983278
  0
ARC
  5
29C
330
1F
100
AcDbEntity
  8
100
  6
Continuous
 62
     3
100
AcDbCircle
 10
573.476377933962
 20
1492.72834056942
 30
0.0
 40
6.249999634336688
100
AcDbArc
 50
23.13559356428147
 51
176.25066693971
  0
ARC
  5
29D
330
1F
100
AcDbEntity
  8
100
  6
Continuous
 62
     3
100
AcDbCircle
 10
585.660780213908
 20
1497.93437789792
 30
0.0
 40
6.999999746240247
100
AcDbArc
 50
203.1355981781795
 51
225.1294969948858
  0
ARC
  5
29E
330
1F
100
AcDbEntity
  8
100
  6
Continuous
 62
     3
100
AcDbCircle
 10
951.748466950685
 20
1499.53131800298
 30
0.0
 40
6.999999868301028
100
AcDbArc
 50
212.0000000001675
 51
276.2170752940536
  0
ARC
  5
29F
330
1F
100
AcDbEntity
  8
100
  6
Continuous
 62
     3
100
AcDbCircle
 10
955.37637041648
 20
1466.22834104527
 30
0.0
 40
26.49999950178082
100
AcDbArc
 50
71.36575424583994
 51
96.2170752942967
  0
ARC
  5
2A0
330
1F
100
AcDbEntity
  8
100
  6
Continuous
 62
     3
100
AcDbCircle
 10
966.080482323443
 20
1497.97218999409
 30
0.0
 40
6.999999868402536
100
AcDbArc
 50
251.3657542458981
 51
329.3046215171646
  0
ARC
  5
2A1
330
1F
100
AcDbEntity
  8
100
  6
Continuous
 62
     3
100
AcDbCircle
 10
955.982583338671
 20
1466.22834104527
 30
0.0
 40
29.99999943597013
100
AcDbArc
 50
357.0000000001705
 51
3.00000000023091
  0
ARC
  5
2A2
330
1F
100
AcDbEntity
  8
100
  6
Continuous
 62
     3
100
AcDbCircle
 10
966.080482323443
 20
1434.48449209646
 30
0.0
 40
6.999999868387387
100
AcDbArc
 50
30.6953784828106
 51
108.6342457543244
  0
ARC
  5
2A3
330
1F
100
AcDbEntity
  8
100
  6
Continuous
 62
     3
100
AcDbCircle
 10
955.37637041648
 20
1466.22834104527
 30
0.0
 40
26.499999501782
100
AcDbArc
 50
263.7829247057657
 51
288.6342457541081
  0
ARC
  5
2A4
330
1F
100
AcDbEntity
  8
100
  6
Continuous
 62
     3
100
AcDbCircle
 10
951.748466950685
 20
1432.92536408757
 30
0.0
 40
6.999999868400582
100
AcDbArc
 50
83.78292470570165
 51
147.9999999998535
  0
ARC
  5
2A5
330
1F
100
AcDbEntity
  8
1
  6
Continuous
 62
     3
100
AcDbCircle
 10
596.4763771638
 20
1466.22834101177
 30
0.0
 40
9.895426492771923
100
AcDbArc
 50
197.3749051600188
 51
342.6250948399813
  0
ARC
  5
2A6
330
1F
100
AcDbEntity
  8
1
  6
Continuous
 62
     3
100
AcDbCircle
 10
596.4763771638
 20
1466.22834101177
 30
0.0
 40
9.895426492771184
100
AcDbArc
 50
17.37490516056509
 51
162.6250948394347
  0
ARC
  5
2A7
330
1F
100
AcDbEntity
  8
1
  6
Continuous
 62
     3
100
AcDbCircle
 10
616.4763764118
 20
1431.72834230897
 30
0.0
 40
6.249999765000536
100
AcDbArc
 50
211.9525953421081
 51
357.1093710763063
  0
CIRCLE
  5
2A8
330
1F
100
AcDbEntity
  8
100
  6
Continuous
 62
     3
100
AcDbCircle
 10
596.4763771638
 20
1466.22834101177
 30
0.0
 40
5.89999988908005
  0
CIRCLE
  5
2A9
330
1F
100
AcDbEntity
  8
100
  6
Continuous
 62
     3
100
AcDbCircle
 10
616.4763764118
 20
1500.72833971457
 30
0.0
 40
6.099999885320017
  0
CIRCLE
  5
2AA
330
1F
100
AcDbEntity
  8
100
  6
Continuous
 62
     3
100
AcDbCircle
 10
616.4763764118
 20
1431.72834230897
 30
0.0
 40
6.099999885320017
  0
CIRCLE
  5
2AB
330
1F
100
AcDbEntity
  8
4
  6
PHANTOM
 62
     6
100
AcDbCircle
 10
763.9763764562
 20
1466.22834104527
 30
0.0
 40
49.99999906000005
  0
CIRCLE
  5
2AC
330
1F
100
AcDbEntity
  8
100
  6
Continuous
 62
     3
100
AcDbCircle
 10
978.37636998408
 20
1439.72834154347
 30
0.0
 40
6.249999882496013
  0
CIRCLE
  5
2AD
330
1F
100
AcDbEntity
  8
100
  6
Continuous
 62
     3
100
AcDbCircle
 10
978.37636998408
 20
1492.72834054707
 30
0.0
 40
6.24999988247896
  0
CIRCLE
  5
2AE
330
1F
100
AcDbEntity
  8
100
  6
Continuous
 62
     3
100
AcDbCircle
 10
948.139248641738
 20
1466.22834104527
 30
0.0
 40
7.4999998589999
  0
CIRCLE
  5
2AF
330
1F
100
AcDbEntity
  8
100
  6
Continuous
 62
     3
100
AcDbCircle
 10
935.37637079248
 20
1431.72834169387
 30
0.0
 40
6.249999882499992
  0
CIRCLE
  5
2B0
330
1F
100
AcDbEntity
  8
100
  6
Continuous
 62
     3
100
AcDbCircle
 10
935.37637079248
 20
1500.72834039667
 30
0.0
 40
6.249999882499992
  0
CIRCLE
  5
2B1
330
1F
100
AcDbEntity
  8
100
  6
Continuous
 62
     3
100
AcDbCircle
 10
935.37637079248
 20
1431.72834169387
 30
0.0
 40
4.473502607698038
  0
CIRCLE
  5
2B2
330
1F
100
AcDbEntity
  8
100
  6
Continuous
 62
     3
100
AcDbCircle
 10
978.37636998408
 20
1439.72834154347
 30
0.0
 40
4.473502607697924
  0
LWPOLYLINE
  5
2B3
330
1F
100
AcDbEntity
  8
100
  6
Continuous
 62
     3
100
AcDbPolyline
 90
        8
 70
     0
 43
0.0
 10
957.881385206986
 20
1481.07650359453
 10
958.152494282889
 20
1480.88517452333
 10
960.217105647474
 20
1479.28940742453
 10
962.017719911823
 20
1477.61054999149
 10
963.491508912915
 20
1475.90431568197
 10
964.659933389149
 20
1474.18809548583
 10
965.562495955381
 20
1472.44968908511
 10
966.219855443422
 20
1470.68004547238
  0
LWPOLYLINE
  5
2B4
330
1F
100
AcDbEntity
  8
100
  6
Continuous
 62
     3
100
AcDbPolyline
 90
        7
 70
     0
 43
0.0
 10
957.89232115698
 20
1451.38767054508
 10
960.205202793698
 20
1453.15733502181
 10
962.028357172623
 20
1454.85714281925
 10
963.488540054971
 20
1456.54854002645
 10
964.654990793842
 20
1458.26030397107
 10
965.55989471623
 20
1460.00113591255
 10
966.219793578424
 20
1461.77668453517
  0
LWPOLYLINE
  5
2B5
330
1F
100
AcDbEntity
  8
100
  6
Continuous
 62
     3
100
AcDbPolyline
 90
        4
 70
     0
 43
0.0
 10
948.785891560181
 20
1489.04522603352
 10
951.096321974545
 20
1487.49540500825
 10
953.338245662797
 20
1485.61357672723
 10
955.124592395813
 20
1483.76271190483
  0
LWPOLYLINE
  5
2B6
330
1F
100
AcDbEntity
  8
100
  6
Continuous
 62
     3
100
AcDbPolyline
 90
        5
 70
     0
 43
0.0
 10
957.797469842163
 20
1451.31999170055
 10
957.626288076382
 20
1451.18889743542
 10
957.011709702536
 20
1450.65957094877
 10
956.157148819601
 20
1449.82316859449
 10
955.125784356391
 20
1448.69533278149
  0
LWPOLYLINE
  5
2B7
330
1F
100
AcDbEntity
  8
100
  6
Continuous
 62
     3
100
AcDbPolyline
 90
        5
 70
     0
 43
0.0
 10
955.125787956991
 20
1483.76134519265
 10
956.156518883213
 20
1482.63416657585
 10
957.010986000349
 20
1481.79777447517
 10
957.62586368299
 20
1481.26812116013
 10
957.881024301793
 20
1481.07676687072
  0
LWPOLYLINE
  5
2B8
330
1F
100
AcDbEntity
  8
100
  6
Continuous
 62
     3
100
AcDbPolyline
 90
        4
 70
     0
 43
0.0
 10
955.124589265213
 20
1448.69396660752
 10
953.338349176995
 20
1446.84320259492
 10
951.096218888747
 20
1444.9611998985
 10
948.785890254981
 20
1443.41145527543
  0
LWPOLYLINE
  5
2B9
330
1F
100
AcDbEntity
  8
100
  6
Continuous
 62
     3
100
AcDbPolyline
 90
        3
 70
     0
 43
0.0
 10
948.786015159779
 20
1443.41153007543
 10
946.368023463637
 20
1442.12126781509
 10
946.025227650282
 20
1441.96209601388
  0
LWPOLYLINE
  5
2BA
330
1F
100
AcDbEntity
  8
100
  6
Continuous
 62
     3
100
AcDbPolyline
 90
        3
 70
     0
 43
0.0
 10
940.459446527718
 20
1492.38745307608
 10
940.969775942124
 20
1492.26318818722
 10
948.785891560181
 20
1489.04522603352
  0
LEADER
  5
2BB
330
1F
100
AcDbEntity
  8
1
  6
Continuous
 62
     4
100
AcDbLeader
  3
Standard
 71
     0
 76
     3
 10
555.230577686248
 20
1445.434354925
 30
0.0
 10
546.036750634194
 20
1424.92449436829
 30
0.0
 10
496.533744594109
 20
1424.92449436829
 30
0.0
  0
LEADER
  5
2BC
330
1F
100
AcDbEntity
  8
1
  6
Continuous
 62
     4
100
AcDbLeader
  3
Standard
 71
     0
 76
     3
 10
997.458561480922
 20
1445.43435507987
 30
0.0
 10
1006.59499800909
 20
1428.84649247458
 30
0.0
 10
1053.44363770964
 20
1428.84649247458
 30
0.0
  0
ENDSEC
  0
SECTION
  2
OBJECTS
  0
DICTIONARY
  5
C
330
0
100
AcDbDictionary
281
     1
  3
ACAD_GROUP
350
D
  3
ACAD_LAYOUT
350
1A
  3
ACAD_MATERIAL
350
3B
  3
ACAD_MLEADERSTYLE
350
2BF
  3
ACAD_MLINESTYLE
350
17
  3
ACAD_PLOTSETTINGS
350
19
  3
ACAD_PLOTSTYLENAME
350
E
  3
ACAD_VISUALSTYLE
350
2A
  3
AcDbVariableDictionary
350
2BD
  0
DICTIONARY
  5
D
102
{ACAD_REACTORS
330
C
102
}
330
C
100
AcDbDictionary
281
     1
  0
DICTIONARY
  5
1A
102
{ACAD_REACTORS
330
C
102
}
330
C
100
AcDbDictionary
281
     1
  3
Layout1
350
1E
  3
Layout2
350
26
  3
Model
350
22
  0
DICTIONARY
  5
3B
102
{ACAD_REACTORS
330
C
102
}
330
C
100
AcDbDictionary
281
     1
  3
ByBlock
350
3D
  3
ByLayer
350
3C
  3
Global
350
3E
  0
DICTIONARY
  5
2BF
102
{ACAD_REACTORS
330
C
102
}
330
C
100
AcDbDictionary
281
     1
  0
DICTIONARY
  5
17
102
{ACAD_REACTORS
330
C
102
}
330
C
100
AcDbDictionary
281
     1
  3
Standard
350
18
  0
DICTIONARY
  5
19
102
{ACAD_REACTORS
330
C
102
}
330
C
100
AcDbDictionary
281
     1
  0
ACDBDICTIONARYWDFLT
  5
E
102
{ACAD_REACTORS
330
C
102
}
330
C
100
AcDbDictionary
281
     1
  3
Normal
350
F
100
AcDbDictionaryWithDefault
340
F
  0
DICTIONARY
  5
2A
102
{ACAD_REACTORS
330
C
102
}
330
C
100
AcDbDictionary
281
     1
  3
2dWireframe
350
2F
  3
3D Hidden
350
31
  3
3dWireframe
350
30
  3
Basic
350
32
  3
Brighten
350
36
  3
ColorChange
350
3A
  3
Conceptual
350
34
  3
Dim
350
35
  3
Facepattern
350
39
  3
Flat
350
2B
  3
FlatWithEdges
350
2C
  3
Gouraud
350
2D
  3
GouraudWithEdges
350
2E
  3
Linepattern
350
38
  3
Realistic
350
33
  3
Thicken
350
37
  0
DICTIONARY
  5
2BD
102
{ACAD_REACTORS
330
C
102
}
330
C
100
AcDbDictionary
281
     1
  3
DIMASSOC
350
2C0
  3
HIDETEXT
350
2C1
  0
LAYOUT
  5
1E
102
{ACAD_REACTORS
330
1A
102
}
330
1A
100
AcDbPlotSettings
  1

  2
none_device
  4

  6

 40
0.0
 41
0.0
 42
0.0
 43
0.0
 44
0.0
 45
0.0
 46
0.0
 47
0.0
 48
0.0
 49
0.0
140
0.0
141
0.0
142
1.0
143
1.0
 70
   688
 72
     0
 73
     0
 74
     5
  7

 75
    16
147
1.0
148
0.0
149
0.0
100
AcDbLayout
  1
Layout1
 70
     1
 71
     1
 10
0.0
 20
0.0
 11
12.0
 21
9.0
 12
0.0
 22
0.0
 32
0.0
 14
1.00000000000000E+20
 24
1.00000000000000E+20
 34
1.00000000000000E+20
 15
-1.00000000000000E+20
 25
-1.00000000000000E+20
 35
-1.00000000000000E+20
146
0.0
 13
0.0
 23
0.0
 33
0.0
 16
1.0
 26
0.0
 36
0.0
 17
0.0
 27
1.0
 37
0.0
 76
     0
330
1B
  0
LAYOUT
  5
26
102
{ACAD_REACTORS
330
1A
102
}
330
1A
100
AcDbPlotSettings
  1

  2
none_device
  4

  6

 40
0.0
 41
0.0
 42
0.0
 43
0.0
 44
0.0
 45
0.0
 46
0.0
 47
0.0
 48
0.0
 49
0.0
140
0.0
141
0.0
142
1.0
143
1.0
 70
   688
 72
     0
 73
     0
 74
     5
  7

 75
    16
147
1.0
148
0.0
149
0.0
100
AcDbLayout
  1
Layout2
 70
     1
 71
     2
 10
0.0
 20
0.0
 11
0.0
 21
0.0
 12
0.0
 22
0.0
 32
0.0
 14
0.0
 24
0.0
 34
0.0
 15
0.0
 25
0.0
 35
0.0
146
0.0
 13
0.0
 23
0.0
 33
0.0
 16
1.0
 26
0.0
 36
0.0
 17
0.0
 27
1.0
 37
0.0
 76
     0
330
23
  0
LAYOUT
  5
22
102
{ACAD_REACTORS
330
1A
102
}
330
1A
100
AcDbPlotSettings
  1

  2
none_device
  4

  6

 40
0.0
 41
0.0
 42
0.0
 43
0.0
 44
0.0
 45
0.0
 46
0.0
 47
0.0
 48
0.0
 49
0.0
140
0.0
141
0.0
142
1.0
143
1.0
 70
  1712
 72
     0
 73
     0
 74
     0
  7

 75
     0
147
1.0
148
0.0
149
0.0
100
AcDbLayout
  1
Model
 70
     1
 71
     0
 10
0.0
 20
0.0
 11
12.0
 21
9.0
 12
0.0
 22
0.0
 32
0.0
 14
496.533744594109
 24
1200.961054579
 34
0.0
 15
1157.9594403171
 25
1522.43597932046
 35
0.0
146
0.0
 13
0.0
 23
0.0
 33
0.0
 16
1.0
 26
0.0
 36
0.0
 17
0.0
 27
1.0
 37
0.0
 76
     0
330
1F
331
29
  0
MATERIAL
  5
3D
102
{ACAD_REACTORS
330
3B
102
}
102
{ACAD_XDICTIONARY
360
2E4
102
}
330
3B
100
AcDbMaterial
  1
ByBlock
  0
MATERIAL
  5
3C
102
{ACAD_REACTORS
330
3B
102
}
102
{ACAD_XDICTIONARY
360
2E2
102
}
330
3B
100
AcDbMaterial
  1
ByLayer
  0
MATERIAL
  5
3E
102
{ACAD_REACTORS
330
3B
102
}
102
{ACAD_XDICTIONARY
360
2E6
102
}
330
3B
100
AcDbMaterial
  1
Global
  0
MLINESTYLE
  5
18
102
{ACAD_REACTORS
330
17
102
}
330
17
100
AcDbMlineStyle
  2
Standard
 70
     0
  3

 62
   256
 51
90.0
 52
90.0
 71
     2
 49
0.5
 62
   256
  6
BYLAYER
 49
-0.5
 62
   256
  6
BYLAYER
  0
ACDBPLACEHOLDER
  5
F
102
{ACAD_REACTORS
330
E
102
}
330
E
  0
VISUALSTYLE
  5
2F
102
{ACAD_REACTORS
330
2A
102
}
102
{ACAD_XDICTIONARY
360
2CA
102
}
330
2A
100
AcDbVisualStyle
  2
2dWireframe
 70
     4
 71
     0
 72
     2
 73
     0
 90
        0
 40
-0.6
 41
-30.0
 62
     5
 63
     7
 74
     1
 91
        4
 64
     7
 65
   257
 75
     1
175
     1
 42
1.0
 92
        0
 66
   257
 43
1.0
 76
     1
 77
     6
 78
     2
 67
     7
 79
     5
170
     0
171
     0
290
     0
174
     0
 93
        1
 44
0.0
173
     0
291
     0
 45
0.0
1001
ACAD
1000
AcDbSavedByObjectVersion
1070
     0
  0
VISUALSTYLE
  5
31
102
{ACAD_REACTORS
330
2A
102
}
102
{ACAD_XDICTIONARY
360
2CE
102
}
330
2A
100
AcDbVisualStyle
  2
3D Hidden
 70
     6
 71
     1
 72
     2
 73
     2
 90
        0
 40
-0.6
 41
-30.0
 62
     5
 63
     7
 74
     2
 91
        2
 64
     7
 65
   257
 75
     2
175
     1
 42
40.0
 92
        0
 66
   257
 43
1.0
 76
     1
 77
     6
 78
     2
 67
     7
 79
     3
170
     0
171
     0
290
     0
174
     0
 93
        1
 44
0.0
173
     0
291
     0
 45
0.0
1001
ACAD
1000
AcDbSavedByObjectVersion
1070
     0
  0
VISUALSTYLE
  5
30
102
{ACAD_REACTORS
330
2A
102
}
102
{ACAD_XDICTIONARY
360
2CC
102
}
330
2A
100
AcDbVisualStyle
  2
3dWireframe
 70
     5
 71
     0
 72
     2
 73
     0
 90
        0
 40
-0.6
 41
-30.0
 62
     5
 63
     7
 74
     1
 91
        4
 64
     7
 65
   257
 75
     1
175
     1
 42
1.0
 92
        0
 66
   257
 43
1.0
 76
     1
 77
     6
 78
     2
 67
     7
 79
     5
170
     0
171
     0
290
     0
174
     0
 93
        1
 44
0.0
173
     0
291
     0
 45
0.0
1001
ACAD
1000
AcDbSavedByObjectVersion
1070
     0
  0
VISUALSTYLE
  5
32
102
{ACAD_REACTORS
330
2A
102
}
102
{ACAD_XDICTIONARY
360
2D0
102
}
330
2A
100
AcDbVisualStyle
  2
Basic
 70
     7
 71
     1
 72
     0
 73
     1
 90
        0
 40
-0.6
 41
-30.0
 62
     5
 63
     7
 74
     0
 91
        4
 64
     7
 65
   257
 75
     1
175
     1
 42
1.0
 92
        8
 66
     7
 43
1.0
 76
     1
 77
     6
 78
     2
 67
     7
 79
     5
170
     0
171
     0
290
     0
174
     0
 93
        1
 44
0.0
173
     0
291
     1
 45
0.0
1001
ACAD
1000
AcDbSavedByObjectVersion
1070
     0
  0
VISUALSTYLE
  5
36
102
{ACAD_REACTORS
330
2A
102
}
102
{ACAD_XDICTIONARY
360
2D8
102
}
330
2A
100
AcDbVisualStyle
  2
Brighten
 70
    12
 71
     2
 72
     2
 73
     0
 90
        0
 40
-0.6
 41
-30.0
 62
     5
 63
     7
 74
     1
 91
        4
 64
     7
 65
   257
 75
     1
175
     1
 42
1.0
 92
        8
 66
     7
 43
1.0
 76
     1
 77
     6
 78
     2
 67
     7
 79
     5
170
     0
171
     0
290
     0
174
     0
 93
        1
 44
50.0
173
     0
291
     1
 45
0.0
1001
ACAD
1000
AcDbSavedByObjectVersion
1070
     0
  0
VISUALSTYLE
  5
3A
102
{ACAD_REACTORS
330
2A
102
}
102
{ACAD_XDICTIONARY
360
2E0
102
}
330
2A
100
AcDbVisualStyle
  2
ColorChange
 70
    16
 71
     2
 72
     2
 73
     3
 90
        0
 40
-0.6
 41
-30.0
 62
     5
 63
     8
 74
     1
 91
        4
 64
     7
 65
   257
 75
     1
175
     1
 42
1.0
 92
        8
 66
     8
 43
1.0
 76
     1
 77
     6
 78
     2
 67
     7
 79
     5
170
     0
171
     0
290
     0
174
     0
 93
        1
 44
0.0
173
     0
291
     1
 45
0.0
1001
ACAD
1000
AcDbSavedByObjectVersion
1070
     0
  0
VISUALSTYLE
  5
34
102
{ACAD_REACTORS
330
2A
102
}
102
{ACAD_XDICTIONARY
360
2D4
102
}
330
2A
100
AcDbVisualStyle
  2
Conceptual
 70
     9
 71
     3
 72
     2
 73
     0
 90
        0
 40
-0.6
 41
-30.0
 62
     5
 63
     7
 74
     2
 91
        2
 64
     7
 65
   257
 75
     1
175
     1
 42
40.0
 92
        8
 66
     7
 43
1.0
 76
     1
 77
     6
 78
     2
 67
     7
 79
     3
170
     0
171
     0
290
     0
174
     0
 93
        1
 44
0.0
173
     0
291
     0
 45
0.0
1001
ACAD
1000
AcDbSavedByObjectVersion
1070
     0
  0
VISUALSTYLE
  5
35
102
{ACAD_REACTORS
330
2A
102
}
102
{ACAD_XDICTIONARY
360
2D6
102
}
330
2A
100
AcDbVisualStyle
  2
Dim
 70
    11
 71
     2
 72
     2
 73
     0
 90
        0
 40
-0.6
 41
-30.0
 62
     5
 63
     7
 74
     1
 91
        4
 64
     7
 65
   257
 75
     1
175
     1
 42
1.0
 92
        8
 66
     7
 43
1.0
 76
     1
 77
     6
 78
     2
 67
     7
 79
     5
170
     0
171
     0
290
     0
174
     0
 93
        1
 44
-50.0
173
     0
291
     1
 45
0.0
1001
ACAD
1000
AcDbSavedByObjectVersion
1070
     0
  0
VISUALSTYLE
  5
39
102
{ACAD_REACTORS
330
2A
102
}
102
{ACAD_XDICTIONARY
360
2DE
102
}
330
2A
100
AcDbVisualStyle
  2
Facepattern
 70
    15
 71
     2
 72
     2
 73
     0
 90
        0
 40
-0.6
 41
-30.0
 62
     5
 63
     7
 74
     1
 91
        4
 64
     7
 65
   257
 75
     1
175
     1
 42
1.0
 92
        8
 66
     7
 43
1.0
 76
     1
 77
     6
 78
     2
 67
     7
 79
     5
170
     0
171
     0
290
     0
174
     0
 93
        1
 44
0.0
173
     0
291
     1
 45
0.0
1001
ACAD
1000
AcDbSavedByObjectVersion
1070
     0
  0
VISUALSTYLE
  5
2B
102
{ACAD_REACTORS
330
2A
102
}
102
{ACAD_XDICTIONARY
360
2C2
102
}
330
2A
100
AcDbVisualStyle
  2
Flat
 70
     0
 71
     2
 72
     1
 73
     1
 90
        2
 40
-0.6
 41
30.0
 62
     5
 63
     7
 74
     0
 91
        4
 64
     7
 65
   257
 75
     1
175
     1
 42
1.0
 92
        8
 66
     7
 43
1.0
 76
     1
 77
     6
 78
     2
 67
     7
 79
     5
170
     0
171
     0
290
     0
174
     0
 93
       13
 44
0.0
173
     0
291
     1
 45
0.0
1001
ACAD
1000
AcDbSavedByObjectVersion
1070
     0
  0
VISUALSTYLE
  5
2C
102
{ACAD_REACTORS
330
2A
102
}
102
{ACAD_XDICTIONARY
360
2C4
102
}
330
2A
100
AcDbVisualStyle
  2
FlatWithEdges
 70
     1
 71
     2
 72
     1
 73
     1
 90
        2
 40
-0.6
 41
30.0
 62
     5
 63
     7
 74
     1
 91
        4
 64
     7
 65
   257
 75
     1
175
     1
 42
1.0
 92
        0
 66
   257
 43
1.0
 76
     1
 77
     6
 78
     2
 67
     7
 79
     5
170
     0
171
     0
290
     0
174
     0
 93
       13
 44
0.0
173
     0
291
     1
 45
0.0
1001
ACAD
1000
AcDbSavedByObjectVersion
1070
     0
  0
VISUALSTYLE
  5
2D
102
{ACAD_REACTORS
330
2A
102
}
102
{ACAD_XDICTIONARY
360
2C6
102
}
330
2A
100
AcDbVisualStyle
  2
Gouraud
 70
     2
 71
     2
 72
     2
 73
     1
 90
        2
 40
-0.6
 41
30.0
 62
     5
 63
     7
 74
     0
 91
        4
 64
     7
 65
   257
 75
     1
175
     1
 42
1.0
 92
        0
 66
     7
 43
1.0
 76
     1
 77
     6
 78
     2
 67
     7
 79
     5
170
     0
171
     0
290
     0
174
     0
 93
       13
 44
0.0
173
     0
291
     1
 45
0.0
1001
ACAD
1000
AcDbSavedByObjectVersion
1070
     0
  0
VISUALSTYLE
  5
2E
102
{ACAD_REACTORS
330
2A
102
}
102
{ACAD_XDICTIONARY
360
2C8
102
}
330
2A
100
AcDbVisualStyle
  2
GouraudWithEdges
 70
     3
 71
     2
 72
     2
 73
     1
 90
        2
 40
-0.6
 41
30.0
 62
     5
 63
     7
 74
     1
 91
        4
 64
     7
 65
   257
 75
     1
175
     1
 42
1.0
 92
        0
 66
   257
 43
1.0
 76
     1
 77
     6
 78
     2
 67
     7
 79
     5
170
     0
171
     0
290
     0
174
     0
 93
       13
 44
0.0
173
     0
291
     1
 45
0.0
1001
ACAD
1000
AcDbSavedByObjectVersion
1070
     0
  0
VISUALSTYLE
  5
38
102
{ACAD_REACTORS
330
2A
102
}
102
{ACAD_XDICTIONARY
360
2DC
102
}
330
2A
100
AcDbVisualStyle
  2
Linepattern
 70
    14
 71
     2
 72
     2
 73
     0
 90
        0
 40
-0.6
 41
-30.0
 62
     5
 63
     7
 74
     1
 91
        4
 64
     7
 65
   257
 75
     7
175
     7
 42
1.0
 92
        8
 66
     7
 43
1.0
 76
     1
 77
     6
 78
     2
 67
     7
 79
     5
170
     0
171
     0
290
     0
174
     0
 93
        1
 44
0.0
173
     0
291
     1
 45
0.0
1001
ACAD
1000
AcDbSavedByObjectVersion
1070
     0
  0
VISUALSTYLE
  5
33
102
{ACAD_REACTORS
330
2A
102
}
102
{ACAD_XDICTIONARY
360
2D2
102
}
330
2A
100
AcDbVisualStyle
  2
Realistic
 70
     8
 71
     2
 72
     2
 73
     0
 90
        0
 40
-0.6
 41
-30.0
 62
     5
 63
     7
 74
     1
 91
        0
 64
     7
 65
   257
 75
     1
175
     1
 42
1.0
 92
        8
 66
     8
 43
1.0
 76
     1
 77
     6
 78
     2
 67
     7
 79
     5
170
     0
171
     0
290
     0
174
     0
 93
       13
 44
0.0
173
     0
291
     0
 45
0.0
1001
ACAD
1000
AcDbSavedByObjectVersion
1070
     0
  0
VISUALSTYLE
  5
37
102
{ACAD_REACTORS
330
2A
102
}
102
{ACAD_XDICTIONARY
360
2DA
102
}
330
2A
100
AcDbVisualStyle
  2
Thicken
 70
    13
 71
     2
 72
     2
 73
     0
 90
        0
 40
-0.6
 41
-30.0
 62
     5
 63
     7
 74
     1
 91
        4
 64
     7
 65
   257
 75
     1
175
     1
 42
1.0
 92
       12
 66
     7
 43
1.0
 76
     1
 77
     6
 78
     2
 67
     7
 79
     5
170
     0
171
     0
290
     0
174
     0
 93
        1
 44
0.0
173
     0
291
     1
 45
0.0
1001
ACAD
1000
AcDbSavedByObjectVersion
1070
     0
  0
DICTIONARYVAR
  5
2C0
102
{ACAD_REACTORS
330
2BD
102
}
330
2BD
100
DictionaryVariables
280
     0
  1
2
  0
DICTIONARYVAR
  5
2C1
102
{ACAD_REACTORS
330
2BD
102
}
330
2BD
100
DictionaryVariables
280
     0
  1
1
  0
DICTIONARY
  5
2E4
330
3D
100
AcDbDictionary
280
     1
281
     1
  3
ACAD_XREC_ROUNDTRIP
360
2E5
  0
DICTIONARY
  5
2E2
330
3C
100
AcDbDictionary
280
     1
281
     1
  3
ACAD_XREC_ROUNDTRIP
360
2E3
  0
DICTIONARY
  5
2E6
330
3E
100
AcDbDictionary
280
     1
281
     1
  3
ACAD_XREC_ROUNDTRIP
360
2E7
  0
DICTIONARY
  5
2CA
330
2F
100
AcDbDictionary
280
     1
281
     1
  3
ACAD_XREC_ROUNDTRIP
360
2CB
  0
DICTIONARY
  5
2CE
330
31
100
AcDbDictionary
280
     1
281
     1
  3
ACAD_XREC_ROUNDTRIP
360
2CF
  0
DICTIONARY
  5
2CC
330
30
100
AcDbDictionary
280
     1
281
     1
  3
ACAD_XREC_ROUNDTRIP
360
2CD
  0
DICTIONARY
  5
2D0
330
32
100
AcDbDictionary
280
     1
281
     1
  3
ACAD_XREC_ROUNDTRIP
360
2D1
  0
DICTIONARY
  5
2D8
330
36
100
AcDbDictionary
280
     1
281
     1
  3
ACAD_XREC_ROUNDTRIP
360
2D9
  0
DICTIONARY
  5
2E0
330
3A
100
AcDbDictionary
280
     1
281
     1
  3
ACAD_XREC_ROUNDTRIP
360
2E1
  0
DICTIONARY
  5
2D4
330
34
100
AcDbDictionary
280
     1
281
     1
  3
ACAD_XREC_ROUNDTRIP
360
2D5
  0
DICTIONARY
  5
2D6
330
35
100
AcDbDictionary
280
     1
281
     1
  3
ACAD_XREC_ROUNDTRIP
360
2D7
  0
DICTIONARY
  5
2DE
330
39
100
AcDbDictionary
280
     1
281
     1
  3
ACAD_XREC_ROUNDTRIP
360
2DF
  0
DICTIONARY
  5
2C2
330
2B
100
AcDbDictionary
280
     1
281
     1
  3
ACAD_XREC_ROUNDTRIP
360
2C3
  0
DICTIONARY
  5
2C4
330
2C
100
AcDbDictionary
280
     1
281
     1
  3
ACAD_XREC_ROUNDTRIP
360
2C5
  0
DICTIONARY
  5
2C6
330
2D
100
AcDbDictionary
280
     1
281
     1
  3
ACAD_XREC_ROUNDTRIP
360
2C7
  0
DICTIONARY
  5
2C8
330
2E
100
AcDbDictionary
280
     1
281
     1
  3
ACAD_XREC_ROUNDTRIP
360
2C9
  0
DICTIONARY
  5
2DC
330
38
100
AcDbDictionary
280
     1
281
     1
  3
ACAD_XREC_ROUNDTRIP
360
2DD
  0
DICTIONARY
  5
2D2
330
33
100
AcDbDictionary
280
     1
281
     1
  3
ACAD_XREC_ROUNDTRIP
360
2D3
  0
DICTIONARY
  5
2DA
330
37
100
AcDbDictionary
280
     1
281
     1
  3
ACAD_XREC_ROUNDTRIP
360
2DB
  0
XRECORD
  5
2E5
102
{ACAD_REACTORS
330
2E4
102
}
330
2E4
100
AcDbXrecord
280
     1
102
MATERIAL
148
0.0
149
0.0
149
0.0
 93
        0
 94
      127
282
     0
 72
     1
 77
     1
171
     1
175
     1
179
     1
273
     0
  0
XRECORD
  5
2E3
102
{ACAD_REACTORS
330
2E2
102
}
330
2E2
100
AcDbXrecord
280
     1
102
MATERIAL
148
0.0
149
0.0
149
0.0
 93
        0
 94
      127
282
     0
 72
     1
 77
     1
171
     1
175
     1
179
     1
273
     0
  0
XRECORD
  5
2E7
102
{ACAD_REACTORS
330
2E6
102
}
330
2E6
100
AcDbXrecord
280
     1
102
MATERIAL
148
0.0
149
0.0
149
0.0
 93
        0
 94
      127
282
     0
 72
     1
 77
     1
171
     1
175
     1
179
     1
273
     0
  0
XRECORD
  5
2CB
102
{ACAD_REACTORS
330
2CA
102
}
330
2CA
100
AcDbXrecord
280
     1
102
RTVSPropertyOp0
 70
     1
102
RTVSPropertyOp1
 70
     1
102
RTVSPropertyOp2
 70
     1
102
RTVSPropertyOp3
 70
     1
102
RTVSPropertyOp4
 70
     1
102
RTVSPropertyOp5
 70
     1
102
RTVSPropertyOp6
 70
     1
102
RTVSPropertyOp7
 70
     1
102
RTVSPropertyOp8
 70
     1
102
RTVSPropertyOp9
 70
     1
102
RTVSPropertyOp10
 70
     1
102
RTVSPropertyOp11
 70
     1
102
RTVSPropertyOp12
 70
     1
102
RTVSPropertyOp13
 70
     1
102
RTVSPropertyOp14
 70
     1
102
RTVSPropertyOp15
 70
     1
102
RTVSPropertyOp16
 70
     1
102
RTVSPropertyOp17
 70
     1
102
RTVSPropertyOp18
 70
     1
102
RTVSPropertyOp19
 70
     1
102
RTVSPropertyOp20
 70
     1
102
RTVSPropertyOp21
 70
     1
102
RTVSPropertyOp22
 70
     1
102
RTVSPropertyOp23
 70
     1
102
RTVSPropertyOp24
 70
     1
102
RTVSPropertyOp25
 70
     1
102
RTVSPropertyOp26
 70
     1
102
RTVSPropertyOp27
 70
     1
  0
XRECORD
  5
2CF
102
{ACAD_REACTORS
330
2CE
102
}
330
2CE
100
AcDbXrecord
280
     1
102
RTVSPropertyOp0
 70
     1
102
RTVSPropertyOp1
 70
     1
102
RTVSPropertyOp2
 70
     1
102
RTVSPropertyOp3
 70
     1
102
RTVSPropertyOp4
 70
     1
102
RTVSPropertyOp5
 70
     1
102
RTVSPropertyOp6
 70
     1
102
RTVSPropertyOp7
 70
     1
102
RTVSPropertyOp8
 70
     1
102
RTVSPropertyOp9
 70
     1
102
RTVSPropertyOp10
 70
     1
102
RTVSPropertyOp11
 70
     1
102
RTVSPropertyOp12
 70
     1
102
RTVSPropertyOp13
 70
     1
102
RTVSPropertyOp14
 70
     1
102
RTVSPropertyOp15
 70
     1
102
RTVSPropertyOp16
 70
     1
102
RTVSPropertyOp17
 70
     1
102
RTVSPropertyOp18
 70
     1
102
RTVSPropertyOp19
 70
     1
102
RTVSPropertyOp20
 70
     1
102
RTVSPropertyOp21
 70
     1
102
RTVSPropertyOp22
 70
     1
102
RTVSPropertyOp23
 70
     1
102
RTVSPropertyOp24
 70
     1
102
RTVSPropertyOp25
 70
     1
102
RTVSPropertyOp26
 70
     1
102
RTVSPropertyOp27
 70
     1
  0
XRECORD
  5
2CD
102
{ACAD_REACTORS
330
2CC
102
}
330
2CC
100
AcDbXrecord
280
     1
102
RTVSPropertyOp0
 70
     1
102
RTVSPropertyOp1
 70
     1
102
RTVSPropertyOp2
 70
     1
102
RTVSPropertyOp3
 70
     1
102
RTVSPropertyOp4
 70
     1
102
RTVSPropertyOp5
 70
     1
102
RTVSPropertyOp6
 70
     1
102
RTVSPropertyOp7
 70
     1
102
RTVSPropertyOp8
 70
     1
102
RTVSPropertyOp9
 70
     1
102
RTVSPropertyOp10
 70
     1
102
RTVSPropertyOp11
 70
     1
102
RTVSPropertyOp12
 70
     1
102
RTVSPropertyOp13
 70
     1
102
RTVSPropertyOp14
 70
     1
102
RTVSPropertyOp15
 70
     1
102
RTVSPropertyOp16
 70
     1
102
RTVSPropertyOp17
 70
     1
102
RTVSPropertyOp18
 70
     1
102
RTVSPropertyOp19
 70
     1
102
RTVSPropertyOp20
 70
     1
102
RTVSPropertyOp21
 70
     1
102
RTVSPropertyOp22
 70
     1
102
RTVSPropertyOp23
 70
     1
102
RTVSPropertyOp24
 70
     1
102
RTVSPropertyOp25
 70
     1
102
RTVSPropertyOp26
 70
     1
102
RTVSPropertyOp27
 70
     1
  0
XRECORD
  5
2D1
102
{ACAD_REACTORS
330
2D0
102
}
330
2D0
100
AcDbXrecord
280
     1
102
RTVSPropertyOp0
 70
     1
102
RTVSPropertyOp1
 70
     1
102
RTVSPropertyOp2
 70
     1
102
RTVSPropertyOp3
 70
     1
102
RTVSPropertyOp4
 70
     1
102
RTVSPropertyOp5
 70
     1
102
RTVSPropertyOp6
 70
     1
102
RTVSPropertyOp7
 70
     1
102
RTVSPropertyOp8
 70
     1
102
RTVSPropertyOp9
 70
     1
102
RTVSPropertyOp10
 70
     1
102
RTVSPropertyOp11
 70
     1
102
RTVSPropertyOp12
 70
     1
102
RTVSPropertyOp13
 70
     1
102
RTVSPropertyOp14
 70
     1
102
RTVSPropertyOp15
 70
     1
102
RTVSPropertyOp16
 70
     1
102
RTVSPropertyOp17
 70
     1
102
RTVSPropertyOp18
 70
     1
102
RTVSPropertyOp19
 70
     1
102
RTVSPropertyOp20
 70
     1
102
RTVSPropertyOp21
 70
     1
102
RTVSPropertyOp22
 70
     1
102
RTVSPropertyOp23
 70
     1
102
RTVSPropertyOp24
 70
     1
102
RTVSPropertyOp25
 70
     1
102
RTVSPropertyOp26
 70
     1
102
RTVSPropertyOp27
 70
     1
  0
XRECORD
  5
2D9
102
{ACAD_REACTORS
330
2D8
102
}
330
2D8
100
AcDbXrecord
280
     1
102
RTVSPropertyOp0
 70
     1
102
RTVSPropertyOp1
 70
     1
102
RTVSPropertyOp2
 70
     1
102
RTVSPropertyOp3
 70
     1
102
RTVSPropertyOp4
 70
     1
102
RTVSPropertyOp5
 70
     1
102
RTVSPropertyOp6
 70
     1
102
RTVSPropertyOp7
 70
     1
102
RTVSPropertyOp8
 70
     1
102
RTVSPropertyOp9
 70
     1
102
RTVSPropertyOp10
 70
     1
102
RTVSPropertyOp11
 70
     1
102
RTVSPropertyOp12
 70
     1
102
RTVSPropertyOp13
 70
     1
102
RTVSPropertyOp14
 70
     1
102
RTVSPropertyOp15
 70
     1
102
RTVSPropertyOp16
 70
     1
102
RTVSPropertyOp17
 70
     1
102
RTVSPropertyOp18
 70
     1
102
RTVSPropertyOp19
 70
     1
102
RTVSPropertyOp20
 70
     1
102
RTVSPropertyOp21
 70
     1
102
RTVSPropertyOp22
 70
     1
102
RTVSPropertyOp23
 70
     1
102
RTVSPropertyOp24
 70
     1
102
RTVSPropertyOp25
 70
     1
102
RTVSPropertyOp26
 70
     1
102
RTVSPropertyOp27
 70
     1
  0
XRECORD
  5
2E1
102
{ACAD_REACTORS
330
2E0
102
}
330
2E0
100
AcDbXrecord
280
     1
102
RTVSPropertyOp0
 70
     1
102
RTVSPropertyOp1
 70
     1
102
RTVSPropertyOp2
 70
     1
102
RTVSPropertyOp3
 70
     1
102
RTVSPropertyOp4
 70
     1
102
RTVSPropertyOp5
 70
     1
102
RTVSPropertyOp6
 70
     1
102
RTVSPropertyOp7
 70
     1
102
RTVSPropertyOp8
 70
     1
102
RTVSPropertyOp9
 70
     1
102
RTVSPropertyOp10
 70
     1
102
RTVSPropertyOp11
 70
     1
102
RTVSPropertyOp12
 70
     1
102
RTVSPropertyOp13
 70
     1
102
RTVSPropertyOp14
 70
     1
102
RTVSPropertyOp15
 70
     1
102
RTVSPropertyOp16
 70
     1
102
RTVSPropertyOp17
 70
     1
102
RTVSPropertyOp18
 70
     1
102
RTVSPropertyOp19
 70
     1
102
RTVSPropertyOp20
 70
     1
102
RTVSPropertyOp21
 70
     1
102
RTVSPropertyOp22
 70
     1
102
RTVSPropertyOp23
 70
     1
102
RTVSPropertyOp24
 70
     1
102
RTVSPropertyOp25
 70
     1
102
RTVSPropertyOp26
 70
     1
102
RTVSPropertyOp27
 70
     1
  0
XRECORD
  5
2D5
102
{ACAD_REACTORS
330
2D4
102
}
330
2D4
100
AcDbXrecord
280
     1
102
RTVSPropertyOp0
 70
     1
102
RTVSPropertyOp1
 70
     1
102
RTVSPropertyOp2
 70
     1
102
RTVSPropertyOp3
 70
     1
102
RTVSPropertyOp4
 70
     1
102
RTVSPropertyOp5
 70
     1
102
RTVSPropertyOp6
 70
     1
102
RTVSPropertyOp7
 70
     1
102
RTVSPropertyOp8
 70
     1
102
RTVSPropertyOp9
 70
     1
102
RTVSPropertyOp10
 70
     1
102
RTVSPropertyOp11
 70
     1
102
RTVSPropertyOp12
 70
     1
102
RTVSPropertyOp13
 70
     1
102
RTVSPropertyOp14
 70
     1
102
RTVSPropertyOp15
 70
     1
102
RTVSPropertyOp16
 70
     1
102
RTVSPropertyOp17
 70
     1
102
RTVSPropertyOp18
 70
     1
102
RTVSPropertyOp19
 70
     1
102
RTVSPropertyOp20
 70
     1
102
RTVSPropertyOp21
 70
     1
102
RTVSPropertyOp22
 70
     1
102
RTVSPropertyOp23
 70
     1
102
RTVSPropertyOp24
 70
     1
102
RTVSPropertyOp25
 70
     1
102
RTVSPropertyOp26
 70
     1
102
RTVSPropertyOp27
 70
     1
  0
XRECORD
  5
2D7
102
{ACAD_REACTORS
330
2D6
102
}
330
2D6
100
AcDbXrecord
280
     1
102
RTVSPropertyOp0
 70
     1
102
RTVSPropertyOp1
 70
     1
102
RTVSPropertyOp2
 70
     1
102
RTVSPropertyOp3
 70
     1
102
RTVSPropertyOp4
 70
     1
102
RTVSPropertyOp5
 70
     1
102
RTVSPropertyOp6
 70
     1
102
RTVSPropertyOp7
 70
     1
102
RTVSPropertyOp8
 70
     1
102
RTVSPropertyOp9
 70
     1
102
RTVSPropertyOp10
 70
     1
102
RTVSPropertyOp11
 70
     1
102
RTVSPropertyOp12
 70
     1
102
RTVSPropertyOp13
 70
     1
102
RTVSPropertyOp14
 70
     1
102
RTVSPropertyOp15
 70
     1
102
RTVSPropertyOp16
 70
     1
102
RTVSPropertyOp17
 70
     1
102
RTVSPropertyOp18
 70
     1
102
RTVSPropertyOp19
 70
     1
102
RTVSPropertyOp20
 70
     1
102
RTVSPropertyOp21
 70
     1
102
RTVSPropertyOp22
 70
     1
102
RTVSPropertyOp23
 70
     1
102
RTVSPropertyOp24
 70
     1
102
RTVSPropertyOp25
 70
     1
102
RTVSPropertyOp26
 70
     1
102
RTVSPropertyOp27
 70
     1
  0
XRECORD
  5
2DF
102
{ACAD_REACTORS
330
2DE
102
}
330
2DE
100
AcDbXrecord
280
     1
102
RTVSPropertyOp0
 70
     1
102
RTVSPropertyOp1
 70
     1
102
RTVSPropertyOp2
 70
     1
102
RTVSPropertyOp3
 70
     1
102
RTVSPropertyOp4
 70
     1
102
RTVSPropertyOp5
 70
     1
102
RTVSPropertyOp6
 70
     1
102
RTVSPropertyOp7
 70
     1
102
RTVSPropertyOp8
 70
     1
102
RTVSPropertyOp9
 70
     1
102
RTVSPropertyOp10
 70
     1
102
RTVSPropertyOp11
 70
     1
102
RTVSPropertyOp12
 70
     1
102
RTVSPropertyOp13
 70
     1
102
RTVSPropertyOp14
 70
     1
102
RTVSPropertyOp15
 70
     1
102
RTVSPropertyOp16
 70
     1
102
RTVSPropertyOp17
 70
     1
102
RTVSPropertyOp18
 70
     1
102
RTVSPropertyOp19
 70
     1
102
RTVSPropertyOp20
 70
     1
102
RTVSPropertyOp21
 70
     1
102
RTVSPropertyOp22
 70
     1
102
RTVSPropertyOp23
 70
     1
102
RTVSPropertyOp24
 70
     1
102
RTVSPropertyOp25
 70
     1
102
RTVSPropertyOp26
 70
     1
102
RTVSPropertyOp27
 70
     1
  0
XRECORD
  5
2C3
102
{ACAD_REACTORS
330
2C2
102
}
330
2C2
100
AcDbXrecord
280
     1
102
RTVSPropertyOp0
 70
     1
102
RTVSPropertyOp1
 70
     1
102
RTVSPropertyOp2
 70
     1
102
RTVSPropertyOp3
 70
     1
102
RTVSPropertyOp4
 70
     1
102
RTVSPropertyOp5
 70
     1
102
RTVSPropertyOp6
 70
     1
102
RTVSPropertyOp7
 70
     1
102
RTVSPropertyOp8
 70
     1
102
RTVSPropertyOp9
 70
     1
102
RTVSPropertyOp10
 70
     1
102
RTVSPropertyOp11
 70
     1
102
RTVSPropertyOp12
 70
     1
102
RTVSPropertyOp13
 70
     1
102
RTVSPropertyOp14
 70
     1
102
RTVSPropertyOp15
 70
     1
102
RTVSPropertyOp16
 70
     1
102
RTVSPropertyOp17
 70
     1
102
RTVSPropertyOp18
 70
     1
102
RTVSPropertyOp19
 70
     1
102
RTVSPropertyOp20
 70
     1
102
RTVSPropertyOp21
 70
     1
102
RTVSPropertyOp22
 70
     1
102
RTVSPropertyOp23
 70
     1
102
RTVSPropertyOp24
 70
     1
102
RTVSPropertyOp25
 70
     1
102
RTVSPropertyOp26
 70
     1
102
RTVSPropertyOp27
 70
     1
  0
XRECORD
  5
2C5
102
{ACAD_REACTORS
330
2C4
102
}
330
2C4
100
AcDbXrecord
280
     1
102
RTVSPropertyOp0
 70
     1
102
RTVSPropertyOp1
 70
     1
102
RTVSPropertyOp2
 70
     1
102
RTVSPropertyOp3
 70
     1
102
RTVSPropertyOp4
 70
     1
102
RTVSPropertyOp5
 70
     1
102
RTVSPropertyOp6
 70
     1
102
RTVSPropertyOp7
 70
     1
102
RTVSPropertyOp8
 70
     1
102
RTVSPropertyOp9
 70
     1
102
RTVSPropertyOp10
 70
     1
102
RTVSPropertyOp11
 70
     1
102
RTVSPropertyOp12
 70
     1
102
RTVSPropertyOp13
 70
     1
102
RTVSPropertyOp14
 70
     1
102
RTVSPropertyOp15
 70
     1
102
RTVSPropertyOp16
 70
     1
102
RTVSPropertyOp17
 70
     1
102
RTVSPropertyOp18
 70
     1
102
RTVSPropertyOp19
 70
     1
102
RTVSPropertyOp20
 70
     1
102
RTVSPropertyOp21
 70
     1
102
RTVSPropertyOp22
 70
     1
102
RTVSPropertyOp23
 70
     1
102
RTVSPropertyOp24
 70
     1
102
RTVSPropertyOp25
 70
     1
102
RTVSPropertyOp26
 70
     1
102
RTVSPropertyOp27
 70
     1
  0
XRECORD
  5
2C7
102
{ACAD_REACTORS
330
2C6
102
}
330
2C6
100
AcDbXrecord
280
     1
102
RTVSPropertyOp0
 70
     1
102
RTVSPropertyOp1
 70
     1
102
RTVSPropertyOp2
 70
     1
102
RTVSPropertyOp3
 70
     1
102
RTVSPropertyOp4
 70
     1
102
RTVSPropertyOp5
 70
     1
102
RTVSPropertyOp6
 70
     1
102
RTVSPropertyOp7
 70
     1
102
RTVSPropertyOp8
 70
     1
102
RTVSPropertyOp9
 70
     1
102
RTVSPropertyOp10
 70
     1
102
RTVSPropertyOp11
 70
     1
102
RTVSPropertyOp12
 70
     1
102
RTVSPropertyOp13
 70
     1
102
RTVSPropertyOp14
 70
     1
102
RTVSPropertyOp15
 70
     1
102
RTVSPropertyOp16
 70
     1
102
RTVSPropertyOp17
 70
     1
102
RTVSPropertyOp18
 70
     1
102
RTVSPropertyOp19
 70
     1
102
RTVSPropertyOp20
 70
     1
102
RTVSPropertyOp21
 70
     1
102
RTVSPropertyOp22
 70
     1
102
RTVSPropertyOp23
 70
     1
102
RTVSPropertyOp24
 70
     1
102
RTVSPropertyOp25
 70
     1
102
RTVSPropertyOp26
 70
     1
102
RTVSPropertyOp27
 70
     1
  0
XRECORD
  5
2C9
102
{ACAD_REACTORS
330
2C8
102
}
330
2C8
100
AcDbXrecord
280
     1
102
RTVSPropertyOp0
 70
     1
102
RTVSPropertyOp1
 70
     1
102
RTVSPropertyOp2
 70
     1
102
RTVSPropertyOp3
 70
     1
102
RTVSPropertyOp4
 70
     1
102
RTVSPropertyOp5
 70
     1
102
RTVSPropertyOp6
 70
     1
102
RTVSPropertyOp7
 70
     1
102
RTVSPropertyOp8
 70
     1
102
RTVSPropertyOp9
 70
     1
102
RTVSPropertyOp10
 70
     1
102
RTVSPropertyOp11
 70
     1
102
RTVSPropertyOp12
 70
     1
102
RTVSPropertyOp13
 70
     1
102
RTVSPropertyOp14
 70
     1
102
RTVSPropertyOp15
 70
     1
102
RTVSPropertyOp16
 70
     1
102
RTVSPropertyOp17
 70
     1
102
RTVSPropertyOp18
 70
     1
102
RTVSPropertyOp19
 70
     1
102
RTVSPropertyOp20
 70
     1
102
RTVSPropertyOp21
 70
     1
102
RTVSPropertyOp22
 70
     1
102
RTVSPropertyOp23
 70
     1
102
RTVSPropertyOp24
 70
     1
102
RTVSPropertyOp25
 70
     1
102
RTVSPropertyOp26
 70
     1
102
RTVSPropertyOp27
 70
     1
  0
XRECORD
  5
2DD
102
{ACAD_REACTORS
330
2DC
102
}
330
2DC
100
AcDbXrecord
280
     1
102
RTVSPropertyOp0
 70
     1
102
RTVSPropertyOp1
 70
     1
102
RTVSPropertyOp2
 70
     1
102
RTVSPropertyOp3
 70
     1
102
RTVSPropertyOp4
 70
     1
102
RTVSPropertyOp5
 70
     1
102
RTVSPropertyOp6
 70
     1
102
RTVSPropertyOp7
 70
     1
102
RTVSPropertyOp8
 70
     1
102
RTVSPropertyOp9
 70
     1
102
RTVSPropertyOp10
 70
     1
102
RTVSPropertyOp11
 70
     1
102
RTVSPropertyOp12
 70
     1
102
RTVSPropertyOp13
 70
     1
102
RTVSPropertyOp14
 70
     1
102
RTVSPropertyOp15
 70
     1
102
RTVSPropertyOp16
 70
     1
102
RTVSPropertyOp17
 70
     1
102
RTVSPropertyOp18
 70
     1
102
RTVSPropertyOp19
 70
     1
102
RTVSPropertyOp20
 70
     1
102
RTVSPropertyOp21
 70
     1
102
RTVSPropertyOp22
 70
     1
102
RTVSPropertyOp23
 70
     1
102
RTVSPropertyOp24
 70
     1
102
RTVSPropertyOp25
 70
     1
102
RTVSPropertyOp26
 70
     1
102
RTVSPropertyOp27
 70
     1
  0
XRECORD
  5
2D3
102
{ACAD_REACTORS
330
2D2
102
}
330
2D2
100
AcDbXrecord
280
     1
102
RTVSPropertyOp0
 70
     1
102
RTVSPropertyOp1
 70
     1
102
RTVSPropertyOp2
 70
     1
102
RTVSPropertyOp3
 70
     1
102
RTVSPropertyOp4
 70
     1
102
RTVSPropertyOp5
 70
     1
102
RTVSPropertyOp6
 70
     1
102
RTVSPropertyOp7
 70
     1
102
RTVSPropertyOp8
 70
     1
102
RTVSPropertyOp9
 70
     1
102
RTVSPropertyOp10
 70
     1
102
RTVSPropertyOp11
 70
     1
102
RTVSPropertyOp12
 70
     1
102
RTVSPropertyOp13
 70
     1
102
RTVSPropertyOp14
 70
     1
102
RTVSPropertyOp15
 70
     1
102
RTVSPropertyOp16
 70
     1
102
RTVSPropertyOp17
 70
     1
102
RTVSPropertyOp18
 70
     1
102
RTVSPropertyOp19
 70
     1
102
RTVSPropertyOp20
 70
     1
102
RTVSPropertyOp21
 70
     1
102
RTVSPropertyOp22
 70
     1
102
RTVSPropertyOp23
 70
     1
102
RTVSPropertyOp24
 70
     1
102
RTVSPropertyOp25
 70
     1
102
RTVSPropertyOp26
 70
     1
102
RTVSPropertyOp27
 70
     1
  0
XRECORD
  5
2DB
102
{ACAD_REACTORS
330
2DA
102
}
330
2DA
100
AcDbXrecord
280
     1
102
RTVSPropertyOp0
 70
     1
102
RTVSPropertyOp1
 70
     1
102
RTVSPropertyOp2
 70
     1
102
RTVSPropertyOp3
 70
     1
102
RTVSPropertyOp4
 70
     1
102
RTVSPropertyOp5
 70
     1
102
RTVSPropertyOp6
 70
     1
102
RTVSPropertyOp7
 70
     1
102
RTVSPropertyOp8
 70
     1
102
RTVSPropertyOp9
 70
     1
102
RTVSPropertyOp10
 70
     1
102
RTVSPropertyOp11
 70
     1
102
RTVSPropertyOp12
 70
     1
102
RTVSPropertyOp13
 70
     1
102
RTVSPropertyOp14
 70
     1
102
RTVSPropertyOp15
 70
     1
102
RTVSPropertyOp16
 70
     1
102
RTVSPropertyOp17
 70
     1
102
RTVSPropertyOp18
 70
     1
102
RTVSPropertyOp19
 70
     1
102
RTVSPropertyOp20
 70
     1
102
RTVSPropertyOp21
 70
     1
102
RTVSPropertyOp22
 70
     1
102
RTVSPropertyOp23
 70
     1
102
RTVSPropertyOp24
 70
     1
102
RTVSPropertyOp25
 70
     1
102
RTVSPropertyOp26
 70
     1
102
RTVSPropertyOp27
 70
     1
  0
ENDSEC
  0
EOF
