  0
SECTION
  2
HEADER
  9
$ACADVER
  1
AC1015
  9
$ACADMAINTVER
 70
     6
  9
$DWGCODEPAGE
  3
ANSI_932
  9
$INSBASE
 10
0.0
 20
0.0
 30
0.0
  9
$EXTMIN
 10
-191.0
 20
-110.813884089865
 30
0.0
  9
$EXTMAX
 10
201.794208082134
 20
188.417888093455
 30
0.0
  9
$LIMMIN
 10
0.0
 20
0.0
  9
$LIMMAX
 10
12.0
 20
9.0
  9
$ORTHOMODE
 70
     0
  9
$REGENMODE
 70
     1
  9
$FILLMODE
 70
     1
  9
$QTEXTMODE
 70
     0
  9
$MIRRTEXT
 70
     1
  9
$LTSCALE
 40
1.0
  9
$ATTMODE
 70
     1
  9
$TEXTSIZE
 40
0.2
  9
$TRACEWID
 40
0.05
  9
$TEXTSTYLE
  7
Standard
  9
$CLAYER
  8
0
  9
$CELTYPE
  6
ByLayer
  9
$CECOLOR
 62
   256
  9
$CELTSCALE
 40
1.0
  9
$DISPSILH
 70
     0
  9
$DIMSCALE
 40
1.0
  9
$DIMASZ
 40
0.18
  9
$DIMEXO
 40
0.0625
  9
$DIMDLI
 40
0.38
  9
$DIMRND
 40
0.0
  9
$DIMDLE
 40
0.0
  9
$DIMEXE
 40
0.18
  9
$DIMTP
 40
0.0
  9
$DIMTM
 40
0.0
  9
$DIMTXT
 40
0.18
  9
$DIMCEN
 40
0.09
  9
$DIMTSZ
 40
0.0
  9
$DIMTOL
 70
     0
  9
$DIMLIM
 70
     0
  9
$DIMTIH
 70
     1
  9
$DIMTOH
 70
     1
  9
$DIMSE1
 70
     0
  9
$DIMSE2
 70
     0
  9
$DIMTAD
 70
     0
  9
$DIMZIN
 70
     0
  9
$DIMBLK
  1

  9
$DIMASO
 70
     1
  9
$DIMSHO
 70
     1
  9
$DIMPOST
  1

  9
$DIMAPOST
  1

  9
$DIMALT
 70
     0
  9
$DIMALTD
 70
     2
  9
$DIMALTF
 40
25.4
  9
$DIMLFAC
 40
1.0
  9
$DIMTOFL
 70
     0
  9
$DIMTVP
 40
0.0
  9
$DIMTIX
 70
     0
  9
$DIMSOXD
 70
     0
  9
$DIMSAH
 70
     0
  9
$DIMBLK1
  1

  9
$DIMBLK2
  1

  9
$DIMSTYLE
  2
Standard
  9
$DIMCLRD
 70
     0
  9
$DIMCLRE
 70
     0
  9
$DIMCLRT
 70
     0
  9
$DIMTFAC
 40
1.0
  9
$DIMGAP
 40
0.09
  9
$DIMJUST
 70
     0
  9
$DIMSD1
 70
     0
  9
$DIMSD2
 70
     0
  9
$DIMTOLJ
 70
     1
  9
$DIMTZIN
 70
     0
  9
$DIMALTZ
 70
     0
  9
$DIMALTTZ
 70
     0
  9
$DIMUPT
 70
     0
  9
$DIMDEC
 70
     4
  9
$DIMTDEC
 70
     4
  9
$DIMALTU
 70
     2
  9
$DIMALTTD
 70
     2
  9
$DIMTXSTY
  7
Standard
  9
$DIMAUNIT
 70
     0
  9
$DIMADEC
 70
     0
  9
$DIMALTRND
 40
0.0
  9
$DIMAZIN
 70
     0
  9
$DIMDSEP
 70
    46
  9
$DIMATFIT
 70
     3
  9
$DIMFRAC
 70
     0
  9
$DIMLDRBLK
  1

  9
$DIMLUNIT
 70
     2
  9
$DIMLWD
 70
    -2
  9
$DIMLWE
 70
    -2
  9
$DIMTMOVE
 70
     0
  9
$LUNITS
 70
     2
  9
$LUPREC
 70
     4
  9
$SKETCHINC
 40
0.1
  9
$FILLETRAD
 40
0.5
  9
$AUNITS
 70
     0
  9
$AUPREC
 70
     0
  9
$MENU
  1
.
  9
$ELEVATION
 40
0.0
  9
$PELEVATION
 40
0.0
  9
$THICKNESS
 40
0.0
  9
$LIMCHECK
 70
     0
  9
$CHAMFERA
 40
0.5
  9
$CHAMFERB
 40
0.5
  9
$CHAMFERC
 40
1.0
  9
$CHAMFERD
 40
0.0
  9
$SKPOLY
 70
     0
  9
$TDCREATE
 40
2457624.69479662
  9
$TDUCREATE
 40
2457624.31979662
  9
$TDUPDATE
 40
2457624.694796632
  9
$TDUUPDATE
 40
2457624.319796632
  9
$TDINDWG
 40
0.0000000116
  9
$TDUSRTIMER
 40
0.0000000116
  9
$USRTIMER
 70
     1
  9
$ANGBASE
 50
0.0
  9
$ANGDIR
 70
     0
  9
$PDMODE
 70
     0
  9
$PDSIZE
 40
0.0
  9
$PLINEWID
 40
0.0
  9
$SPLFRAME
 70
     0
  9
$SPLINETYPE
 70
     6
  9
$SPLINESEGS
 70
     8
  9
$HANDSEED
  5
263
  9
$SURFTAB1
 70
     6
  9
$SURFTAB2
 70
     6
  9
$SURFTYPE
 70
     6
  9
$SURFU
 70
     6
  9
$SURFV
 70
     6
  9
$UCSBASE
  2

  9
$UCSNAME
  2

  9
$UCSORG
 10
0.0
 20
0.0
 30
0.0
  9
$UCSXDIR
 10
1.0
 20
0.0
 30
0.0
  9
$UCSYDIR
 10
0.0
 20
1.0
 30
0.0
  9
$UCSORTHOREF
  2

  9
$UCSORTHOVIEW
 70
     0
  9
$UCSORGTOP
 10
0.0
 20
0.0
 30
0.0
  9
$UCSORGBOTTOM
 10
0.0
 20
0.0
 30
0.0
  9
$UCSORGLEFT
 10
0.0
 20
0.0
 30
0.0
  9
$UCSORGRIGHT
 10
0.0
 20
0.0
 30
0.0
  9
$UCSORGFRONT
 10
0.0
 20
0.0
 30
0.0
  9
$UCSORGBACK
 10
0.0
 20
0.0
 30
0.0
  9
$PUCSBASE
  2

  9
$PUCSNAME
  2

  9
$PUCSORG
 10
0.0
 20
0.0
 30
0.0
  9
$PUCSXDIR
 10
1.0
 20
0.0
 30
0.0
  9
$PUCSYDIR
 10
0.0
 20
1.0
 30
0.0
  9
$PUCSORTHOREF
  2

  9
$PUCSORTHOVIEW
 70
     0
  9
$PUCSORGTOP
 10
0.0
 20
0.0
 30
0.0
  9
$PUCSORGBOTTOM
 10
0.0
 20
0.0
 30
0.0
  9
$PUCSORGLEFT
 10
0.0
 20
0.0
 30
0.0
  9
$PUCSORGRIGHT
 10
0.0
 20
0.0
 30
0.0
  9
$PUCSORGFRONT
 10
0.0
 20
0.0
 30
0.0
  9
$PUCSORGBACK
 10
0.0
 20
0.0
 30
0.0
  9
$USERI1
 70
     0
  9
$USERI2
 70
     0
  9
$USERI3
 70
     0
  9
$USERI4
 70
     0
  9
$USERI5
 70
     0
  9
$USERR1
 40
18.0
  9
$USERR2
 40
0.0
  9
$USERR3
 40
0.0
  9
$USERR4
 40
0.0
  9
$USERR5
 40
0.0
  9
$WORLDVIEW
 70
     1
  9
$SHADEDGE
 70
     3
  9
$SHADEDIF
 70
    70
  9
$TILEMODE
 70
     1
  9
$MAXACTVP
 70
    64
  9
$PINSBASE
 10
0.0
 20
0.0
 30
0.0
  9
$PLIMCHECK
 70
     0
  9
$PEXTMIN
 10
1.00000000000000E+20
 20
1.00000000000000E+20
 30
1.00000000000000E+20
  9
$PEXTMAX
 10
-1.00000000000000E+20
 20
-1.00000000000000E+20
 30
-1.00000000000000E+20
  9
$PLIMMIN
 10
0.0
 20
0.0
  9
$PLIMMAX
 10
12.0
 20
9.0
  9
$UNITMODE
 70
     0
  9
$VISRETAIN
 70
     1
  9
$PLINEGEN
 70
     0
  9
$PSLTSCALE
 70
     1
  9
$TREEDEPTH
 70
  3020
  9
$CMLSTYLE
  2
Standard
  9
$CMLJUST
 70
     0
  9
$CMLSCALE
 40
1.0
  9
$PROXYGRAPHICS
 70
     1
  9
$MEASUREMENT
 70
     1
  9
$CELWEIGHT
370
    -1
  9
$ENDCAPS
280
     0
  9
$JOINSTYLE
280
     0
  9
$LWDISPLAY
290
     0
  9
$INSUNITS
 70
     1
  9
$HYPERLINKBASE
  1

  9
$STYLESHEET
  1

  9
$XEDIT
290
     1
  9
$CEPSNTYPE
380
     0
  9
$PSTYLEMODE
290
     1
  9
$FINGERPRINTGUID
  2
{CEAF8F06-E555-47A5-85FE-B46788628843}
  9
$VERSIONGUID
  2
{FAEB1C32-E019-11D5-929B-00C0DF256EC4}
  9
$EXTNAMES
290
     1
  9
$PSVPSCALE
 40
0.0
  9
$OLESTARTUP
290
     0
  0
ENDSEC
  0
SECTION
  2
CLASSES
  0
CLASS
  1
ACDBDICTIONARYWDFLT
  2
AcDbDictionaryWithDefault
  3
ObjectDBX Classes
 90
        0
280
     0
281
     0
  0
CLASS
  1
VISUALSTYLE
  2
AcDbVisualStyle
  3
ObjectDBX Classes
 90
     4095
280
     0
281
     0
  0
CLASS
  1
MATERIAL
  2
AcDbMaterial
  3
ObjectDBX Classes
 90
     1153
280
     0
281
     0
  0
CLASS
  1

  2
exOdDbCircle
  3

 90
        0
280
     0
281
     1
  0
CLASS
  1

  2
exOdDbPolyline
  3

 90
        0
280
     0
281
     1
  0
CLASS
  1
DICTIONARYVAR
  2
AcDbDictionaryVar
  3
ObjectDBX Classes
 90
        0
280
     0
281
     0
  0
CLASS
  1
ACDBPLACEHOLDER
  2
AcDbPlaceHolder
  3
ObjectDBX Classes
 90
        0
280
     0
281
     0
  0
CLASS
  1
LAYOUT
  2
AcDbLayout
  3
ObjectDBX Classes
 90
        0
280
     0
281
     0
  0
ENDSEC
  0
SECTION
  2
TABLES
  0
TABLE
  2
VPORT
  5
8
330
0
100
AcDbSymbolTable
 70
     1
  0
VPORT
  5
29
330
8
100
AcDbSymbolTableRecord
100
AcDbViewportTableRecord
  2
*Active
 70
     0
 10
0.0
 20
0.0
 11
1.0
 21
1.0
 12
5.397104041067
 22
38.802002001795
 13
0.0
 23
0.0
 14
0.5
 24
0.5
 15
0.5
 25
0.5
 16
0.0
 26
0.0
 36
1.0
 17
0.0
 27
0.0
 37
0.0
 40
329.154949401652
 41
1.60267857142857
 42
50.0
 43
0.0
 44
0.0
 50
0.0
 51
0.0
 71
     0
 72
   100
 73
     1
 74
     3
 75
     0
 76
     0
 77
     0
 78
     0
281
     0
 65
     1
110
0.0
120
0.0
130
0.0
111
1.0
121
0.0
131
0.0
112
0.0
122
1.0
132
0.0
 79
     0
146
0.0
  0
ENDTAB
  0
TABLE
  2
LTYPE
  5
5
330
0
100
AcDbSymbolTable
 70
     9
  0
LTYPE
  5
14
330
5
100
AcDbSymbolTableRecord
100
AcDbLinetypeTableRecord
  2
ByBlock
 70
     0
  3

 72
    65
 73
     0
 40
0.0
  0
LTYPE
  5
15
330
5
100
AcDbSymbolTableRecord
100
AcDbLinetypeTableRecord
  2
ByLayer
 70
     0
  3

 72
    65
 73
     0
 40
0.0
  0
LTYPE
  5
16
330
5
100
AcDbSymbolTableRecord
100
AcDbLinetypeTableRecord
  2
Continuous
 70
     0
  3
Solid line
 72
    65
 73
     0
 40
0.0
  0
LTYPE
  5
3F
330
5
100
AcDbSymbolTableRecord
100
AcDbLinetypeTableRecord
  2
DASHED
 70
     0
  3
Dashed
 72
    65
 73
     2
 40
15.0
 49
7.0
 74
     0
 49
-8.0
 74
     0
  0
LTYPE
  5
40
330
5
100
AcDbSymbolTableRecord
100
AcDbLinetypeTableRecord
  2
DOTTED
 70
     0
  3
Dotted
 72
    65
 73
     2
 40
1.0
 49
0.0
 74
     0
 49
-1.0
 74
     0
  0
LTYPE
  5
41
330
5
100
AcDbSymbolTableRecord
100
AcDbLinetypeTableRecord
  2
DOT_CENTER
 70
     0
  3
Dot_Center
 72
    65
 73
     4
 40
14.0
 49
12.0
 74
     0
 49
-1.0
 74
     0
 49
0.0
 74
     0
 49
-1.0
 74
     0
  0
LTYPE
  5
42
330
5
100
AcDbSymbolTableRecord
100
AcDbLinetypeTableRecord
  2
LONG_DASHED
 70
     0
  3
Long_Dashed
 72
    65
 73
     2
 40
15.0
 49
10.0
 74
     0
 49
-5.0
 74
     0
  0
LTYPE
  5
43
330
5
100
AcDbSymbolTableRecord
100
AcDbLinetypeTableRecord
  2
DASH_CENTER
 70
     0
  3
Dash_Center
 72
    65
 73
     4
 40
14.0
 49
11.0
 74
     0
 49
-1.0
 74
     0
 49
1.0
 74
     0
 49
-1.0
 74
     0
  0
LTYPE
  5
44
330
5
100
AcDbSymbolTableRecord
100
AcDbLinetypeTableRecord
  2
PHANTOM
 70
     0
  3
Phantom
 72
    65
 73
     6
 40
13.0
 49
10.0
 74
     0
 49
-1.0
 74
     0
 49
0.0
 74
     0
 49
-1.0
 74
     0
 49
0.0
 74
     0
 49
-1.0
 74
     0
  0
LTYPE
  5
45
330
5
100
AcDbSymbolTableRecord
100
AcDbLinetypeTableRecord
  2
CENTER_DASH_DASH
 70
     0
  3
Center_Dash_Dash
 72
    65
 73
     6
 40
14.0
 49
9.0
 74
     0
 49
-1.0
 74
     0
 49
1.0
 74
     0
 49
-1.0
 74
     0
 49
1.0
 74
     0
 49
-1.0
 74
     0
  0
LTYPE
  5
46
330
5
100
AcDbSymbolTableRecord
100
AcDbLinetypeTableRecord
  2
CENTER
 70
     0
  3
CENTER
 72
    65
 73
     4
 40
6.0
 49
3.0
 74
     0
 49
-1.0
 74
     0
 49
1.0
 74
     0
 49
-1.0
 74
     0
  0
ENDTAB
  0
TABLE
  2
LAYER
  5
2
330
0
100
AcDbSymbolTable
 70
     4
  0
LAYER
  5
10
330
2
100
AcDbSymbolTableRecord
100
AcDbLayerTableRecord
  2
0
 70
     0
 62
     7
  6
Continuous
370
    -3
390
F
  0
LAYER
  5
47
330
2
100
AcDbSymbolTableRecord
100
AcDbLayerTableRecord
  2
1
 70
     0
 62
     7
  6
Continuous
370
    -3
390
F
  0
LAYER
  5
48
330
2
100
AcDbSymbolTableRecord
100
AcDbLayerTableRecord
  2
100
 70
     0
 62
     7
  6
Continuous
370
    -3
390
F
  0
LAYER
  5
49
330
2
100
AcDbSymbolTableRecord
100
AcDbLayerTableRecord
  2
2
 70
     0
 62
     7
  6
Continuous
370
    -3
390
F
  0
ENDTAB
  0
TABLE
  2
STYLE
  5
3
330
0
100
AcDbSymbolTable
 70
     1
  0
STYLE
  5
11
330
3
100
AcDbSymbolTableRecord
100
AcDbTextStyleTableRecord
  2
Standard
 70
     0
 40
0.0
 41
1.0
 50
0.0
 71
     0
 42
0.2
  3
txt
  4

  0
ENDTAB
  0
TABLE
  2
VIEW
  5
6
330
0
100
AcDbSymbolTable
 70
     0
  0
ENDTAB
  0
TABLE
  2
UCS
  5
7
330
0
100
AcDbSymbolTable
 70
     0
  0
ENDTAB
  0
TABLE
  2
APPID
  5
9
330
0
100
AcDbSymbolTable
 70
     1
  0
APPID
  5
12
330
9
100
AcDbSymbolTableRecord
100
AcDbRegAppTableRecord
  2
ACAD
 70
     0
  0
ENDTAB
  0
TABLE
  2
DIMSTYLE
  5
A
330
0
100
AcDbSymbolTable
 70
     1
100
AcDbDimStyleTable
  0
DIMSTYLE
105
27
330
A
100
AcDbSymbolTableRecord
100
AcDbDimStyleTableRecord
  2
Standard
 70
     0
340
11
  0
ENDTAB
  0
TABLE
  2
BLOCK_RECORD
  5
1
330
0
100
AcDbSymbolTable
 70
     1
  0
BLOCK_RECORD
  5
1F
330
1
100
AcDbSymbolTableRecord
100
AcDbBlockTableRecord
  2
*Model_Space
340
22
  0
BLOCK_RECORD
  5
1B
330
1
100
AcDbSymbolTableRecord
100
AcDbBlockTableRecord
  2
*Paper_Space
340
1E
  0
BLOCK_RECORD
  5
23
330
1
100
AcDbSymbolTableRecord
100
AcDbBlockTableRecord
  2
*Paper_Space0
340
26
  0
ENDTAB
  0
ENDSEC
  0
SECTION
  2
BLOCKS
  0
BLOCK
  5
20
330
1F
100
AcDbEntity
  8
0
100
AcDbBlockBegin
  2
*Model_Space
 70
     0
 10
0.0
 20
0.0
 30
0.0
  3
*Model_Space
  1

  0
ENDBLK
  5
21
330
1F
100
AcDbEntity
  8
0
100
AcDbBlockEnd
  0
BLOCK
  5
1C
330
1B
100
AcDbEntity
 67
     1
  8
0
100
AcDbBlockBegin
  2
*Paper_Space
 70
     0
 10
0.0
 20
0.0
 30
0.0
  3
*Paper_Space
  1

  0
ENDBLK
  5
1D
330
1B
100
AcDbEntity
 67
     1
  8
0
100
AcDbBlockEnd
  0
BLOCK
  5
24
330
23
100
AcDbEntity
  8
0
100
AcDbBlockBegin
  2
*Paper_Space0
 70
     0
 10
0.0
 20
0.0
 30
0.0
  3
*Paper_Space0
  1

  0
ENDBLK
  5
25
330
23
100
AcDbEntity
  8
0
100
AcDbBlockEnd
  0
ENDSEC
  0
SECTION
  2
ENTITIES
  0
LINE
  5
4A
330
1F
100
AcDbEntity
  8
1
  6
Continuous
 62
     4
100
AcDbLine
 10
1.6903311470875
 20
-108.313884089865
 30
0.0
 11
1.1903311470875
 21
-108.938884089865
 31
0.0
  0
LINE
  5
4B
330
1F
100
AcDbEntity
  8
1
  6
Continuous
 62
     4
100
AcDbLine
 10
1.1903311470875
 20
-107.688884089865
 30
0.0
 11
1.6903311470875
 21
-108.313884089865
 31
0.0
  0
LINE
  5
4C
330
1F
100
AcDbEntity
  8
1
  6
Continuous
 62
     4
100
AcDbLine
 10
-2.0596688529125
 20
-108.313884089865
 30
0.0
 11
1.6903311470875
 21
-108.313884089865
 31
0.0
  0
LINE
  5
4D
330
1F
100
AcDbEntity
  8
1
  6
Continuous
 62
     4
100
AcDbLine
 10
-6.1846688529125
 20
-106.876384089865
 30
0.0
 11
-3.3096688529125
 21
-106.876384089865
 31
0.0
  0
LINE
  5
4E
330
1F
100
AcDbEntity
  8
1
  6
Continuous
 62
     4
100
AcDbLine
 10
-6.1846688529125
 20
-106.876384089865
 30
0.0
 11
-5.4971688529125
 21
-105.938884089865
 31
0.0
  0
LINE
  5
4F
330
1F
100
AcDbEntity
  8
1
  6
Continuous
 62
     4
100
AcDbLine
 10
-4.5596688529125
 20
-109.251384089865
 30
0.0
 11
-5.6221688529125
 21
-109.251384089865
 31
0.0
  0
LINE
  5
50
330
1F
100
AcDbEntity
  8
1
  6
Continuous
 62
     4
100
AcDbLine
 10
-4.5596688529125
 20
-108.001384089865
 30
0.0
 11
-4.5596688529125
 21
-109.251384089865
 31
0.0
  0
LINE
  5
51
330
1F
100
AcDbEntity
  8
1
  6
Continuous
 62
     4
100
AcDbLine
 10
-5.6221688529125
 20
-108.001384089865
 30
0.0
 11
-4.5596688529125
 21
-108.001384089865
 31
0.0
  0
LINE
  5
52
330
1F
100
AcDbEntity
  8
1
  6
Continuous
 62
     4
100
AcDbLine
 10
-5.6221688529125
 20
-109.251384089865
 30
0.0
 11
-5.6221688529125
 21
-108.001384089865
 31
0.0
  0
LINE
  5
53
330
1F
100
AcDbEntity
  8
1
  6
Continuous
 62
     4
100
AcDbLine
 10
-3.3096688529125
 20
-110.626384089865
 30
0.0
 11
-3.9971688529125
 21
-110.626384089865
 31
0.0
  0
LINE
  5
54
330
1F
100
AcDbEntity
  8
1
  6
Continuous
 62
     4
100
AcDbLine
 10
-3.3096688529125
 20
-106.876384089865
 30
0.0
 11
-3.3096688529125
 21
-110.626384089865
 31
0.0
  0
LINE
  5
55
330
1F
100
AcDbEntity
  8
1
  6
Continuous
 62
     4
100
AcDbLine
 10
-6.8721688529125
 20
-106.876384089865
 30
0.0
 11
-6.1846688529125
 21
-106.876384089865
 31
0.0
  0
LINE
  5
56
330
1F
100
AcDbEntity
  8
1
  6
Continuous
 62
     4
100
AcDbLine
 10
-6.8721688529125
 20
-110.626384089865
 30
0.0
 11
-6.8721688529125
 21
-106.876384089865
 31
0.0
  0
LINE
  5
57
330
1F
100
AcDbEntity
  8
1
  6
Continuous
 62
     4
100
AcDbLine
 10
-9.5596688529125
 20
-110.813884089865
 30
0.0
 11
-10.0596688529125
 21
-110.501384089865
 31
0.0
  0
LINE
  5
58
330
1F
100
AcDbEntity
  8
1
  6
Continuous
 62
     4
100
AcDbLine
 10
-9.2471688529125
 20
-110.313884089865
 30
0.0
 11
-9.5596688529125
 21
-110.813884089865
 31
0.0
  0
LINE
  5
59
330
1F
100
AcDbEntity
  8
1
  6
Continuous
 62
     4
100
AcDbLine
 10
-8.9971688529125
 20
-109.563884089865
 30
0.0
 11
-9.2471688529125
 21
-110.313884089865
 31
0.0
  0
LINE
  5
5A
330
1F
100
AcDbEntity
  8
1
  6
Continuous
 62
     4
100
AcDbLine
 10
-8.6846688529125
 20
-108.438884089865
 30
0.0
 11
-8.9971688529125
 21
-109.563884089865
 31
0.0
  0
LINE
  5
5B
330
1F
100
AcDbEntity
  8
1
  6
Continuous
 62
     4
100
AcDbLine
 10
-8.6846688529125
 20
-108.001384089865
 30
0.0
 11
-8.6846688529125
 21
-108.438884089865
 31
0.0
  0
LINE
  5
5C
330
1F
100
AcDbEntity
  8
1
  6
Continuous
 62
     4
100
AcDbLine
 10
-10.4971688529125
 20
-108.001384089865
 30
0.0
 11
-8.6846688529125
 21
-108.001384089865
 31
0.0
  0
LINE
  5
5D
330
1F
100
AcDbEntity
  8
1
  6
Continuous
 62
     4
100
AcDbLine
 10
-12.1846688529125
 20
-106.751384089865
 30
0.0
 11
-7.9971688529125
 21
-106.751384089865
 31
0.0
  0
LINE
  5
5E
330
1F
100
AcDbEntity
  8
1
  6
Continuous
 62
     4
100
AcDbLine
 10
-10.3721688529125
 20
-107.188884089865
 30
0.0
 11
-10.2471688529125
 21
-105.938884089865
 31
0.0
  0
LINE
  5
5F
330
1F
100
AcDbEntity
  8
1
  6
Continuous
 62
     4
100
AcDbLine
 10
-10.6221688529125
 20
-108.438884089865
 30
0.0
 11
-10.3721688529125
 21
-107.188884089865
 31
0.0
  0
LINE
  5
60
330
1F
100
AcDbEntity
  8
1
  6
Continuous
 62
     4
100
AcDbLine
 10
-10.9346688529125
 20
-109.251384089865
 30
0.0
 11
-10.6221688529125
 21
-108.438884089865
 31
0.0
  0
LINE
  5
61
330
1F
100
AcDbEntity
  8
1
  6
Continuous
 62
     4
100
AcDbLine
 10
-11.3096688529125
 20
-110.001384089865
 30
0.0
 11
-10.9346688529125
 21
-109.251384089865
 31
0.0
  0
LINE
  5
62
330
1F
100
AcDbEntity
  8
1
  6
Continuous
 62
     4
100
AcDbLine
 10
-11.8721688529125
 20
-110.626384089865
 30
0.0
 11
-11.3096688529125
 21
-110.001384089865
 31
0.0
  0
LINE
  5
63
330
1F
100
AcDbEntity
  8
1
  6
Continuous
 62
     4
100
AcDbLine
 10
-13.5596688529125
 20
-109.251384089865
 30
0.0
 11
-12.8721688529125
 21
-110.001384089865
 31
0.0
  0
LINE
  5
64
330
1F
100
AcDbEntity
  8
1
  6
Continuous
 62
     4
100
AcDbLine
 10
-14.1221688529125
 20
-108.313884089865
 30
0.0
 11
-13.5596688529125
 21
-109.251384089865
 31
0.0
  0
LINE
  5
65
330
1F
100
AcDbEntity
  8
1
  6
Continuous
 62
     4
100
AcDbLine
 10
-14.5596688529125
 20
-107.188884089865
 30
0.0
 11
-14.1221688529125
 21
-108.313884089865
 31
0.0
  0
LINE
  5
66
330
1F
100
AcDbEntity
  8
1
  6
Continuous
 62
     4
100
AcDbLine
 10
-13.3096688529125
 20
-107.063884089865
 30
0.0
 11
-14.2471688529125
 21
-107.813884089865
 31
0.0
  0
LINE
  5
67
330
1F
100
AcDbEntity
  8
1
  6
Continuous
 62
     4
100
AcDbLine
 10
-14.9346688529125
 20
-110.813884089865
 30
0.0
 11
-15.3721688529125
 21
-110.626384089865
 31
0.0
  0
LINE
  5
68
330
1F
100
AcDbEntity
  8
1
  6
Continuous
 62
     4
100
AcDbLine
 10
-14.9346688529125
 20
-105.938884089865
 30
0.0
 11
-14.9346688529125
 21
-110.813884089865
 31
0.0
  0
LINE
  5
69
330
1F
100
AcDbEntity
  8
1
  6
Continuous
 62
     4
100
AcDbLine
 10
-15.6221688529125
 20
-107.501384089865
 30
0.0
 11
-17.0596688529125
 21
-107.501384089865
 31
0.0
  0
LINE
  5
6A
330
1F
100
AcDbEntity
  8
1
  6
Continuous
 62
     4
100
AcDbLine
 10
-15.9346688529125
 20
-108.438884089865
 30
0.0
 11
-15.6221688529125
 21
-107.501384089865
 31
0.0
  0
LINE
  5
6B
330
1F
100
AcDbEntity
  8
1
  6
Continuous
 62
     4
100
AcDbLine
 10
-16.4971688529125
 20
-109.376384089865
 30
0.0
 11
-15.9346688529125
 21
-108.438884089865
 31
0.0
  0
LINE
  5
6C
330
1F
100
AcDbEntity
  8
1
  6
Continuous
 62
     4
100
AcDbLine
 10
-17.0596688529125
 20
-110.001384089865
 30
0.0
 11
-16.4971688529125
 21
-109.376384089865
 31
0.0
  0
LINE
  5
6D
330
1F
100
AcDbEntity
  8
1
  6
Continuous
 62
     4
100
AcDbLine
 10
-19.8096688529125
 20
-106.563884089865
 30
0.0
 11
-18.1221688529125
 21
-106.563884089865
 31
0.0
  0
LINE
  5
6E
330
1F
100
AcDbEntity
  8
1
  6
Continuous
 62
     4
100
AcDbLine
 10
-17.8721688529125
 20
-110.313884089865
 30
0.0
 11
-17.8721688529125
 21
-110.001384089865
 31
0.0
  0
LINE
  5
6F
330
1F
100
AcDbEntity
  8
1
  6
Continuous
 62
     4
100
AcDbLine
 10
-18.1221688529125
 20
-110.626384089865
 30
0.0
 11
-17.8721688529125
 21
-110.313884089865
 31
0.0
  0
LINE
  5
70
330
1F
100
AcDbEntity
  8
1
  6
Continuous
 62
     4
100
AcDbLine
 10
-18.6846688529125
 20
-110.626384089865
 30
0.0
 11
-18.1221688529125
 21
-110.626384089865
 31
0.0
  0
LINE
  5
71
330
1F
100
AcDbEntity
  8
1
  6
Continuous
 62
     4
100
AcDbLine
 10
-18.9971688529125
 20
-110.188884089865
 30
0.0
 11
-18.6846688529125
 21
-110.626384089865
 31
0.0
  0
LINE
  5
72
330
1F
100
AcDbEntity
  8
1
  6
Continuous
 62
     4
100
AcDbLine
 10
-18.9971688529125
 20
-108.626384089865
 30
0.0
 11
-18.9971688529125
 21
-110.188884089865
 31
0.0
  0
LINE
  5
73
330
1F
100
AcDbEntity
  8
1
  6
Continuous
 62
     4
100
AcDbLine
 10
-19.8096688529125
 20
-110.626384089865
 30
0.0
 11
-19.8096688529125
 21
-108.626384089865
 31
0.0
  0
LINE
  5
74
330
1F
100
AcDbEntity
  8
1
  6
Continuous
 62
     4
100
AcDbLine
 10
-21.0596688529125
 20
-110.501384089865
 30
0.0
 11
-21.4971688529125
 21
-110.813884089865
 31
0.0
  0
LINE
  5
75
330
1F
100
AcDbEntity
  8
1
  6
Continuous
 62
     4
100
AcDbLine
 10
-20.8096688529125
 20
-110.188884089865
 30
0.0
 11
-21.0596688529125
 21
-110.501384089865
 31
0.0
  0
LINE
  5
76
330
1F
100
AcDbEntity
  8
1
  6
Continuous
 62
     4
100
AcDbLine
 10
-20.6221688529125
 20
-109.688884089865
 30
0.0
 11
-20.8096688529125
 21
-110.188884089865
 31
0.0
  0
LINE
  5
77
330
1F
100
AcDbEntity
  8
1
  6
Continuous
 62
     4
100
AcDbLine
 10
-20.4971688529125
 20
-108.626384089865
 30
0.0
 11
-20.6221688529125
 21
-109.688884089865
 31
0.0
  0
LINE
  5
78
330
1F
100
AcDbEntity
  8
1
  6
Continuous
 62
     4
100
AcDbLine
 10
-19.1221688529125
 20
-107.063884089865
 30
0.0
 11
-18.5596688529125
 21
-108.126384089865
 31
0.0
  0
LINE
  5
79
330
1F
100
AcDbEntity
  8
1
  6
Continuous
 62
     4
100
AcDbLine
 10
-20.9346688529125
 20
-107.813884089865
 30
0.0
 11
-18.8096688529125
 21
-107.688884089865
 31
0.0
  0
LINE
  5
7A
330
1F
100
AcDbEntity
  8
1
  6
Continuous
 62
     4
100
AcDbLine
 10
-19.8096688529125
 20
-106.563884089865
 30
0.0
 11
-20.3721688529125
 21
-107.813884089865
 31
0.0
  0
LINE
  5
7B
330
1F
100
AcDbEntity
  8
1
  6
Continuous
 62
     4
100
AcDbLine
 10
-19.6846688529125
 20
-105.813884089865
 30
0.0
 11
-19.6846688529125
 21
-106.563884089865
 31
0.0
  0
LINE
  5
7C
330
1F
100
AcDbEntity
  8
1
  6
Continuous
 62
     4
100
AcDbLine
 10
-21.1846688529125
 20
-106.563884089865
 30
0.0
 11
-19.8096688529125
 21
-106.563884089865
 31
0.0
  0
LINE
  5
7D
330
1F
100
AcDbEntity
  8
1
  6
Continuous
 62
     4
100
AcDbLine
 10
-22.1846688529125
 20
-110.626384089865
 30
0.0
 11
-21.6221688529125
 21
-108.626384089865
 31
0.0
  0
LINE
  5
7E
330
1F
100
AcDbEntity
  8
1
  6
Continuous
 62
     4
100
AcDbLine
 10
-22.3096688529125
 20
-107.376384089865
 30
0.0
 11
-21.8721688529125
 21
-107.813884089865
 31
0.0
  0
LINE
  5
7F
330
1F
100
AcDbEntity
  8
1
  6
Continuous
 62
     4
100
AcDbLine
 10
-21.8721688529125
 20
-105.938884089865
 30
0.0
 11
-21.6221688529125
 21
-106.438884089865
 31
0.0
  0
LINE
  5
80
330
1F
100
AcDbEntity
  8
1
  6
Continuous
 62
     4
100
AcDbLine
 10
51.0212078094482
 20
-87.0413970947266
 30
0.0
 11
52.0212078094482
 21
-87.6663970947266
 31
0.0
  0
LINE
  5
81
330
1F
100
AcDbEntity
  8
1
  6
Continuous
 62
     4
100
AcDbLine
 10
52.3962078094482
 20
-86.7288970947266
 30
0.0
 11
51.5837078094482
 21
-86.1038970947266
 31
0.0
  0
LINE
  5
82
330
1F
100
AcDbEntity
  8
1
  6
Continuous
 62
     4
100
AcDbLine
 10
53.0837078094482
 20
-85.9788970947266
 30
0.0
 11
53.5212078094482
 21
-86.4163970947266
 31
0.0
  0
LINE
  5
83
330
1F
100
AcDbEntity
  8
1
  6
Continuous
 62
     4
100
AcDbLine
 10
53.8337078094482
 20
-86.1038970947266
 30
0.0
 11
53.3962078094482
 21
-85.6663970947266
 31
0.0
  0
LINE
  5
84
330
1F
100
AcDbEntity
  8
1
  6
Continuous
 62
     4
100
AcDbLine
 10
53.5212078094482
 20
-87.9788970947266
 30
0.0
 11
54.2087078094482
 21
-87.0413970947266
 31
0.0
  0
LINE
  5
85
330
1F
100
AcDbEntity
  8
1
  6
Continuous
 62
     4
100
AcDbLine
 10
52.3962078094482
 20
-88.9163970947266
 30
0.0
 11
53.5212078094482
 21
-87.9788970947266
 31
0.0
  0
LINE
  5
86
330
1F
100
AcDbEntity
  8
1
  6
Continuous
 62
     4
100
AcDbLine
 10
51.3337078094482
 20
-89.5413970947266
 30
0.0
 11
52.3962078094482
 21
-88.9163970947266
 31
0.0
  0
LINE
  5
87
330
1F
100
AcDbEntity
  8
1
  6
Continuous
 62
     4
100
AcDbLine
 10
48.6462078094482
 20
-88.1663970947266
 30
0.0
 11
49.0837078094482
 21
-88.7913970947266
 31
0.0
  0
LINE
  5
88
330
1F
100
AcDbEntity
  8
1
  6
Continuous
 62
     4
100
AcDbLine
 10
48.0837078094482
 20
-87.6663970947266
 30
0.0
 11
48.6462078094482
 21
-88.1663970947266
 31
0.0
  0
LINE
  5
89
330
1F
100
AcDbEntity
  8
1
  6
Continuous
 62
     4
100
AcDbLine
 10
47.7087078094482
 20
-85.6663970947266
 30
0.0
 11
47.9587078094482
 21
-85.9788970947266
 31
0.0
  0
LINE
  5
8A
330
1F
100
AcDbEntity
  8
1
  6
Continuous
 62
     4
100
AcDbLine
 10
47.1462078094482
 20
-85.3538970947266
 30
0.0
 11
47.7087078094482
 21
-85.6663970947266
 31
0.0
  0
LINE
  5
8B
330
1F
100
AcDbEntity
  8
1
  6
Continuous
 62
     4
100
AcDbLine
 10
48.3962078094482
 20
-86.6038970947266
 30
0.0
 11
46.4587078094482
 21
-86.6038970947266
 31
0.0
  0
LINE
  5
8C
330
1F
100
AcDbEntity
  8
1
  6
Continuous
 62
     4
100
AcDbLine
 10
47.3962078094482
 20
-87.6663970947266
 30
0.0
 11
48.3962078094482
 21
-86.6038970947266
 31
0.0
  0
LINE
  5
8D
330
1F
100
AcDbEntity
  8
1
  6
Continuous
 62
     4
100
AcDbLine
 10
46.0212078094482
 20
-88.6038970947266
 30
0.0
 11
47.3962078094482
 21
-87.6663970947266
 31
0.0
  0
LINE
  5
8E
330
1F
100
AcDbEntity
  8
1
  6
Continuous
 62
     4
100
AcDbLine
 10
47.5837078094482
 20
-89.5413970947266
 30
0.0
 11
47.5837078094482
 21
-87.5413970947266
 31
0.0
  0
LINE
  5
8F
330
1F
100
AcDbEntity
  8
1
  6
Continuous
 62
     4
100
AcDbLine
 10
40.8337078094482
 20
-90.0413970947266
 30
0.0
 11
43.8337078094482
 21
-90.0413970947266
 31
0.0
  0
LINE
  5
90
330
1F
100
AcDbEntity
  8
1
  6
Continuous
 62
     4
100
AcDbLine
 10
43.5837078094482
 20
-86.7913970947266
 30
0.0
 11
40.8337078094482
 21
-90.0413970947266
 31
0.0
  0
LINE
  5
91
330
1F
100
AcDbEntity
  8
1
  6
Continuous
 62
     4
100
AcDbLine
 10
43.8337078094482
 20
-86.2913970947266
 30
0.0
 11
43.5837078094482
 21
-86.7913970947266
 31
0.0
  0
LINE
  5
92
330
1F
100
AcDbEntity
  8
1
  6
Continuous
 62
     4
100
AcDbLine
 10
43.8337078094482
 20
-85.7913970947266
 30
0.0
 11
43.8337078094482
 21
-86.2913970947266
 31
0.0
  0
LINE
  5
93
330
1F
100
AcDbEntity
  8
1
  6
Continuous
 62
     4
100
AcDbLine
 10
43.5837078094482
 20
-85.4163970947266
 30
0.0
 11
43.8337078094482
 21
-85.7913970947266
 31
0.0
  0
LINE
  5
94
330
1F
100
AcDbEntity
  8
1
  6
Continuous
 62
     4
100
AcDbLine
 10
43.2087078094482
 20
-85.1663970947266
 30
0.0
 11
43.5837078094482
 21
-85.4163970947266
 31
0.0
  0
LINE
  5
95
330
1F
100
AcDbEntity
  8
1
  6
Continuous
 62
     4
100
AcDbLine
 10
42.7087078094482
 20
-85.0413970947266
 30
0.0
 11
43.2087078094482
 21
-85.1663970947266
 31
0.0
  0
LINE
  5
96
330
1F
100
AcDbEntity
  8
1
  6
Continuous
 62
     4
100
AcDbLine
 10
41.9587078094482
 20
-85.0413970947266
 30
0.0
 11
42.7087078094482
 21
-85.0413970947266
 31
0.0
  0
LINE
  5
97
330
1F
100
AcDbEntity
  8
1
  6
Continuous
 62
     4
100
AcDbLine
 10
41.4587078094482
 20
-85.1663970947266
 30
0.0
 11
41.9587078094482
 21
-85.0413970947266
 31
0.0
  0
LINE
  5
98
330
1F
100
AcDbEntity
  8
1
  6
Continuous
 62
     4
100
AcDbLine
 10
41.0837078094482
 20
-85.4163970947266
 30
0.0
 11
41.4587078094482
 21
-85.1663970947266
 31
0.0
  0
LINE
  5
99
330
1F
100
AcDbEntity
  8
1
  6
Continuous
 62
     4
100
AcDbLine
 10
40.8337078094482
 20
-85.7913970947266
 30
0.0
 11
41.0837078094482
 21
-85.4163970947266
 31
0.0
  0
LINE
  5
9A
330
1F
100
AcDbEntity
  8
1
  6
Continuous
 62
     4
100
AcDbLine
 10
37.3337078094482
 20
-90.0413970947266
 30
0.0
 11
39.3337078094482
 21
-85.0413970947266
 31
0.0
  0
LINE
  5
9B
330
1F
100
AcDbEntity
  8
1
  6
Continuous
 62
     4
100
AcDbLine
 10
35.8337078094482
 20
-85.0413970947266
 30
0.0
 11
35.8337078094482
 21
-90.0413970947266
 31
0.0
  0
LINE
  5
9C
330
1F
100
AcDbEntity
  8
1
  6
Continuous
 62
     4
100
AcDbLine
 10
34.3337078094482
 20
-86.5413970947266
 30
0.0
 11
35.8337078094482
 21
-85.0413970947266
 31
0.0
  0
LINE
  5
9D
330
1F
100
AcDbEntity
  8
1
  6
Continuous
 62
     4
100
AcDbLine
 10
29.3337078094482
 20
-90.0413970947266
 30
0.0
 11
29.3337078094482
 21
-87.5413970947266
 31
0.0
  0
LINE
  5
9E
330
1F
100
AcDbEntity
  8
1
  6
Continuous
 62
     4
100
AcDbLine
 10
31.3337078094482
 20
-87.5413970947266
 30
0.0
 11
32.8337078094482
 21
-90.0413970947266
 31
0.0
  0
LINE
  5
9F
330
1F
100
AcDbEntity
  8
1
  6
Continuous
 62
     4
100
AcDbLine
 10
31.7087078094482
 20
-87.5413970947266
 30
0.0
 11
31.3337078094482
 21
-87.5413970947266
 31
0.0
  0
LINE
  5
A0
330
1F
100
AcDbEntity
  8
1
  6
Continuous
 62
     4
100
AcDbLine
 10
32.2087078094482
 20
-87.4163970947266
 30
0.0
 11
31.7087078094482
 21
-87.5413970947266
 31
0.0
  0
LINE
  5
A1
330
1F
100
AcDbEntity
  8
1
  6
Continuous
 62
     4
100
AcDbLine
 10
32.5837078094482
 20
-87.1663970947266
 30
0.0
 11
32.2087078094482
 21
-87.4163970947266
 31
0.0
  0
LINE
  5
A2
330
1F
100
AcDbEntity
  8
1
  6
Continuous
 62
     4
100
AcDbLine
 10
32.7087078094482
 20
-86.9163970947266
 30
0.0
 11
32.5837078094482
 21
-87.1663970947266
 31
0.0
  0
LINE
  5
A3
330
1F
100
AcDbEntity
  8
1
  6
Continuous
 62
     4
100
AcDbLine
 10
32.8337078094482
 20
-86.5413970947266
 30
0.0
 11
32.7087078094482
 21
-86.9163970947266
 31
0.0
  0
LINE
  5
A4
330
1F
100
AcDbEntity
  8
1
  6
Continuous
 62
     4
100
AcDbLine
 10
32.8337078094482
 20
-86.0413970947266
 30
0.0
 11
32.8337078094482
 21
-86.5413970947266
 31
0.0
  0
LINE
  5
A5
330
1F
100
AcDbEntity
  8
1
  6
Continuous
 62
     4
100
AcDbLine
 10
32.7087078094482
 20
-85.6663970947266
 30
0.0
 11
32.8337078094482
 21
-86.0413970947266
 31
0.0
  0
LINE
  5
A6
330
1F
100
AcDbEntity
  8
1
  6
Continuous
 62
     4
100
AcDbLine
 10
32.5837078094482
 20
-85.4163970947266
 30
0.0
 11
32.7087078094482
 21
-85.6663970947266
 31
0.0
  0
LINE
  5
A7
330
1F
100
AcDbEntity
  8
1
  6
Continuous
 62
     4
100
AcDbLine
 10
32.2087078094482
 20
-85.1663970947266
 30
0.0
 11
32.5837078094482
 21
-85.4163970947266
 31
0.0
  0
LINE
  5
A8
330
1F
100
AcDbEntity
  8
1
  6
Continuous
 62
     4
100
AcDbLine
 10
31.7087078094482
 20
-85.0413970947266
 30
0.0
 11
32.2087078094482
 21
-85.1663970947266
 31
0.0
  0
LINE
  5
A9
330
1F
100
AcDbEntity
  8
1
  6
Continuous
 62
     4
100
AcDbLine
 10
29.3337078094482
 20
-85.0413970947266
 30
0.0
 11
31.7087078094482
 21
-85.0413970947266
 31
0.0
  0
LINE
  5
AA
330
1F
100
AcDbEntity
  8
1
  6
Continuous
 62
     4
100
AcDbLine
 10
29.3337078094482
 20
-87.5413970947266
 30
0.0
 11
29.3337078094482
 21
-85.0413970947266
 31
0.0
  0
LINE
  5
AB
330
1F
100
AcDbEntity
  8
1
  6
Continuous
 62
     4
100
AcDbLine
 10
31.3337078094482
 20
-87.5413970947266
 30
0.0
 11
29.3337078094482
 21
-87.5413970947266
 31
0.0
  0
LINE
  5
AC
330
1F
100
AcDbEntity
  8
1
  6
Continuous
 62
     4
100
AcDbLine
 10
-97.34375
 20
-27.7161660583694
 30
0.0
 11
-96.34375
 21
-28.3411660583694
 31
0.0
  0
LINE
  5
AD
330
1F
100
AcDbEntity
  8
1
  6
Continuous
 62
     4
100
AcDbLine
 10
-95.96875
 20
-27.4036660583694
 30
0.0
 11
-96.78125
 21
-26.7786660583694
 31
0.0
  0
LINE
  5
AE
330
1F
100
AcDbEntity
  8
1
  6
Continuous
 62
     4
100
AcDbLine
 10
-95.28125
 20
-26.6536660583694
 30
0.0
 11
-94.84375
 21
-27.0911660583694
 31
0.0
  0
LINE
  5
AF
330
1F
100
AcDbEntity
  8
1
  6
Continuous
 62
     4
100
AcDbLine
 10
-94.53125
 20
-26.7786660583694
 30
0.0
 11
-94.96875
 21
-26.3411660583694
 31
0.0
  0
LINE
  5
B0
330
1F
100
AcDbEntity
  8
1
  6
Continuous
 62
     4
100
AcDbLine
 10
-94.84375
 20
-28.6536660583694
 30
0.0
 11
-94.15625
 21
-27.7161660583694
 31
0.0
  0
LINE
  5
B1
330
1F
100
AcDbEntity
  8
1
  6
Continuous
 62
     4
100
AcDbLine
 10
-95.96875
 20
-29.5911660583694
 30
0.0
 11
-94.84375
 21
-28.6536660583694
 31
0.0
  0
LINE
  5
B2
330
1F
100
AcDbEntity
  8
1
  6
Continuous
 62
     4
100
AcDbLine
 10
-97.03125
 20
-30.2161660583694
 30
0.0
 11
-95.96875
 21
-29.5911660583694
 31
0.0
  0
LINE
  5
B3
330
1F
100
AcDbEntity
  8
1
  6
Continuous
 62
     4
100
AcDbLine
 10
-99.71875
 20
-28.8411660583694
 30
0.0
 11
-99.28125
 21
-29.4661660583694
 31
0.0
  0
LINE
  5
B4
330
1F
100
AcDbEntity
  8
1
  6
Continuous
 62
     4
100
AcDbLine
 10
-100.28125
 20
-28.3411660583694
 30
0.0
 11
-99.71875
 21
-28.8411660583694
 31
0.0
  0
LINE
  5
B5
330
1F
100
AcDbEntity
  8
1
  6
Continuous
 62
     4
100
AcDbLine
 10
-100.65625
 20
-26.3411660583694
 30
0.0
 11
-100.40625
 21
-26.6536660583694
 31
0.0
  0
LINE
  5
B6
330
1F
100
AcDbEntity
  8
1
  6
Continuous
 62
     4
100
AcDbLine
 10
-101.21875
 20
-26.0286660583694
 30
0.0
 11
-100.65625
 21
-26.3411660583694
 31
0.0
  0
LINE
  5
B7
330
1F
100
AcDbEntity
  8
1
  6
Continuous
 62
     4
100
AcDbLine
 10
-99.96875
 20
-27.2786660583694
 30
0.0
 11
-101.90625
 21
-27.2786660583694
 31
0.0
  0
LINE
  5
B8
330
1F
100
AcDbEntity
  8
1
  6
Continuous
 62
     4
100
AcDbLine
 10
-100.96875
 20
-28.3411660583694
 30
0.0
 11
-99.96875
 21
-27.2786660583694
 31
0.0
  0
LINE
  5
B9
330
1F
100
AcDbEntity
  8
1
  6
Continuous
 62
     4
100
AcDbLine
 10
-102.34375
 20
-29.2786660583694
 30
0.0
 11
-100.96875
 21
-28.3411660583694
 31
0.0
  0
LINE
  5
BA
330
1F
100
AcDbEntity
  8
1
  6
Continuous
 62
     4
100
AcDbLine
 10
-100.78125
 20
-30.2161660583694
 30
0.0
 11
-100.78125
 21
-28.2161660583694
 31
0.0
  0
LINE
  5
BB
330
1F
100
AcDbEntity
  8
1
  6
Continuous
 62
     4
100
AcDbLine
 10
-107.53125
 20
-30.7161660583694
 30
0.0
 11
-104.53125
 21
-30.7161660583694
 31
0.0
  0
LINE
  5
BC
330
1F
100
AcDbEntity
  8
1
  6
Continuous
 62
     4
100
AcDbLine
 10
-104.78125
 20
-27.4661660583694
 30
0.0
 11
-107.53125
 21
-30.7161660583694
 31
0.0
  0
LINE
  5
BD
330
1F
100
AcDbEntity
  8
1
  6
Continuous
 62
     4
100
AcDbLine
 10
-104.53125
 20
-26.9661660583694
 30
0.0
 11
-104.78125
 21
-27.4661660583694
 31
0.0
  0
LINE
  5
BE
330
1F
100
AcDbEntity
  8
1
  6
Continuous
 62
     4
100
AcDbLine
 10
-104.53125
 20
-26.4661660583694
 30
0.0
 11
-104.53125
 21
-26.9661660583694
 31
0.0
  0
LINE
  5
BF
330
1F
100
AcDbEntity
  8
1
  6
Continuous
 62
     4
100
AcDbLine
 10
-104.78125
 20
-26.0911660583694
 30
0.0
 11
-104.53125
 21
-26.4661660583694
 31
0.0
  0
LINE
  5
C0
330
1F
100
AcDbEntity
  8
1
  6
Continuous
 62
     4
100
AcDbLine
 10
-105.15625
 20
-25.8411660583694
 30
0.0
 11
-104.78125
 21
-26.0911660583694
 31
0.0
  0
LINE
  5
C1
330
1F
100
AcDbEntity
  8
1
  6
Continuous
 62
     4
100
AcDbLine
 10
-105.65625
 20
-25.7161660583694
 30
0.0
 11
-105.15625
 21
-25.8411660583694
 31
0.0
  0
LINE
  5
C2
330
1F
100
AcDbEntity
  8
1
  6
Continuous
 62
     4
100
AcDbLine
 10
-106.40625
 20
-25.7161660583694
 30
0.0
 11
-105.65625
 21
-25.7161660583694
 31
0.0
  0
LINE
  5
C3
330
1F
100
AcDbEntity
  8
1
  6
Continuous
 62
     4
100
AcDbLine
 10
-106.90625
 20
-25.8411660583694
 30
0.0
 11
-106.40625
 21
-25.7161660583694
 31
0.0
  0
LINE
  5
C4
330
1F
100
AcDbEntity
  8
1
  6
Continuous
 62
     4
100
AcDbLine
 10
-107.28125
 20
-26.0911660583694
 30
0.0
 11
-106.90625
 21
-25.8411660583694
 31
0.0
  0
LINE
  5
C5
330
1F
100
AcDbEntity
  8
1
  6
Continuous
 62
     4
100
AcDbLine
 10
-107.53125
 20
-26.4661660583694
 30
0.0
 11
-107.28125
 21
-26.0911660583694
 31
0.0
  0
LINE
  5
C6
330
1F
100
AcDbEntity
  8
1
  6
Continuous
 62
     4
100
AcDbLine
 10
-111.03125
 20
-30.7161660583694
 30
0.0
 11
-109.03125
 21
-25.7161660583694
 31
0.0
  0
LINE
  5
C7
330
1F
100
AcDbEntity
  8
1
  6
Continuous
 62
     4
100
AcDbLine
 10
-112.53125
 20
-25.7161660583694
 30
0.0
 11
-112.53125
 21
-30.7161660583694
 31
0.0
  0
LINE
  5
C8
330
1F
100
AcDbEntity
  8
1
  6
Continuous
 62
     4
100
AcDbLine
 10
-114.03125
 20
-27.2161660583694
 30
0.0
 11
-112.53125
 21
-25.7161660583694
 31
0.0
  0
LINE
  5
C9
330
1F
100
AcDbEntity
  8
1
  6
Continuous
 62
     4
100
AcDbLine
 10
-119.03125
 20
-30.7161660583694
 30
0.0
 11
-119.03125
 21
-28.2161660583694
 31
0.0
  0
LINE
  5
CA
330
1F
100
AcDbEntity
  8
1
  6
Continuous
 62
     4
100
AcDbLine
 10
-117.03125
 20
-28.2161660583694
 30
0.0
 11
-115.53125
 21
-30.7161660583694
 31
0.0
  0
LINE
  5
CB
330
1F
100
AcDbEntity
  8
1
  6
Continuous
 62
     4
100
AcDbLine
 10
-116.65625
 20
-28.2161660583694
 30
0.0
 11
-117.03125
 21
-28.2161660583694
 31
0.0
  0
LINE
  5
CC
330
1F
100
AcDbEntity
  8
1
  6
Continuous
 62
     4
100
AcDbLine
 10
-116.15625
 20
-28.0911660583694
 30
0.0
 11
-116.65625
 21
-28.2161660583694
 31
0.0
  0
LINE
  5
CD
330
1F
100
AcDbEntity
  8
1
  6
Continuous
 62
     4
100
AcDbLine
 10
-115.78125
 20
-27.8411660583694
 30
0.0
 11
-116.15625
 21
-28.0911660583694
 31
0.0
  0
LINE
  5
CE
330
1F
100
AcDbEntity
  8
1
  6
Continuous
 62
     4
100
AcDbLine
 10
-115.65625
 20
-27.5911660583694
 30
0.0
 11
-115.78125
 21
-27.8411660583694
 31
0.0
  0
LINE
  5
CF
330
1F
100
AcDbEntity
  8
1
  6
Continuous
 62
     4
100
AcDbLine
 10
-115.53125
 20
-27.2161660583694
 30
0.0
 11
-115.65625
 21
-27.5911660583694
 31
0.0
  0
LINE
  5
D0
330
1F
100
AcDbEntity
  8
1
  6
Continuous
 62
     4
100
AcDbLine
 10
-115.53125
 20
-26.7161660583694
 30
0.0
 11
-115.53125
 21
-27.2161660583694
 31
0.0
  0
LINE
  5
D1
330
1F
100
AcDbEntity
  8
1
  6
Continuous
 62
     4
100
AcDbLine
 10
-115.65625
 20
-26.3411660583694
 30
0.0
 11
-115.53125
 21
-26.7161660583694
 31
0.0
  0
LINE
  5
D2
330
1F
100
AcDbEntity
  8
1
  6
Continuous
 62
     4
100
AcDbLine
 10
-115.78125
 20
-26.0911660583694
 30
0.0
 11
-115.65625
 21
-26.3411660583694
 31
0.0
  0
LINE
  5
D3
330
1F
100
AcDbEntity
  8
1
  6
Continuous
 62
     4
100
AcDbLine
 10
-116.15625
 20
-25.8411660583694
 30
0.0
 11
-115.78125
 21
-26.0911660583694
 31
0.0
  0
LINE
  5
D4
330
1F
100
AcDbEntity
  8
1
  6
Continuous
 62
     4
100
AcDbLine
 10
-116.65625
 20
-25.7161660583694
 30
0.0
 11
-116.15625
 21
-25.8411660583694
 31
0.0
  0
LINE
  5
D5
330
1F
100
AcDbEntity
  8
1
  6
Continuous
 62
     4
100
AcDbLine
 10
-119.03125
 20
-25.7161660583694
 30
0.0
 11
-116.65625
 21
-25.7161660583694
 31
0.0
  0
LINE
  5
D6
330
1F
100
AcDbEntity
  8
1
  6
Continuous
 62
     4
100
AcDbLine
 10
-119.03125
 20
-28.2161660583694
 30
0.0
 11
-119.03125
 21
-25.7161660583694
 31
0.0
  0
LINE
  5
D7
330
1F
100
AcDbEntity
  8
1
  6
Continuous
 62
     4
100
AcDbLine
 10
-117.03125
 20
-28.2161660583694
 30
0.0
 11
-119.03125
 21
-28.2161660583694
 31
0.0
  0
LINE
  5
D8
330
1F
100
AcDbEntity
  8
1
  6
Continuous
 62
     4
100
AcDbLine
 10
200.669208082134
 20
81.7656163671293
 30
0.0
 11
198.794208082134
 21
81.7656163671293
 31
0.0
  0
LINE
  5
D9
330
1F
100
AcDbEntity
  8
1
  6
Continuous
 62
     4
100
AcDbLine
 10
201.044208082134
 20
81.8906163671293
 30
0.0
 11
200.669208082134
 21
81.7656163671293
 31
0.0
  0
LINE
  5
DA
330
1F
100
AcDbEntity
  8
1
  6
Continuous
 62
     4
100
AcDbLine
 10
201.419208082134
 20
82.1406163671293
 30
0.0
 11
201.044208082134
 21
81.8906163671293
 31
0.0
  0
LINE
  5
DB
330
1F
100
AcDbEntity
  8
1
  6
Continuous
 62
     4
100
AcDbLine
 10
201.669208082134
 20
82.5156163671293
 30
0.0
 11
201.419208082134
 21
82.1406163671293
 31
0.0
  0
LINE
  5
DC
330
1F
100
AcDbEntity
  8
1
  6
Continuous
 62
     4
100
AcDbLine
 10
201.794208082134
 20
83.0156163671293
 30
0.0
 11
201.669208082134
 21
82.5156163671293
 31
0.0
  0
LINE
  5
DD
330
1F
100
AcDbEntity
  8
1
  6
Continuous
 62
     4
100
AcDbLine
 10
201.794208082134
 20
83.6406163671293
 30
0.0
 11
201.794208082134
 21
83.0156163671293
 31
0.0
  0
LINE
  5
DE
330
1F
100
AcDbEntity
  8
1
  6
Continuous
 62
     4
100
AcDbLine
 10
201.669208082134
 20
84.1406163671293
 30
0.0
 11
201.794208082134
 21
83.6406163671293
 31
0.0
  0
LINE
  5
DF
330
1F
100
AcDbEntity
  8
1
  6
Continuous
 62
     4
100
AcDbLine
 10
201.544208082134
 20
84.3906163671293
 30
0.0
 11
201.669208082134
 21
84.1406163671293
 31
0.0
  0
LINE
  5
E0
330
1F
100
AcDbEntity
  8
1
  6
Continuous
 62
     4
100
AcDbLine
 10
201.294208082134
 20
84.6406163671293
 30
0.0
 11
201.544208082134
 21
84.3906163671293
 31
0.0
  0
LINE
  5
E1
330
1F
100
AcDbEntity
  8
1
  6
Continuous
 62
     4
100
AcDbLine
 10
200.794208082134
 20
84.7656163671293
 30
0.0
 11
201.294208082134
 21
84.6406163671293
 31
0.0
  0
LINE
  5
E2
330
1F
100
AcDbEntity
  8
1
  6
Continuous
 62
     4
100
AcDbLine
 10
201.169208082134
 20
84.8906163671293
 30
0.0
 11
200.794208082134
 21
84.7656163671293
 31
0.0
  0
LINE
  5
E3
330
1F
100
AcDbEntity
  8
1
  6
Continuous
 62
     4
100
AcDbLine
 10
201.419208082134
 20
85.0156163671293
 30
0.0
 11
201.169208082134
 21
84.8906163671293
 31
0.0
  0
LINE
  5
E4
330
1F
100
AcDbEntity
  8
1
  6
Continuous
 62
     4
100
AcDbLine
 10
201.669208082134
 20
85.2656163671293
 30
0.0
 11
201.419208082134
 21
85.0156163671293
 31
0.0
  0
LINE
  5
E5
330
1F
100
AcDbEntity
  8
1
  6
Continuous
 62
     4
100
AcDbLine
 10
201.794208082134
 20
85.6406163671293
 30
0.0
 11
201.669208082134
 21
85.2656163671293
 31
0.0
  0
LINE
  5
E6
330
1F
100
AcDbEntity
  8
1
  6
Continuous
 62
     4
100
AcDbLine
 10
201.794208082134
 20
86.0156163671293
 30
0.0
 11
201.794208082134
 21
85.6406163671293
 31
0.0
  0
LINE
  5
E7
330
1F
100
AcDbEntity
  8
1
  6
Continuous
 62
     4
100
AcDbLine
 10
201.669208082134
 20
86.3906163671293
 30
0.0
 11
201.794208082134
 21
86.0156163671293
 31
0.0
  0
LINE
  5
E8
330
1F
100
AcDbEntity
  8
1
  6
Continuous
 62
     4
100
AcDbLine
 10
201.294208082134
 20
86.6406163671293
 30
0.0
 11
201.669208082134
 21
86.3906163671293
 31
0.0
  0
LINE
  5
E9
330
1F
100
AcDbEntity
  8
1
  6
Continuous
 62
     4
100
AcDbLine
 10
200.669208082134
 20
86.7656163671293
 30
0.0
 11
201.294208082134
 21
86.6406163671293
 31
0.0
  0
LINE
  5
EA
330
1F
100
AcDbEntity
  8
1
  6
Continuous
 62
     4
100
AcDbLine
 10
198.794208082134
 20
86.7656163671293
 30
0.0
 11
200.669208082134
 21
86.7656163671293
 31
0.0
  0
LINE
  5
EB
330
1F
100
AcDbEntity
  8
1
  6
Continuous
 62
     4
100
AcDbLine
 10
199.544208082134
 20
84.7656163671293
 30
0.0
 11
200.794208082134
 21
84.7656163671293
 31
0.0
  0
LINE
  5
EC
330
1F
100
AcDbEntity
  8
1
  6
Continuous
 62
     4
100
AcDbLine
 10
197.294208082134
 20
86.7656163671293
 30
0.0
 11
197.294208082134
 21
81.7656163671293
 31
0.0
  0
LINE
  5
ED
330
1F
100
AcDbEntity
  8
1
  6
Continuous
 62
     4
100
AcDbLine
 10
195.794208082134
 20
85.2656163671293
 30
0.0
 11
197.294208082134
 21
86.7656163671293
 31
0.0
  0
LINE
  5
EE
330
1F
100
AcDbEntity
  8
1
  6
Continuous
 62
     4
100
AcDbLine
 10
191.794208082134
 20
83.5156163671293
 30
0.0
 11
194.294208082134
 21
83.5156163671293
 31
0.0
  0
LINE
  5
EF
330
1F
100
AcDbEntity
  8
1
  6
Continuous
 62
     4
100
AcDbLine
 10
190.169208082134
 20
85.7656163671293
 30
0.0
 11
190.294208082134
 21
85.2656163671293
 31
0.0
  0
LINE
  5
F0
330
1F
100
AcDbEntity
  8
1
  6
Continuous
 62
     4
100
AcDbLine
 10
189.919208082134
 20
86.1406163671293
 30
0.0
 11
190.169208082134
 21
85.7656163671293
 31
0.0
  0
LINE
  5
F1
330
1F
100
AcDbEntity
  8
1
  6
Continuous
 62
     4
100
AcDbLine
 10
189.669208082134
 20
86.3906163671293
 30
0.0
 11
189.919208082134
 21
86.1406163671293
 31
0.0
  0
LINE
  5
F2
330
1F
100
AcDbEntity
  8
1
  6
Continuous
 62
     4
100
AcDbLine
 10
189.294208082134
 20
86.6406163671293
 30
0.0
 11
189.669208082134
 21
86.3906163671293
 31
0.0
  0
LINE
  5
F3
330
1F
100
AcDbEntity
  8
1
  6
Continuous
 62
     4
100
AcDbLine
 10
188.794208082134
 20
86.7656163671293
 30
0.0
 11
189.294208082134
 21
86.6406163671293
 31
0.0
  0
LINE
  5
F4
330
1F
100
AcDbEntity
  8
1
  6
Continuous
 62
     4
100
AcDbLine
 10
186.794208082134
 20
86.7656163671293
 30
0.0
 11
188.794208082134
 21
86.7656163671293
 31
0.0
  0
LINE
  5
F5
330
1F
100
AcDbEntity
  8
1
  6
Continuous
 62
     4
100
AcDbLine
 10
186.794208082134
 20
81.7656163671293
 30
0.0
 11
186.794208082134
 21
86.7656163671293
 31
0.0
  0
LINE
  5
F6
330
1F
100
AcDbEntity
  8
1
  6
Continuous
 62
     4
100
AcDbLine
 10
188.794208082134
 20
81.7656163671293
 30
0.0
 11
186.794208082134
 21
81.7656163671293
 31
0.0
  0
LINE
  5
F7
330
1F
100
AcDbEntity
  8
1
  6
Continuous
 62
     4
100
AcDbLine
 10
189.294208082134
 20
81.8906163671293
 30
0.0
 11
188.794208082134
 21
81.7656163671293
 31
0.0
  0
LINE
  5
F8
330
1F
100
AcDbEntity
  8
1
  6
Continuous
 62
     4
100
AcDbLine
 10
189.669208082134
 20
82.1406163671293
 30
0.0
 11
189.294208082134
 21
81.8906163671293
 31
0.0
  0
LINE
  5
F9
330
1F
100
AcDbEntity
  8
1
  6
Continuous
 62
     4
100
AcDbLine
 10
189.919208082134
 20
82.3906163671293
 30
0.0
 11
189.669208082134
 21
82.1406163671293
 31
0.0
  0
LINE
  5
FA
330
1F
100
AcDbEntity
  8
1
  6
Continuous
 62
     4
100
AcDbLine
 10
190.169208082134
 20
82.7656163671293
 30
0.0
 11
189.919208082134
 21
82.3906163671293
 31
0.0
  0
LINE
  5
FB
330
1F
100
AcDbEntity
  8
1
  6
Continuous
 62
     4
100
AcDbLine
 10
190.294208082134
 20
83.2656163671293
 30
0.0
 11
190.169208082134
 21
82.7656163671293
 31
0.0
  0
LINE
  5
FC
330
1F
100
AcDbEntity
  8
1
  6
Continuous
 62
     4
100
AcDbLine
 10
190.294208082134
 20
85.2656163671293
 30
0.0
 11
190.294208082134
 21
83.2656163671293
 31
0.0
  0
LINE
  5
FD
330
1F
100
AcDbEntity
  8
1
  6
Continuous
 62
     4
100
AcDbLine
 10
182.794208082134
 20
83.5156163671293
 30
0.0
 11
185.294208082134
 21
83.5156163671293
 31
0.0
  0
LINE
  5
FE
330
1F
100
AcDbEntity
  8
1
  6
Continuous
 62
     4
100
AcDbLine
 10
177.794208082134
 20
84.5156163671293
 30
0.0
 11
177.794208082134
 21
84.2656163671293
 31
0.0
  0
LINE
  5
FF
330
1F
100
AcDbEntity
  8
1
  6
Continuous
 62
     4
100
AcDbLine
 10
181.294208082134
 20
84.5156163671293
 30
0.0
 11
181.294208082134
 21
81.7656163671293
 31
0.0
  0
LINE
  5
100
330
1F
100
AcDbEntity
  8
1
  6
Continuous
 62
     4
100
AcDbLine
 10
177.794208082134
 20
84.2656163671293
 30
0.0
 11
177.794208082134
 21
81.7656163671293
 31
0.0
  0
LINE
  5
101
330
1F
100
AcDbEntity
  8
1
  6
Continuous
 62
     4
100
AcDbLine
 10
177.794208082134
 20
86.7656163671293
 30
0.0
 11
177.794208082134
 21
84.5156163671293
 31
0.0
  0
LINE
  5
102
330
1F
100
AcDbEntity
  8
1
  6
Continuous
 62
     4
100
AcDbLine
 10
177.794208082134
 20
84.5156163671293
 30
0.0
 11
181.294208082134
 21
84.5156163671293
 31
0.0
  0
LINE
  5
103
330
1F
100
AcDbEntity
  8
1
  6
Continuous
 62
     4
100
AcDbLine
 10
181.294208082134
 20
86.7656163671293
 30
0.0
 11
181.294208082134
 21
84.5156163671293
 31
0.0
  0
LINE
  5
104
330
1F
100
AcDbEntity
  8
1
  6
Continuous
 62
     4
100
AcDbLine
 10
173.044208082134
 20
84.5156163671293
 30
0.0
 11
173.044208082134
 21
86.7656163671293
 31
0.0
  0
LINE
  5
105
330
1F
100
AcDbEntity
  8
1
  6
Continuous
 62
     4
100
AcDbLine
 10
175.419208082134
 20
84.6406163671293
 30
0.0
 11
175.044208082134
 21
84.5156163671293
 31
0.0
  0
LINE
  5
106
330
1F
100
AcDbEntity
  8
1
  6
Continuous
 62
     4
100
AcDbLine
 10
175.794208082134
 20
84.8906163671293
 30
0.0
 11
175.419208082134
 21
84.6406163671293
 31
0.0
  0
LINE
  5
107
330
1F
100
AcDbEntity
  8
1
  6
Continuous
 62
     4
100
AcDbLine
 10
176.044208082134
 20
85.3906163671293
 30
0.0
 11
175.794208082134
 21
84.8906163671293
 31
0.0
  0
LINE
  5
108
330
1F
100
AcDbEntity
  8
1
  6
Continuous
 62
     4
100
AcDbLine
 10
176.044208082134
 20
85.7656163671293
 30
0.0
 11
176.044208082134
 21
85.3906163671293
 31
0.0
  0
LINE
  5
109
330
1F
100
AcDbEntity
  8
1
  6
Continuous
 62
     4
100
AcDbLine
 10
175.919208082134
 20
86.2656163671293
 30
0.0
 11
176.044208082134
 21
85.7656163671293
 31
0.0
  0
LINE
  5
10A
330
1F
100
AcDbEntity
  8
1
  6
Continuous
 62
     4
100
AcDbLine
 10
175.544208082134
 20
86.6406163671293
 30
0.0
 11
175.919208082134
 21
86.2656163671293
 31
0.0
  0
LINE
  5
10B
330
1F
100
AcDbEntity
  8
1
  6
Continuous
 62
     4
100
AcDbLine
 10
174.919208082134
 20
86.7656163671293
 30
0.0
 11
175.544208082134
 21
86.6406163671293
 31
0.0
  0
LINE
  5
10C
330
1F
100
AcDbEntity
  8
1
  6
Continuous
 62
     4
100
AcDbLine
 10
173.044208082134
 20
86.7656163671293
 30
0.0
 11
174.919208082134
 21
86.7656163671293
 31
0.0
  0
LINE
  5
10D
330
1F
100
AcDbEntity
  8
1
  6
Continuous
 62
     4
100
AcDbLine
 10
173.044208082134
 20
81.7656163671293
 30
0.0
 11
173.044208082134
 21
84.5156163671293
 31
0.0
  0
LINE
  5
10E
330
1F
100
AcDbEntity
  8
1
  6
Continuous
 62
     4
100
AcDbLine
 10
175.294208082134
 20
81.7656163671293
 30
0.0
 11
173.044208082134
 21
81.7656163671293
 31
0.0
  0
LINE
  5
10F
330
1F
100
AcDbEntity
  8
1
  6
Continuous
 62
     4
100
AcDbLine
 10
175.794208082134
 20
82.0156163671293
 30
0.0
 11
175.294208082134
 21
81.7656163671293
 31
0.0
  0
LINE
  5
110
330
1F
100
AcDbEntity
  8
1
  6
Continuous
 62
     4
100
AcDbLine
 10
176.044208082134
 20
82.2656163671293
 30
0.0
 11
175.794208082134
 21
82.0156163671293
 31
0.0
  0
LINE
  5
111
330
1F
100
AcDbEntity
  8
1
  6
Continuous
 62
     4
100
AcDbLine
 10
176.294208082134
 20
82.7656163671293
 30
0.0
 11
176.044208082134
 21
82.2656163671293
 31
0.0
  0
LINE
  5
112
330
1F
100
AcDbEntity
  8
1
  6
Continuous
 62
     4
100
AcDbLine
 10
176.294208082134
 20
83.3906163671293
 30
0.0
 11
176.294208082134
 21
82.7656163671293
 31
0.0
  0
LINE
  5
113
330
1F
100
AcDbEntity
  8
1
  6
Continuous
 62
     4
100
AcDbLine
 10
176.044208082134
 20
84.0156163671293
 30
0.0
 11
176.294208082134
 21
83.3906163671293
 31
0.0
  0
LINE
  5
114
330
1F
100
AcDbEntity
  8
1
  6
Continuous
 62
     4
100
AcDbLine
 10
175.794208082134
 20
84.2656163671293
 30
0.0
 11
176.044208082134
 21
84.0156163671293
 31
0.0
  0
LINE
  5
115
330
1F
100
AcDbEntity
  8
1
  6
Continuous
 62
     4
100
AcDbLine
 10
175.294208082134
 20
84.5156163671293
 30
0.0
 11
175.794208082134
 21
84.2656163671293
 31
0.0
  0
LINE
  5
116
330
1F
100
AcDbEntity
  8
1
  6
Continuous
 62
     4
100
AcDbLine
 10
175.044208082134
 20
84.5156163671293
 30
0.0
 11
175.294208082134
 21
84.5156163671293
 31
0.0
  0
LINE
  5
117
330
1F
100
AcDbEntity
  8
1
  6
Continuous
 62
     4
100
AcDbLine
 10
173.044208082134
 20
84.5156163671293
 30
0.0
 11
175.044208082134
 21
84.5156163671293
 31
0.0
  0
LINE
  5
128
330
1F
100
AcDbEntity
  8
100
  6
Continuous
 62
     3
100
AcDbLine
 10
-160.0
 20
-42.5
 30
0.0
 11
-160.0
 21
-24.5
 31
0.0
  0
LINE
  5
129
330
1F
100
AcDbEntity
  8
1
  6
Continuous
 62
     4
100
AcDbLine
 10
-75.1199999999999
 20
-10.5
 30
0.0
 11
-77.1107733748926
 21
-12.8839027449413
 31
0.0
  0
LINE
  5
12A
330
1F
100
AcDbEntity
  8
1
  6
Continuous
 62
     4
100
AcDbLine
 10
-75.1199999999999
 20
-10.5
 30
0.0
 11
-75.652108943364
 21
-13.559907024717
 31
0.0
  0
LINE
  5
12B
330
1F
100
AcDbEntity
  8
1
  6
Continuous
 62
     4
100
AcDbLine
 10
10.7769658139665
 20
-73.1562492110112
 30
0.0
 11
12.1869686072214
 21
-75.9235697653623
 31
0.0
  0
LINE
  5
12C
330
1F
100
AcDbEntity
  8
1
  6
Continuous
 62
     4
100
AcDbLine
 10
10.7769658139665
 20
-73.1562492110112
 30
0.0
 11
13.3817243295078
 21
-74.8478177148666
 31
0.0
  0
LINE
  5
12D
330
1F
100
AcDbEntity
  8
2
  6
DOT_CENTER
 62
     1
100
AcDbLine
 10
-93.6857750045597
 20
0.0
 30
0.0
 11
-22.3669376719184
 21
0.0
 31
0.0
  0
LINE
  5
12E
330
1F
100
AcDbEntity
  8
100
  6
Continuous
 62
     3
100
AcDbLine
 10
-23.0
 20
13.1
 30
0.0
 11
-27.5
 21
13.1
 31
0.0
  0
LINE
  5
12F
330
1F
100
AcDbEntity
  8
100
  6
Continuous
 62
     3
100
AcDbLine
 10
-23.0
 20
-13.1
 30
0.0
 11
-27.5
 21
-13.1
 31
0.0
  0
LINE
  5
130
330
1F
100
AcDbEntity
  8
100
  6
Continuous
 62
     3
100
AcDbLine
 10
-23.0
 20
13.1
 30
0.0
 11
-21.2102141655122
 21
10.0
 31
0.0
  0
LINE
  5
131
330
1F
100
AcDbEntity
  8
100
  6
Continuous
 62
     3
100
AcDbLine
 10
-23.0
 20
-13.1
 30
0.0
 11
-22.0762395692965
 21
-11.5
 31
0.0
  0
LINE
  5
132
330
1F
100
AcDbEntity
  8
100
  6
Continuous
 62
     3
100
AcDbLine
 10
-13.75
 20
10.0
 30
0.0
 11
-21.2102141655122
 21
10.0
 31
0.0
  0
LINE
  5
133
330
1F
100
AcDbEntity
  8
100
  6
Continuous
 62
     3
100
AcDbLine
 10
-22.0762395692965
 20
-11.5
 30
0.0
 11
-14.4364916731037
 21
-11.5
 31
0.0
  0
LINE
  5
134
330
1F
100
AcDbEntity
  8
100
  6
Continuous
 62
     3
100
AcDbLine
 10
-16.0
 20
12.0
 30
0.0
 11
16.0
 21
12.0
 31
0.0
  0
LINE
  5
135
330
1F
100
AcDbEntity
  8
100
  6
Continuous
 62
     3
100
AcDbLine
 10
-16.0
 20
26.0
 30
0.0
 11
-16.0
 21
12.0
 31
0.0
  0
LINE
  5
136
330
1F
100
AcDbEntity
  8
100
  6
Continuous
 62
     3
100
AcDbLine
 10
-7.2347635400663
 20
5.0
 30
0.0
 11
13.5
 21
5.0
 31
0.0
  0
LINE
  5
137
330
1F
100
AcDbEntity
  8
100
  6
Continuous
 62
     3
100
AcDbLine
 10
16.0
 20
26.0
 30
0.0
 11
16.0
 21
12.0
 31
0.0
  0
LINE
  5
138
330
1F
100
AcDbEntity
  8
100
  6
Continuous
 62
     3
100
AcDbLine
 10
12.75
 20
12.0
 30
0.0
 11
12.75
 21
5.0
 31
0.0
  0
LINE
  5
139
330
1F
100
AcDbEntity
  8
100
  6
Continuous
 62
     3
100
AcDbLine
 10
13.5
 20
5.0
 30
0.0
 11
13.5
 21
-13.0
 31
0.0
  0
LINE
  5
13A
330
1F
100
AcDbEntity
  8
100
  6
Continuous
 62
     3
100
AcDbLine
 10
-12.5
 20
-13.0
 30
0.0
 11
13.5
 21
-13.0
 31
0.0
  0
LINE
  5
13B
330
1F
100
AcDbEntity
  8
100
  6
Continuous
 62
     3
100
AcDbLine
 10
-11.5
 20
-13.0
 30
0.0
 11
-11.5
 21
-19.0762395692966
 31
0.0
  0
LINE
  5
13C
330
1F
100
AcDbEntity
  8
100
  6
Continuous
 62
     3
100
AcDbLine
 10
11.5
 20
-13.0
 30
0.0
 11
11.5
 21
-19.0762395692964
 31
0.0
  0
LINE
  5
13D
330
1F
100
AcDbEntity
  8
100
  6
Continuous
 62
     3
100
AcDbLine
 10
-13.1
 20
-20.0
 30
0.0
 11
-11.5
 21
-19.0762395692966
 31
0.0
  0
LINE
  5
13E
330
1F
100
AcDbEntity
  8
100
  6
Continuous
 62
     3
100
AcDbLine
 10
-13.1
 20
-20.0
 30
0.0
 11
-13.1
 21
-24.5
 31
0.0
  0
LINE
  5
13F
330
1F
100
AcDbEntity
  8
100
  6
Continuous
 62
     3
100
AcDbLine
 10
-13.1
 20
-20.0
 30
0.0
 11
13.1
 21
-20.0
 31
0.0
  0
LINE
  5
140
330
1F
100
AcDbEntity
  8
100
  6
Continuous
 62
     3
100
AcDbLine
 10
13.1
 20
-20.0
 30
0.0
 11
11.5
 21
-19.0762395692964
 31
0.0
  0
LINE
  5
141
330
1F
100
AcDbEntity
  8
100
  6
Continuous
 62
     3
100
AcDbLine
 10
13.1
 20
-20.0
 30
0.0
 11
13.1
 21
-24.5
 31
0.0
  0
LINE
  5
142
330
1F
100
AcDbEntity
  8
100
  6
Continuous
 62
     3
100
AcDbLine
 10
-4.39999999999998
 20
77.5
 30
0.0
 11
-4.39999999999998
 21
59.5
 31
0.0
  0
LINE
  5
143
330
1F
100
AcDbEntity
  8
100
  6
Continuous
 62
     3
100
AcDbLine
 10
-17.0
 20
26.0
 30
0.0
 11
-17.0
 21
29.5
 31
0.0
  0
LINE
  5
144
330
1F
100
AcDbEntity
  8
100
  6
Continuous
 62
     3
100
AcDbLine
 10
17.0
 20
26.0
 30
0.0
 11
17.0
 21
29.5
 31
0.0
  0
LINE
  5
145
330
1F
100
AcDbEntity
  8
100
  6
Continuous
 62
     3
100
AcDbLine
 10
-17.0
 20
29.5
 30
0.0
 11
17.0
 21
29.5
 31
0.0
  0
LINE
  5
146
330
1F
100
AcDbEntity
  8
100
  6
Continuous
 62
     3
100
AcDbLine
 10
-9.0
 20
59.5
 30
0.0
 11
-9.0
 21
52.9000732012339
 31
0.0
  0
LINE
  5
147
330
1F
100
AcDbEntity
  8
100
  6
Continuous
 62
     3
100
AcDbLine
 10
9.0
 20
59.5
 30
0.0
 11
-9.0
 21
59.5
 31
0.0
  0
LINE
  5
148
330
1F
100
AcDbEntity
  8
100
  6
Continuous
 62
     3
100
AcDbLine
 10
9.0
 20
59.5
 30
0.0
 11
9.0
 21
52.9000732012339
 31
0.0
  0
LINE
  5
149
330
1F
100
AcDbEntity
  8
100
  6
Continuous
 62
     3
100
AcDbLine
 10
15.5884572681199
 20
29.5
 30
0.0
 11
15.5884572681199
 21
43.5
 31
0.0
  0
LINE
  5
14A
330
1F
100
AcDbEntity
  8
100
  6
Continuous
 62
     3
100
AcDbLine
 10
-15.5884572681199
 20
29.5
 30
0.0
 11
-15.5884572681199
 21
43.5
 31
0.0
  0
LINE
  5
14B
330
1F
100
AcDbEntity
  8
100
  6
Continuous
 62
     3
100
AcDbLine
 10
-17.0
 20
26.0
 30
0.0
 11
17.0
 21
26.0
 31
0.0
  0
LINE
  5
14C
330
1F
100
AcDbEntity
  8
100
  6
Continuous
 62
     3
100
AcDbLine
 10
-1.5
 20
0.0
 30
0.0
 11
-4.5
 21
1.5
 31
0.0
  0
LINE
  5
14D
330
1F
100
AcDbEntity
  8
100
  6
Continuous
 62
     3
100
AcDbLine
 10
-4.5
 20
-1.5
 30
0.0
 11
-1.5
 21
0.0
 31
0.0
  0
LINE
  5
14E
330
1F
100
AcDbEntity
  8
2
  6
DOT_CENTER
 62
     1
100
AcDbLine
 10
0.0
 20
-88.8171411086635
 30
0.0
 11
0.0
 21
107.949797977851
 31
0.0
  0
LINE
  5
14F
330
1F
100
AcDbEntity
  8
100
  6
Continuous
 62
     3
100
AcDbLine
 10
-28.0525588832576
 20
77.5
 30
0.0
 11
28.0525588832576
 21
77.5
 31
0.0
  0
LINE
  5
150
330
1F
100
AcDbEntity
  8
2
  6
CENTER
 62
     6
100
AcDbLine
 10
-28.0525588832576
 20
70.9497979778511
 30
0.0
 11
28.0525588832576
 21
70.9497979778511
 31
0.0
  0
LINE
  5
151
330
1F
100
AcDbEntity
  8
2
  6
DOT_CENTER
 62
     1
100
AcDbLine
 10
-90.4933423642843
 20
155.0
 30
0.0
 11
34.742299581803
 21
155.0
 31
0.0
  0
LINE
  5
152
330
1F
100
AcDbEntity
  8
100
  6
Continuous
 62
     3
100
AcDbLine
 10
12.5
 20
97.5
 30
0.0
 11
-12.5
 21
97.5
 31
0.0
  0
LINE
  5
153
330
1F
100
AcDbEntity
  8
100
  6
Continuous
 62
     3
100
AcDbLine
 10
28.0525588832576
 20
88.4241003933253
 30
0.0
 11
28.0525588832576
 21
77.5
 31
0.0
  0
LINE
  5
154
330
1F
100
AcDbEntity
  8
100
  6
Continuous
 62
     3
100
AcDbLine
 10
13.229992139124
 20
97.3910481962556
 30
0.0
 11
23.8045400171553
 21
94.1626160643387
 31
0.0
  0
LINE
  5
155
330
1F
100
AcDbEntity
  8
100
  6
Continuous
 62
     3
100
AcDbLine
 10
-13.229992139124
 20
97.3910481962556
 30
0.0
 11
-23.8045400171553
 21
94.1626160643387
 31
0.0
  0
LINE
  5
156
330
1F
100
AcDbEntity
  8
100
  6
Continuous
 62
     3
100
AcDbLine
 10
-28.0525588832576
 20
88.4241003933253
 30
0.0
 11
-28.0525588832576
 21
77.5
 31
0.0
  0
LINE
  5
157
330
1F
100
AcDbEntity
  8
2
  6
CENTER
 62
     6
100
AcDbLine
 10
-28.0525588832576
 20
81.8738983711764
 30
0.0
 11
-28.0525588832576
 21
70.9497979778511
 31
0.0
  0
LINE
  5
158
330
1F
100
AcDbEntity
  8
2
  6
CENTER
 62
     6
100
AcDbLine
 10
-13.229992139124
 20
90.8408461741067
 30
0.0
 11
-23.8045400171553
 21
87.6124140421898
 31
0.0
  0
LINE
  5
159
330
1F
100
AcDbEntity
  8
2
  6
CENTER
 62
     6
100
AcDbLine
 10
12.5
 20
90.9497979778511
 30
0.0
 11
-12.5
 21
90.949797977851
 31
0.0
  0
LINE
  5
15A
330
1F
100
AcDbEntity
  8
2
  6
CENTER
 62
     6
100
AcDbLine
 10
13.229992139124
 20
90.8408461741066
 30
0.0
 11
23.8045400171553
 21
87.6124140421898
 31
0.0
  0
LINE
  5
15B
330
1F
100
AcDbEntity
  8
2
  6
CENTER
 62
     6
100
AcDbLine
 10
28.0525588832576
 20
81.8738983711764
 30
0.0
 11
28.0525588832576
 21
70.9497979778511
 31
0.0
  0
LINE
  5
15C
330
1F
100
AcDbEntity
  8
2
  6
DOT_CENTER
 62
     1
100
AcDbLine
 10
0.0
 20
188.417888093455
 30
0.0
 11
0.0
 21
121.5
 31
0.0
  0
LINE
  5
15D
330
1F
100
AcDbEntity
  8
100
  6
Continuous
 62
     3
100
AcDbLine
 10
93.0
 20
26.0
 30
0.0
 11
93.0
 21
29.5
 31
0.0
  0
LINE
  5
15E
330
1F
100
AcDbEntity
  8
100
  6
Continuous
 62
     3
100
AcDbLine
 10
93.0
 20
29.5
 30
0.0
 11
127.0
 21
29.5
 31
0.0
  0
LINE
  5
15F
330
1F
100
AcDbEntity
  8
100
  6
Continuous
 62
     3
100
AcDbLine
 10
127.0
 20
26.0
 30
0.0
 11
127.0
 21
29.5
 31
0.0
  0
LINE
  5
160
330
1F
100
AcDbEntity
  8
100
  6
Continuous
 62
     3
100
AcDbLine
 10
105.6
 20
77.5
 30
0.0
 11
105.6
 21
59.5
 31
0.0
  0
LINE
  5
161
330
1F
100
AcDbEntity
  8
2
  6
DOT_CENTER
 62
     1
100
AcDbLine
 10
110.0
 20
107.949797977851
 30
0.0
 11
110.0
 21
-84.722579565993
 31
0.0
  0
LINE
  5
162
330
1F
100
AcDbEntity
  8
100
  6
Continuous
 62
     3
100
AcDbLine
 10
119.0
 20
59.5
 30
0.0
 11
101.0
 21
59.5
 31
0.0
  0
LINE
  5
163
330
1F
100
AcDbEntity
  8
100
  6
Continuous
 62
     3
100
AcDbLine
 10
123.5
 20
44.5484266569889
 30
0.0
 11
123.5
 21
29.5
 31
0.0
  0
LINE
  5
164
330
1F
100
AcDbEntity
  8
100
  6
Continuous
 62
     3
100
AcDbLine
 10
119.0
 20
59.5
 30
0.0
 11
119.0
 21
52.9000732012339
 31
0.0
  0
LINE
  5
165
330
1F
100
AcDbEntity
  8
100
  6
Continuous
 62
     3
100
AcDbLine
 10
96.5
 20
44.5484266569889
 30
0.0
 11
96.5
 21
29.5
 31
0.0
  0
LINE
  5
166
330
1F
100
AcDbEntity
  8
100
  6
Continuous
 62
     3
100
AcDbLine
 10
101.0
 20
59.5
 30
0.0
 11
101.0
 21
52.9000732012339
 31
0.0
  0
LINE
  5
167
330
1F
100
AcDbEntity
  8
100
  6
Continuous
 62
     3
100
AcDbLine
 10
93.0
 20
26.0
 30
0.0
 11
127.0
 21
26.0
 31
0.0
  0
LINE
  5
168
330
1F
100
AcDbEntity
  8
100
  6
Continuous
 62
     3
100
AcDbLine
 10
123.5
 20
5.0
 30
0.0
 11
123.5
 21
-13.0
 31
0.0
  0
LINE
  5
169
330
1F
100
AcDbEntity
  8
100
  6
Continuous
 62
     3
100
AcDbLine
 10
96.5
 20
-13.0
 30
0.0
 11
123.5
 21
-13.0
 31
0.0
  0
LINE
  5
16A
330
1F
100
AcDbEntity
  8
100
  6
Continuous
 62
     3
100
AcDbLine
 10
123.1
 20
-20.0
 30
0.0
 11
123.1
 21
-24.5
 31
0.0
  0
LINE
  5
16B
330
1F
100
AcDbEntity
  8
100
  6
Continuous
 62
     3
100
AcDbLine
 10
123.1
 20
-20.0
 30
0.0
 11
121.5
 21
-19.0762395692964
 31
0.0
  0
LINE
  5
16C
330
1F
100
AcDbEntity
  8
100
  6
Continuous
 62
     3
100
AcDbLine
 10
121.5
 20
-13.0
 30
0.0
 11
121.5
 21
-19.0762395692964
 31
0.0
  0
LINE
  5
16D
330
1F
100
AcDbEntity
  8
100
  6
Continuous
 62
     3
100
AcDbLine
 10
126.0
 20
26.0
 30
0.0
 11
126.0
 21
12.0
 31
0.0
  0
LINE
  5
16E
330
1F
100
AcDbEntity
  8
100
  6
Continuous
 62
     3
100
AcDbLine
 10
94.0
 20
12.0
 30
0.0
 11
126.0
 21
12.0
 31
0.0
  0
LINE
  5
16F
330
1F
100
AcDbEntity
  8
100
  6
Continuous
 62
     3
100
AcDbLine
 10
122.75
 20
12.0
 30
0.0
 11
122.75
 21
5.0
 31
0.0
  0
LINE
  5
170
330
1F
100
AcDbEntity
  8
100
  6
Continuous
 62
     3
100
AcDbLine
 10
96.5
 20
5.0
 30
0.0
 11
123.5
 21
5.0
 31
0.0
  0
LINE
  5
171
330
1F
100
AcDbEntity
  8
2
  6
DOT_CENTER
 62
     1
100
AcDbLine
 10
85.0
 20
0.0
 30
0.0
 11
135.0
 21
0.0
 31
0.0
  0
LINE
  5
172
330
1F
100
AcDbEntity
  8
100
  6
Continuous
 62
     3
100
AcDbLine
 10
94.0
 20
26.0
 30
0.0
 11
94.0
 21
12.0
 31
0.0
  0
LINE
  5
173
330
1F
100
AcDbEntity
  8
100
  6
Continuous
 62
     3
100
AcDbLine
 10
97.25
 20
12.0
 30
0.0
 11
97.25
 21
5.0
 31
0.0
  0
LINE
  5
174
330
1F
100
AcDbEntity
  8
100
  6
Continuous
 62
     3
100
AcDbLine
 10
96.5
 20
5.0
 30
0.0
 11
96.5
 21
-13.0
 31
0.0
  0
LINE
  5
175
330
1F
100
AcDbEntity
  8
100
  6
Continuous
 62
     3
100
AcDbLine
 10
98.5
 20
-13.0
 30
0.0
 11
98.5
 21
-19.0762395692965
 31
0.0
  0
LINE
  5
176
330
1F
100
AcDbEntity
  8
100
  6
Continuous
 62
     3
100
AcDbLine
 10
96.9
 20
-20.0
 30
0.0
 11
98.5
 21
-19.0762395692965
 31
0.0
  0
LINE
  5
177
330
1F
100
AcDbEntity
  8
100
  6
Continuous
 62
     3
100
AcDbLine
 10
96.9
 20
-20.0
 30
0.0
 11
96.9
 21
-24.5
 31
0.0
  0
LINE
  5
178
330
1F
100
AcDbEntity
  8
100
  6
Continuous
 62
     3
100
AcDbLine
 10
79.0
 20
77.5
 30
0.0
 11
141.0
 21
77.5
 31
0.0
  0
LINE
  5
179
330
1F
100
AcDbEntity
  8
100
  6
Continuous
 62
     3
100
AcDbLine
 10
96.770007860876
 20
97.3910481962556
 30
0.0
 11
83.2480188661024
 21
93.262755974056
 31
0.0
  0
LINE
  5
17A
330
1F
100
AcDbEntity
  8
100
  6
Continuous
 62
     3
100
AcDbLine
 10
79.0
 20
87.5242403030426
 30
0.0
 11
79.0
 21
77.5
 31
0.0
  0
LINE
  5
17B
330
1F
100
AcDbEntity
  8
100
  6
Continuous
 62
     3
100
AcDbLine
 10
122.5
 20
97.5
 30
0.0
 11
97.5
 21
97.5
 31
0.0
  0
LINE
  5
17C
330
1F
100
AcDbEntity
  8
100
  6
Continuous
 62
     3
100
AcDbLine
 10
90.0034571207873
 20
87.5447385184625
 30
0.0
 11
90.0034571207873
 21
79.5
 31
0.0
  0
LINE
  5
17D
330
1F
100
AcDbEntity
  8
100
  6
Continuous
 62
     3
100
AcDbLine
 10
129.996542879213
 20
87.5447385184625
 30
0.0
 11
129.996542879213
 21
79.5
 31
0.0
  0
LINE
  5
17E
330
1F
100
AcDbEntity
  8
100
  6
Continuous
 62
     3
100
AcDbLine
 10
141.0
 20
87.5242403030426
 30
0.0
 11
141.0
 21
77.5
 31
0.0
  0
LINE
  5
17F
330
1F
100
AcDbEntity
  8
100
  6
Continuous
 62
     3
100
AcDbLine
 10
123.229992139124
 20
97.3910481962556
 30
0.0
 11
136.751981133898
 21
93.262755974056
 31
0.0
  0
LINE
  5
180
330
1F
100
AcDbEntity
  8
100
  6
Continuous
 62
     3
100
AcDbLine
 10
-173.5
 20
-10.1036297108184
 30
0.0
 11
-173.5
 21
-13.0
 31
0.0
  0
LINE
  5
181
330
1F
100
AcDbEntity
  8
100
  6
Continuous
 62
     3
100
AcDbLine
 10
-146.9
 20
-20.0
 30
0.0
 11
-173.1
 21
-20.0
 31
0.0
  0
LINE
  5
182
330
1F
100
AcDbEntity
  8
100
  6
Continuous
 62
     3
100
AcDbLine
 10
-173.1
 20
-20.0
 30
0.0
 11
-173.1
 21
-24.5
 31
0.0
  0
LINE
  5
183
330
1F
100
AcDbEntity
  8
100
  6
Continuous
 62
     3
100
AcDbLine
 10
-173.1
 20
-20.0
 30
0.0
 11
-171.5
 21
-19.0762395692964
 31
0.0
  0
LINE
  5
184
330
1F
100
AcDbEntity
  8
100
  6
Continuous
 62
     3
100
AcDbLine
 10
-171.5
 20
-13.0
 30
0.0
 11
-171.5
 21
-19.0762395692964
 31
0.0
  0
LINE
  5
185
330
1F
100
AcDbEntity
  8
100
  6
Continuous
 62
     3
100
AcDbLine
 10
-176.0
 20
26.0
 30
0.0
 11
-176.0
 21
12.0
 31
0.0
  0
LINE
  5
186
330
1F
100
AcDbEntity
  8
100
  6
Continuous
 62
     3
100
AcDbLine
 10
-172.75
 20
12.0
 30
0.0
 11
-172.75
 21
10.5366424127107
 31
0.0
  0
LINE
  5
187
330
1F
100
AcDbEntity
  8
2
  6
DOT_CENTER
 62
     1
100
AcDbLine
 10
-135.0
 20
0.0
 30
0.0
 11
-185.0
 21
0.0
 31
0.0
  0
LINE
  5
188
330
1F
100
AcDbEntity
  8
100
  6
Continuous
 62
     3
100
AcDbLine
 10
-144.0
 20
26.0
 30
0.0
 11
-144.0
 21
12.0
 31
0.0
  0
LINE
  5
189
330
1F
100
AcDbEntity
  8
100
  6
Continuous
 62
     3
100
AcDbLine
 10
-147.25
 20
12.0
 30
0.0
 11
-147.25
 21
10.5366424127107
 31
0.0
  0
LINE
  5
18A
330
1F
100
AcDbEntity
  8
100
  6
Continuous
 62
     3
100
AcDbLine
 10
-146.5
 20
-10.1036297108185
 30
0.0
 11
-146.5
 21
-13.0
 31
0.0
  0
LINE
  5
18B
330
1F
100
AcDbEntity
  8
100
  6
Continuous
 62
     3
100
AcDbLine
 10
-148.5
 20
-13.0
 30
0.0
 11
-148.5
 21
-19.0762395692965
 31
0.0
  0
LINE
  5
18C
330
1F
100
AcDbEntity
  8
100
  6
Continuous
 62
     3
100
AcDbLine
 10
-146.9
 20
-20.0
 30
0.0
 11
-148.5
 21
-19.0762395692965
 31
0.0
  0
LINE
  5
18D
330
1F
100
AcDbEntity
  8
100
  6
Continuous
 62
     3
100
AcDbLine
 10
-146.9
 20
-20.0
 30
0.0
 11
-146.9
 21
-24.5
 31
0.0
  0
LINE
  5
18E
330
1F
100
AcDbEntity
  8
2
  6
DOT_CENTER
 62
     1
100
AcDbLine
 10
-160.0
 20
102.798949207766
 30
0.0
 11
-160.0
 21
-84.722579565993
 31
0.0
  0
LINE
  5
18F
330
1F
100
AcDbEntity
  8
100
  6
Continuous
 62
     3
100
AcDbLine
 10
-144.0
 20
12.0
 30
0.0
 11
-149.784609690827
 21
12.0
 31
0.0
  0
LINE
  5
190
330
1F
100
AcDbEntity
  8
100
  6
Continuous
 62
     3
100
AcDbLine
 10
-170.215390309173
 20
12.0
 30
0.0
 11
-176.0
 21
12.0
 31
0.0
  0
LINE
  5
191
330
1F
100
AcDbEntity
  8
100
  6
Continuous
 62
     3
100
AcDbLine
 10
-146.5
 20
-13.0
 30
0.0
 11
-151.516660498395
 21
-13.0
 31
0.0
  0
LINE
  5
192
330
1F
100
AcDbEntity
  8
100
  6
Continuous
 62
     3
100
AcDbLine
 10
-168.483339501605
 20
-13.0
 30
0.0
 11
-173.5
 21
-13.0
 31
0.0
  0
LINE
  5
193
330
1F
100
AcDbEntity
  8
100
  6
Continuous
 62
     3
100
AcDbLine
 10
-8.0
 20
0.0
 30
0.0
 11
-1.5
 21
0.0
 31
0.0
  0
LINE
  5
194
330
1F
100
AcDbEntity
  8
100
  6
Continuous
 62
     3
100
AcDbLine
 10
-21.5
 20
0.0
 30
0.0
 11
-16.0
 21
0.0
 31
0.0
  0
LINE
  5
195
330
1F
100
AcDbEntity
  8
100
  6
Continuous
 62
     3
100
AcDbLine
 10
-84.0
 20
-10.2225
 30
0.0
 11
-84.0
 21
10.2225
 31
0.0
  0
LINE
  5
196
330
1F
100
AcDbEntity
  8
100
  6
Continuous
 62
     3
100
AcDbLine
 10
-84.0
 20
-10.2225
 30
0.0
 11
-75.1199999999999
 21
-10.5
 31
0.0
  0
LINE
  5
197
330
1F
100
AcDbEntity
  8
2
  6
Continuous
 62
     1
100
AcDbLine
 10
-69.0
 20
-9.52925
 30
0.0
 11
-84.0
 21
-9.0605
 31
0.0
  0
LINE
  5
198
330
1F
100
AcDbEntity
  8
100
  6
Continuous
 62
     3
100
AcDbLine
 10
-84.0
 20
10.2225
 30
0.0
 11
-75.1199999999999
 21
10.5
 31
0.0
  0
LINE
  5
199
330
1F
100
AcDbEntity
  8
2
  6
Continuous
 62
     1
100
AcDbLine
 10
-69.0
 20
9.52925000000001
 30
0.0
 11
-84.0
 21
9.0605
 31
0.0
  0
LINE
  5
19A
330
1F
100
AcDbEntity
  8
100
  6
Continuous
 62
     3
100
AcDbLine
 10
-69.0
 20
-10.5
 30
0.0
 11
-69.0
 21
10.5
 31
0.0
  0
LINE
  5
19B
330
1F
100
AcDbEntity
  8
2
  6
Continuous
 62
     3
100
AcDbLine
 10
-69.0
 20
9.52925000000001
 30
0.0
 11
-67.3186116785525
 21
10.5
 31
0.0
  0
LINE
  5
19C
330
1F
100
AcDbEntity
  8
2
  6
Continuous
 62
     3
100
AcDbLine
 10
-69.0
 20
-9.52925
 30
0.0
 11
-67.3186116785525
 21
-10.5
 31
0.0
  0
LINE
  5
19D
330
1F
100
AcDbEntity
  8
100
  6
Continuous
 62
     3
100
AcDbLine
 10
-45.5
 20
-17.8978583448784
 30
0.0
 11
-45.5
 21
17.8978583448784
 31
0.0
  0
LINE
  5
19E
330
1F
100
AcDbEntity
  8
100
  6
Continuous
 62
     3
100
AcDbLine
 10
-45.5
 20
17.8978583448784
 30
0.0
 11
-27.5
 21
17.8978583448784
 31
0.0
  0
LINE
  5
19F
330
1F
100
AcDbEntity
  8
100
  6
Continuous
 62
     3
100
AcDbLine
 10
-45.5
 20
8.9489291724392
 30
0.0
 11
-27.5
 21
8.9489291724392
 31
0.0
  0
LINE
  5
1A0
330
1F
100
AcDbEntity
  8
100
  6
Continuous
 62
     3
100
AcDbLine
 10
-45.5
 20
-8.94892917243919
 30
0.0
 11
-27.5
 21
-8.94892917243919
 31
0.0
  0
LINE
  5
1A1
330
1F
100
AcDbEntity
  8
100
  6
Continuous
 62
     3
100
AcDbLine
 10
-45.5
 20
-17.8978583448784
 30
0.0
 11
-27.5
 21
-17.8978583448784
 31
0.0
  0
LINE
  5
1A2
330
1F
100
AcDbEntity
  8
100
  6
Continuous
 62
     3
100
AcDbLine
 10
-27.5
 20
-17.8978583448784
 30
0.0
 11
-27.5
 21
17.8978583448784
 31
0.0
  0
LINE
  5
1A3
330
1F
100
AcDbEntity
  8
100
  6
Continuous
 62
     3
100
AcDbLine
 10
-75.1199999999999
 20
10.5
 30
0.0
 11
-45.5
 21
10.5
 31
0.0
  0
LINE
  5
1A4
330
1F
100
AcDbEntity
  8
100
  6
Continuous
 62
     3
100
AcDbLine
 10
-75.1199999999999
 20
-10.5
 30
0.0
 11
-45.5
 21
-10.5
 31
0.0
  0
LINE
  5
1A5
330
1F
100
AcDbEntity
  8
100
  6
Continuous
 62
     3
100
AcDbLine
 10
10.5
 20
-66.0
 30
0.0
 11
-10.5
 21
-66.0
 31
0.0
  0
LINE
  5
1A6
330
1F
100
AcDbEntity
  8
2
  6
Continuous
 62
     3
100
AcDbLine
 10
-9.52924999999999
 20
-66.0
 30
0.0
 11
-10.5
 21
-64.3186116785525
 31
0.0
  0
LINE
  5
1A7
330
1F
100
AcDbEntity
  8
2
  6
Continuous
 62
     3
100
AcDbLine
 10
9.52925000000005
 20
-66.0
 30
0.0
 11
10.5
 21
-64.3186116785525
 31
0.0
  0
LINE
  5
1A8
330
1F
100
AcDbEntity
  8
100
  6
Continuous
 62
     3
100
AcDbLine
 10
-10.5
 20
-72.1199999999999
 30
0.0
 11
-10.5
 21
-42.5
 31
0.0
  0
LINE
  5
1A9
330
1F
100
AcDbEntity
  8
100
  6
Continuous
 62
     3
100
AcDbLine
 10
10.5
 20
-72.1199999999999
 30
0.0
 11
10.5
 21
-42.5
 31
0.0
  0
LINE
  5
1AA
330
1F
100
AcDbEntity
  8
100
  6
Continuous
 62
     3
100
AcDbLine
 10
10.2225000000001
 20
-81.0
 30
0.0
 11
10.5
 21
-72.1199999999999
 31
0.0
  0
LINE
  5
1AB
330
1F
100
AcDbEntity
  8
2
  6
Continuous
 62
     1
100
AcDbLine
 10
9.52925000000005
 20
-66.0
 30
0.0
 11
9.06050000000005
 21
-81.0
 31
0.0
  0
LINE
  5
1AC
330
1F
100
AcDbEntity
  8
100
  6
Continuous
 62
     3
100
AcDbLine
 10
-10.2225
 20
-81.0
 30
0.0
 11
-10.5
 21
-72.1199999999999
 31
0.0
  0
LINE
  5
1AD
330
1F
100
AcDbEntity
  8
2
  6
Continuous
 62
     1
100
AcDbLine
 10
-9.52924999999999
 20
-66.0
 30
0.0
 11
-9.06049999999999
 21
-81.0
 31
0.0
  0
LINE
  5
1AE
330
1F
100
AcDbEntity
  8
100
  6
Continuous
 62
     3
100
AcDbLine
 10
10.2225000000001
 20
-81.0
 30
0.0
 11
-10.2225
 21
-81.0
 31
0.0
  0
LINE
  5
1AF
330
1F
100
AcDbEntity
  8
100
  6
Continuous
 62
     3
100
AcDbLine
 10
-17.8978583448784
 20
-42.5
 30
0.0
 11
-17.8978583448784
 21
-24.5
 31
0.0
  0
LINE
  5
1B0
330
1F
100
AcDbEntity
  8
100
  6
Continuous
 62
     3
100
AcDbLine
 10
-8.94892917243919
 20
-42.5
 30
0.0
 11
-8.94892917243919
 21
-24.5
 31
0.0
  0
LINE
  5
1B1
330
1F
100
AcDbEntity
  8
100
  6
Continuous
 62
     3
100
AcDbLine
 10
8.94892917243922
 20
-42.5
 30
0.0
 11
8.94892917243922
 21
-24.5
 31
0.0
  0
LINE
  5
1B2
330
1F
100
AcDbEntity
  8
100
  6
Continuous
 62
     3
100
AcDbLine
 10
17.8978583448784
 20
-42.5
 30
0.0
 11
17.8978583448784
 21
-24.5
 31
0.0
  0
LINE
  5
1B3
330
1F
100
AcDbEntity
  8
100
  6
Continuous
 62
     3
100
AcDbLine
 10
17.8978583448784
 20
-42.5
 30
0.0
 11
-17.8978583448784
 21
-42.5
 31
0.0
  0
LINE
  5
1B4
330
1F
100
AcDbEntity
  8
100
  6
Continuous
 62
     3
100
AcDbLine
 10
17.8978583448784
 20
-24.5
 30
0.0
 11
-17.8978583448784
 21
-24.5
 31
0.0
  0
LINE
  5
1B5
330
1F
100
AcDbEntity
  8
100
  6
Continuous
 62
     3
100
AcDbLine
 10
-144.5
 20
8.9489291724392
 30
0.0
 11
-160.0
 21
17.8978583448784
 31
0.0
  0
LINE
  5
1B6
330
1F
100
AcDbEntity
  8
100
  6
Continuous
 62
     3
100
AcDbLine
 10
-160.0
 20
17.8978583448784
 30
0.0
 11
-175.5
 21
8.9489291724392
 31
0.0
  0
LINE
  5
1B7
330
1F
100
AcDbEntity
  8
100
  6
Continuous
 62
     3
100
AcDbLine
 10
-175.5
 20
8.9489291724392
 30
0.0
 11
-175.5
 21
-8.94892917243919
 31
0.0
  0
LINE
  5
1B8
330
1F
100
AcDbEntity
  8
100
  6
Continuous
 62
     3
100
AcDbLine
 10
-175.5
 20
-8.94892917243919
 30
0.0
 11
-160.0
 21
-17.8978583448784
 31
0.0
  0
LINE
  5
1B9
330
1F
100
AcDbEntity
  8
100
  6
Continuous
 62
     3
100
AcDbLine
 10
-160.0
 20
-17.8978583448784
 30
0.0
 11
-144.5
 21
-8.94892917243921
 31
0.0
  0
LINE
  5
1BA
330
1F
100
AcDbEntity
  8
100
  6
Continuous
 62
     3
100
AcDbLine
 10
-144.5
 20
-8.94892917243921
 30
0.0
 11
-144.5
 21
8.9489291724392
 31
0.0
  0
LINE
  5
1BB
330
1F
100
AcDbEntity
  8
100
  6
Continuous
 62
     3
100
AcDbLine
 10
125.5
 20
8.9489291724392
 30
0.0
 11
122.75
 21
10.5366424127107
 31
0.0
  0
LINE
  5
1BC
330
1F
100
AcDbEntity
  8
100
  6
Continuous
 62
     3
100
AcDbLine
 10
97.25
 20
10.5366424127107
 30
0.0
 11
94.5
 21
8.9489291724392
 31
0.0
  0
LINE
  5
1BD
330
1F
100
AcDbEntity
  8
100
  6
Continuous
 62
     3
100
AcDbLine
 10
94.5
 20
8.9489291724392
 30
0.0
 11
94.5
 21
-8.94892917243919
 31
0.0
  0
LINE
  5
1BE
330
1F
100
AcDbEntity
  8
100
  6
Continuous
 62
     3
100
AcDbLine
 10
94.5
 20
-8.94892917243919
 30
0.0
 11
96.5
 21
-10.1036297108184
 31
0.0
  0
LINE
  5
1BF
330
1F
100
AcDbEntity
  8
100
  6
Continuous
 62
     3
100
AcDbLine
 10
123.5
 20
-10.1036297108185
 30
0.0
 11
125.5
 21
-8.94892917243921
 31
0.0
  0
LINE
  5
1C0
330
1F
100
AcDbEntity
  8
100
  6
Continuous
 62
     3
100
AcDbLine
 10
125.5
 20
-8.94892917243921
 30
0.0
 11
125.5
 21
8.9489291724392
 31
0.0
  0
LINE
  5
1C1
330
1F
100
AcDbEntity
  8
100
  6
Continuous
 62
     3
100
AcDbLine
 10
-149.5
 20
-66.0
 30
0.0
 11
-170.5
 21
-66.0
 31
0.0
  0
LINE
  5
1C2
330
1F
100
AcDbEntity
  8
100
  6
Continuous
 62
     3
100
AcDbLine
 10
-144.5
 20
-42.5
 30
0.0
 11
-175.5
 21
-42.5
 31
0.0
  0
LINE
  5
1C3
330
1F
100
AcDbEntity
  8
100
  6
Continuous
 62
     3
100
AcDbLine
 10
-144.5
 20
-24.5
 30
0.0
 11
-175.5
 21
-24.5
 31
0.0
  0
LINE
  5
1C4
330
1F
100
AcDbEntity
  8
100
  6
Continuous
 62
     3
100
AcDbLine
 10
-170.5
 20
-72.1199999999999
 30
0.0
 11
-170.5
 21
-42.5
 31
0.0
  0
LINE
  5
1C5
330
1F
100
AcDbEntity
  8
100
  6
Continuous
 62
     3
100
AcDbLine
 10
-149.5
 20
-72.1199999999999
 30
0.0
 11
-149.5
 21
-42.5
 31
0.0
  0
LINE
  5
1C6
330
1F
100
AcDbEntity
  8
2
  6
Continuous
 62
     3
100
AcDbLine
 10
-169.52925
 20
-66.0
 30
0.0
 11
-170.5
 21
-64.3186116785525
 31
0.0
  0
LINE
  5
1C7
330
1F
100
AcDbEntity
  8
2
  6
Continuous
 62
     3
100
AcDbLine
 10
-150.47075
 20
-66.0
 30
0.0
 11
-149.5
 21
-64.3186116785525
 31
0.0
  0
LINE
  5
1C8
330
1F
100
AcDbEntity
  8
100
  6
Continuous
 62
     3
100
AcDbLine
 10
-170.2225
 20
-81.0
 30
0.0
 11
-170.5
 21
-72.1199999999999
 31
0.0
  0
LINE
  5
1C9
330
1F
100
AcDbEntity
  8
100
  6
Continuous
 62
     3
100
AcDbLine
 10
-149.7775
 20
-81.0
 30
0.0
 11
-149.5
 21
-72.1199999999999
 31
0.0
  0
LINE
  5
1CA
330
1F
100
AcDbEntity
  8
2
  6
Continuous
 62
     1
100
AcDbLine
 10
-169.52925
 20
-66.0
 30
0.0
 11
-169.0605
 21
-81.0
 31
0.0
  0
LINE
  5
1CB
330
1F
100
AcDbEntity
  8
2
  6
Continuous
 62
     1
100
AcDbLine
 10
-150.47075
 20
-66.0
 30
0.0
 11
-150.9395
 21
-81.0
 31
0.0
  0
LINE
  5
1CC
330
1F
100
AcDbEntity
  8
100
  6
Continuous
 62
     3
100
AcDbLine
 10
-149.7775
 20
-81.0
 30
0.0
 11
-170.2225
 21
-81.0
 31
0.0
  0
LINE
  5
1CD
330
1F
100
AcDbEntity
  8
100
  6
Continuous
 62
     3
100
AcDbLine
 10
-175.5
 20
-42.5
 30
0.0
 11
-175.5
 21
-24.5
 31
0.0
  0
LINE
  5
1CE
330
1F
100
AcDbEntity
  8
100
  6
Continuous
 62
     3
100
AcDbLine
 10
-144.5
 20
-42.5
 30
0.0
 11
-144.5
 21
-24.5
 31
0.0
  0
LINE
  5
1CF
330
1F
100
AcDbEntity
  8
100
  6
Continuous
 62
     3
100
AcDbLine
 10
120.5
 20
-66.0
 30
0.0
 11
99.5
 21
-66.0
 31
0.0
  0
LINE
  5
1D0
330
1F
100
AcDbEntity
  8
100
  6
Continuous
 62
     3
100
AcDbLine
 10
125.5
 20
-42.5
 30
0.0
 11
94.5
 21
-42.5
 31
0.0
  0
LINE
  5
1D1
330
1F
100
AcDbEntity
  8
100
  6
Continuous
 62
     3
100
AcDbLine
 10
125.5
 20
-24.5
 30
0.0
 11
94.5
 21
-24.5
 31
0.0
  0
LINE
  5
1D2
330
1F
100
AcDbEntity
  8
100
  6
Continuous
 62
     3
100
AcDbLine
 10
99.5
 20
-72.1199999999999
 30
0.0
 11
99.5
 21
-42.5
 31
0.0
  0
LINE
  5
1D3
330
1F
100
AcDbEntity
  8
100
  6
Continuous
 62
     3
100
AcDbLine
 10
120.5
 20
-72.1199999999999
 30
0.0
 11
120.5
 21
-42.5
 31
0.0
  0
LINE
  5
1D4
330
1F
100
AcDbEntity
  8
2
  6
Continuous
 62
     3
100
AcDbLine
 10
100.47075
 20
-66.0
 30
0.0
 11
99.5
 21
-64.3186116785525
 31
0.0
  0
LINE
  5
1D5
330
1F
100
AcDbEntity
  8
2
  6
Continuous
 62
     3
100
AcDbLine
 10
119.52925
 20
-66.0
 30
0.0
 11
120.5
 21
-64.3186116785525
 31
0.0
  0
LINE
  5
1D6
330
1F
100
AcDbEntity
  8
100
  6
Continuous
 62
     3
100
AcDbLine
 10
99.7775
 20
-81.0
 30
0.0
 11
99.5
 21
-72.1199999999999
 31
0.0
  0
LINE
  5
1D7
330
1F
100
AcDbEntity
  8
100
  6
Continuous
 62
     3
100
AcDbLine
 10
120.2225
 20
-81.0
 30
0.0
 11
120.5
 21
-72.1199999999999
 31
0.0
  0
LINE
  5
1D8
330
1F
100
AcDbEntity
  8
2
  6
Continuous
 62
     1
100
AcDbLine
 10
100.47075
 20
-66.0
 30
0.0
 11
100.9395
 21
-81.0
 31
0.0
  0
LINE
  5
1D9
330
1F
100
AcDbEntity
  8
2
  6
Continuous
 62
     1
100
AcDbLine
 10
119.52925
 20
-66.0
 30
0.0
 11
119.0605
 21
-81.0
 31
0.0
  0
LINE
  5
1DA
330
1F
100
AcDbEntity
  8
100
  6
Continuous
 62
     3
100
AcDbLine
 10
120.2225
 20
-81.0
 30
0.0
 11
99.7775
 21
-81.0
 31
0.0
  0
LINE
  5
1DB
330
1F
100
AcDbEntity
  8
100
  6
Continuous
 62
     3
100
AcDbLine
 10
94.5
 20
-42.5
 30
0.0
 11
94.5
 21
-24.5
 31
0.0
  0
LINE
  5
1DC
330
1F
100
AcDbEntity
  8
100
  6
Continuous
 62
     3
100
AcDbLine
 10
125.5
 20
-42.5
 30
0.0
 11
125.5
 21
-24.5
 31
0.0
  0
LINE
  5
1DD
330
1F
100
AcDbEntity
  8
100
  6
Continuous
 62
     3
100
AcDbLine
 10
110.0
 20
-42.5
 30
0.0
 11
110.0
 21
-24.5
 31
0.0
  0
LINE
  5
1DE
330
1F
100
AcDbEntity
  8
100
  6
Continuous
 62
     3
100
AcDbLine
 10
-69.0
 20
144.5
 30
0.0
 11
-69.0
 21
165.5
 31
0.0
  0
LINE
  5
1DF
330
1F
100
AcDbEntity
  8
100
  6
Continuous
 62
     3
100
AcDbLine
 10
-45.5
 20
139.5
 30
0.0
 11
-45.5
 21
170.5
 31
0.0
  0
LINE
  5
1E0
330
1F
100
AcDbEntity
  8
100
  6
Continuous
 62
     3
100
AcDbLine
 10
-27.5
 20
139.5
 30
0.0
 11
-27.5
 21
140.895046122859
 31
0.0
  0
LINE
  5
1E1
330
1F
100
AcDbEntity
  8
100
  6
Continuous
 62
     3
100
AcDbLine
 10
-27.5
 20
147.104953877141
 30
0.0
 11
-27.5
 21
162.407130331415
 31
0.0
  0
LINE
  5
1E2
330
1F
100
AcDbEntity
  8
100
  6
Continuous
 62
     3
100
AcDbLine
 10
-27.5
 20
169.104953877141
 30
0.0
 11
-27.5
 21
170.5
 31
0.0
  0
LINE
  5
1E3
330
1F
100
AcDbEntity
  8
100
  6
Continuous
 62
     3
100
AcDbLine
 10
-75.1199999999999
 20
165.5
 30
0.0
 11
-45.5
 21
165.5
 31
0.0
  0
LINE
  5
1E4
330
1F
100
AcDbEntity
  8
100
  6
Continuous
 62
     3
100
AcDbLine
 10
-75.1199999999999
 20
144.5
 30
0.0
 11
-45.5
 21
144.5
 31
0.0
  0
LINE
  5
1E5
330
1F
100
AcDbEntity
  8
2
  6
Continuous
 62
     3
100
AcDbLine
 10
-69.0
 20
164.52925
 30
0.0
 11
-67.3186116785525
 21
165.5
 31
0.0
  0
LINE
  5
1E6
330
1F
100
AcDbEntity
  8
2
  6
Continuous
 62
     3
100
AcDbLine
 10
-69.0
 20
145.47075
 30
0.0
 11
-67.3186116785525
 21
144.5
 31
0.0
  0
LINE
  5
1E7
330
1F
100
AcDbEntity
  8
100
  6
Continuous
 62
     3
100
AcDbLine
 10
-84.0
 20
165.2225
 30
0.0
 11
-75.1199999999999
 21
165.5
 31
0.0
  0
LINE
  5
1E8
330
1F
100
AcDbEntity
  8
100
  6
Continuous
 62
     3
100
AcDbLine
 10
-84.0
 20
144.7775
 30
0.0
 11
-75.1199999999999
 21
144.5
 31
0.0
  0
LINE
  5
1E9
330
1F
100
AcDbEntity
  8
2
  6
Continuous
 62
     1
100
AcDbLine
 10
-69.0
 20
164.52925
 30
0.0
 11
-84.0
 21
164.0605
 31
0.0
  0
LINE
  5
1EA
330
1F
100
AcDbEntity
  8
2
  6
Continuous
 62
     1
100
AcDbLine
 10
-69.0
 20
145.47075
 30
0.0
 11
-84.0
 21
145.9395
 31
0.0
  0
LINE
  5
1EB
330
1F
100
AcDbEntity
  8
100
  6
Continuous
 62
     3
100
AcDbLine
 10
-84.0
 20
144.7775
 30
0.0
 11
-84.0
 21
165.2225
 31
0.0
  0
LINE
  5
1EC
330
1F
100
AcDbEntity
  8
100
  6
Continuous
 62
     3
100
AcDbLine
 10
-45.5
 20
170.5
 30
0.0
 11
-27.5
 21
170.5
 31
0.0
  0
LINE
  5
1ED
330
1F
100
AcDbEntity
  8
100
  6
Continuous
 62
     3
100
AcDbLine
 10
-45.5
 20
139.5
 30
0.0
 11
-27.5
 21
139.5
 31
0.0
  0
LINE
  5
1EE
330
1F
100
AcDbEntity
  8
100
  6
Continuous
 62
     3
100
AcDbLine
 10
-45.5
 20
155.0
 30
0.0
 11
-27.5
 21
155.0
 31
0.0
  0
LINE
  5
1EF
330
1F
100
AcDbEntity
  8
100
  6
Continuous
 62
     3
100
AcDbLine
 10
-146.770007860876
 20
97.3910481962556
 30
0.0
 11
-133.248018866102
 21
93.262755974056
 31
0.0
  0
LINE
  5
1F0
330
1F
100
AcDbEntity
  8
100
  6
Continuous
 62
     3
100
AcDbLine
 10
-129.0
 20
87.5242403030426
 30
0.0
 11
-129.0
 21
77.5
 31
0.0
  0
LINE
  5
1F1
330
1F
100
AcDbEntity
  8
100
  6
Continuous
 62
     3
100
AcDbLine
 10
-140.003457120787
 20
87.5447385184625
 30
0.0
 11
-140.003457120787
 21
79.5
 31
0.0
  0
LINE
  5
1F2
330
1F
100
AcDbEntity
  8
100
  6
Continuous
 62
     3
100
AcDbLine
 10
-179.996542879213
 20
87.5447385184625
 30
0.0
 11
-179.996542879213
 21
79.5
 31
0.0
  0
LINE
  5
1F3
330
1F
100
AcDbEntity
  8
100
  6
Continuous
 62
     3
100
AcDbLine
 10
-147.5
 20
97.5
 30
0.0
 11
-172.5
 21
97.5
 31
0.0
  0
LINE
  5
1F4
330
1F
100
AcDbEntity
  8
100
  6
Continuous
 62
     3
100
AcDbLine
 10
-191.0
 20
87.5242403030426
 30
0.0
 11
-191.0
 21
77.5
 31
0.0
  0
LINE
  5
1F5
330
1F
100
AcDbEntity
  8
100
  6
Continuous
 62
     3
100
AcDbLine
 10
-173.229992139124
 20
97.3910481962556
 30
0.0
 11
-186.751981133898
 21
93.262755974056
 31
0.0
  0
LINE
  5
1F6
330
1F
100
AcDbEntity
  8
100
  6
Continuous
 62
     3
100
AcDbLine
 10
-191.0
 20
77.5
 30
0.0
 11
-129.0
 21
77.5
 31
0.0
  0
LINE
  5
1F7
330
1F
100
AcDbEntity
  8
100
  6
Continuous
 62
     3
100
AcDbLine
 10
-177.0
 20
26.0
 30
0.0
 11
-143.0
 21
26.0
 31
0.0
  0
LINE
  5
1F8
330
1F
100
AcDbEntity
  8
100
  6
Continuous
 62
     3
100
AcDbLine
 10
-169.0
 20
59.5
 30
0.0
 11
-169.0
 21
52.9000732012339
 31
0.0
  0
LINE
  5
1F9
330
1F
100
AcDbEntity
  8
100
  6
Continuous
 62
     3
100
AcDbLine
 10
-173.5
 20
44.5484266569889
 30
0.0
 11
-173.5
 21
29.5
 31
0.0
  0
LINE
  5
1FA
330
1F
100
AcDbEntity
  8
100
  6
Continuous
 62
     3
100
AcDbLine
 10
-151.0
 20
59.5
 30
0.0
 11
-151.0
 21
52.9000732012339
 31
0.0
  0
LINE
  5
1FB
330
1F
100
AcDbEntity
  8
100
  6
Continuous
 62
     3
100
AcDbLine
 10
-146.5
 20
44.5484266569889
 30
0.0
 11
-146.5
 21
29.5
 31
0.0
  0
LINE
  5
1FC
330
1F
100
AcDbEntity
  8
100
  6
Continuous
 62
     3
100
AcDbLine
 10
-151.0
 20
59.5
 30
0.0
 11
-169.0
 21
59.5
 31
0.0
  0
LINE
  5
1FD
330
1F
100
AcDbEntity
  8
100
  6
Continuous
 62
     3
100
AcDbLine
 10
-164.4
 20
77.5
 30
0.0
 11
-164.4
 21
59.5
 31
0.0
  0
LINE
  5
1FE
330
1F
100
AcDbEntity
  8
100
  6
Continuous
 62
     3
100
AcDbLine
 10
-143.0
 20
26.0
 30
0.0
 11
-143.0
 21
29.5
 31
0.0
  0
LINE
  5
1FF
330
1F
100
AcDbEntity
  8
100
  6
Continuous
 62
     3
100
AcDbLine
 10
-177.0
 20
29.5
 30
0.0
 11
-143.0
 21
29.5
 31
0.0
  0
LINE
  5
200
330
1F
100
AcDbEntity
  8
100
  6
Continuous
 62
     3
100
AcDbLine
 10
-177.0
 20
26.0
 30
0.0
 11
-177.0
 21
29.5
 31
0.0
  0
ARC
  5
201
330
1F
100
AcDbEntity
  8
100
  6
Continuous
 62
     3
100
AcDbCircle
 10
-13.75
 20
11.0
 30
0.0
 40
1.0
100
AcDbArc
 50
0.0
 51
90.0
  0
ARC
  5
202
330
1F
100
AcDbEntity
  8
100
  6
Continuous
 62
     3
100
AcDbCircle
 10
-13.75
 20
11.0
 30
0.0
 40
1.0
100
AcDbArc
 50
270.0
 51
0.0
  0
ARC
  5
203
330
1F
100
AcDbEntity
  8
100
  6
Continuous
 62
     3
100
AcDbCircle
 10
-12.5
 20
-12.0
 30
0.0
 40
1.000000000000044
100
AcDbArc
 50
194.4775121859293
 51
270.0
  0
ARC
  5
204
330
1F
100
AcDbEntity
  8
100
  6
Continuous
 62
     3
100
AcDbCircle
 10
-14.4364916731037
 20
-12.5
 30
0.0
 40
0.9999999999999474
100
AcDbArc
 50
14.4775121859307
 51
90.0
  0
ARC
  5
205
330
1F
100
AcDbEntity
  8
100
  6
Continuous
 62
     3
100
AcDbCircle
 10
19.0
 20
52.9000732012339
 30
0.0
 40
10.0
100
AcDbArc
 50
180.0
 51
250.0527857663933
  0
ARC
  5
206
330
1F
100
AcDbEntity
  8
100
  6
Continuous
 62
     3
100
AcDbCircle
 10
-19.0
 20
52.9000732012339
 30
0.0
 40
9.999999999999986
100
AcDbArc
 50
289.9472142336067
 51
0.0
  0
ARC
  5
207
330
1F
100
AcDbEntity
  8
100
  6
Continuous
 62
     3
100
AcDbCircle
 10
-0.00000000000001
 20
177.0
 30
0.0
 40
8.999999999999998
100
AcDbArc
 50
28.41186449479876
 51
151.5881355052016
  0
ARC
  5
208
330
1F
100
AcDbEntity
  8
100
  6
Continuous
 62
     3
100
AcDbCircle
 10
19.0525588832576
 20
166.0
 30
0.0
 40
9.000000000000199
100
AcDbArc
 50
0.0
 51
91.58813550520077
  0
ARC
  5
209
330
1F
100
AcDbEntity
  8
100
  6
Continuous
 62
     3
100
AcDbCircle
 10
19.0525588832576
 20
166.0
 30
0.0
 40
9.000000000000172
100
AcDbArc
 50
328.4118644947973
 51
0.0
  0
ARC
  5
20A
330
1F
100
AcDbEntity
  8
100
  6
Continuous
 62
     3
100
AcDbCircle
 10
36.941102703256
 20
155.0
 30
0.0
 40
11.9999999999999
100
AcDbArc
 50
148.4118644948002
 51
211.5881355052001
  0
ARC
  5
20B
330
1F
100
AcDbEntity
  8
100
  6
Continuous
 62
     3
100
AcDbCircle
 10
18.470551351628
 20
186.99193338483
 30
0.0
 40
12.00000000000018
100
AcDbArc
 50
208.4118644948002
 51
271.5881355052011
  0
ARC
  5
20C
330
1F
100
AcDbEntity
  8
100
  6
Continuous
 62
     3
100
AcDbCircle
 10
19.0525588832576
 20
144.0
 30
0.0
 40
9.000000000000279
100
AcDbArc
 50
268.4118644947993
 51
31.58813550520235
  0
ARC
  5
20D
330
1F
100
AcDbEntity
  8
100
  6
Continuous
 62
     3
100
AcDbCircle
 10
18.470551351628
 20
123.00806661517
 30
0.0
 40
12.00000000000006
100
AcDbArc
 50
88.41186449479889
 51
151.5881355051997
  0
ARC
  5
20E
330
1F
100
AcDbEntity
  8
100
  6
Continuous
 62
     3
100
AcDbCircle
 10
-0.00000000000001
 20
133.0
 30
0.0
 40
8.99999999999999
100
AcDbArc
 50
208.4118644947988
 51
331.5881355052013
  0
ARC
  5
20F
330
1F
100
AcDbEntity
  8
100
  6
Continuous
 62
     3
100
AcDbCircle
 10
-19.0525588832577
 20
144.0
 30
0.0
 40
9.000000000000087
100
AcDbArc
 50
148.411864494797
 51
271.5881355052014
  0
ARC
  5
210
330
1F
100
AcDbEntity
  8
100
  6
Continuous
 62
     3
100
AcDbCircle
 10
-18.470551351628
 20
123.00806661517
 30
0.0
 40
12.00000000000018
100
AcDbArc
 50
28.41186449480028
 51
91.58813550520111
  0
ARC
  5
211
330
1F
100
AcDbEntity
  8
100
  6
Continuous
 62
     3
100
AcDbCircle
 10
-36.941102703256
 20
155.0
 30
0.0
 40
11.9999999999999
100
AcDbArc
 50
328.4118644948002
 51
31.58813550520032
  0
ARC
  5
212
330
1F
100
AcDbEntity
  8
100
  6
Continuous
 62
     3
100
AcDbCircle
 10
-19.0525588832577
 20
166.0
 30
0.0
 40
9.000000000000282
100
AcDbArc
 50
88.4118644947986
 51
211.5881355052023
  0
ARC
  5
213
330
1F
100
AcDbEntity
  8
100
  6
Continuous
 62
     3
100
AcDbCircle
 10
-18.470551351628
 20
186.99193338483
 30
0.0
 40
12.00000000000004
100
AcDbArc
 50
268.4118644947989
 51
331.5881355051995
  0
ARC
  5
214
330
1F
100
AcDbEntity
  8
100
  6
Continuous
 62
     3
100
AcDbCircle
 10
12.5
 20
95.0
 30
0.0
 40
2.499999999999995
100
AcDbArc
 50
73.02245725905371
 51
90.0
  0
ARC
  5
215
330
1F
100
AcDbEntity
  8
100
  6
Continuous
 62
     3
100
AcDbCircle
 10
22.0525588832576
 20
88.4241003933253
 30
0.0
 40
6.0
100
AcDbArc
 50
0.0
 51
73.02245725905273
  0
ARC
  5
216
330
1F
100
AcDbEntity
  8
100
  6
Continuous
 62
     3
100
AcDbCircle
 10
-12.5
 20
95.0
 30
0.0
 40
2.5
100
AcDbArc
 50
90.0
 51
106.9775427409463
  0
ARC
  5
217
330
1F
100
AcDbEntity
  8
100
  6
Continuous
 62
     3
100
AcDbCircle
 10
-22.0525588832576
 20
88.4241003933253
 30
0.0
 40
5.99999999999999
100
AcDbArc
 50
106.9775427409473
 51
180.0
  0
ARC
  5
218
330
1F
100
AcDbEntity
  8
2
  6
CENTER
 62
     6
100
AcDbCircle
 10
-22.0525588832576
 20
81.8738983711764
 30
0.0
 40
5.99999999999999
100
AcDbArc
 50
106.9775427409473
 51
180.0
  0
ARC
  5
219
330
1F
100
AcDbEntity
  8
2
  6
CENTER
 62
     6
100
AcDbCircle
 10
-12.5
 20
88.4497979778511
 30
0.0
 40
2.499999999999901
100
AcDbArc
 50
90.0
 51
106.9775427409463
  0
ARC
  5
21A
330
1F
100
AcDbEntity
  8
2
  6
CENTER
 62
     6
100
AcDbCircle
 10
12.5
 20
88.4497979778511
 30
0.0
 40
2.4999999999999
100
AcDbArc
 50
73.02245725905304
 51
90.0
  0
ARC
  5
21B
330
1F
100
AcDbEntity
  8
2
  6
CENTER
 62
     6
100
AcDbCircle
 10
22.0525588832576
 20
81.8738983711764
 30
0.0
 40
6.0
100
AcDbArc
 50
0.0
 51
73.02245725905273
  0
ARC
  5
21C
330
1F
100
AcDbEntity
  8
100
  6
Continuous
 62
     3
100
AcDbCircle
 10
91.0
 20
52.9000732012339
 30
0.0
 40
9.999999999999972
100
AcDbArc
 50
303.3670129692318
 51
0.0
  0
ARC
  5
21D
330
1F
100
AcDbEntity
  8
100
  6
Continuous
 62
     3
100
AcDbCircle
 10
129.0
 20
52.9000732012339
 30
0.0
 40
10.0
100
AcDbArc
 50
180.0
 51
236.6329870307681
  0
ARC
  5
21E
330
1F
100
AcDbEntity
  8
100
  6
Continuous
 62
     3
100
AcDbCircle
 10
85.0
 20
87.5242403030426
 30
0.0
 40
5.999999999999961
100
AcDbArc
 50
106.9775427409464
 51
180.0
  0
ARC
  5
21F
330
1F
100
AcDbEntity
  8
100
  6
Continuous
 62
     3
100
AcDbCircle
 10
97.5
 20
95.0
 30
0.0
 40
2.5
100
AcDbArc
 50
90.0
 51
106.9775427409461
  0
ARC
  5
220
330
1F
100
AcDbEntity
  8
100
  6
Continuous
 62
     3
100
AcDbCircle
 10
96.0034571207873
 20
87.5447385184625
 30
0.0
 40
6.000000000000037
100
AcDbArc
 50
121.209443036462
 51
180.0
  0
ARC
  5
221
330
1F
100
AcDbEntity
  8
100
  6
Continuous
 62
     3
100
AcDbCircle
 10
123.996542879213
 20
87.5447385184625
 30
0.0
 40
6.0
100
AcDbArc
 50
0.0
 51
58.7905569635444
  0
ARC
  5
222
330
1F
100
AcDbEntity
  8
100
  6
Continuous
 62
     3
100
AcDbCircle
 10
122.5
 20
95.0
 30
0.0
 40
2.499999999999993
100
AcDbArc
 50
73.02245725905388
 51
90.0
  0
ARC
  5
223
330
1F
100
AcDbEntity
  8
100
  6
Continuous
 62
     3
100
AcDbCircle
 10
135.0
 20
87.5242403030426
 30
0.0
 40
6.0
100
AcDbArc
 50
0.0
 51
73.02245725905001
  0
ARC
  5
224
330
1F
100
AcDbEntity
  8
100
  6
Continuous
 62
     3
100
AcDbCircle
 10
-135.0
 20
87.5242403030426
 30
0.0
 40
6.0
100
AcDbArc
 50
0.0
 51
73.02245725905001
  0
ARC
  5
225
330
1F
100
AcDbEntity
  8
100
  6
Continuous
 62
     3
100
AcDbCircle
 10
-147.5
 20
95.0
 30
0.0
 40
2.499999999999993
100
AcDbArc
 50
73.02245725905388
 51
90.0
  0
ARC
  5
226
330
1F
100
AcDbEntity
  8
100
  6
Continuous
 62
     3
100
AcDbCircle
 10
-146.003457120787
 20
87.5447385184625
 30
0.0
 40
6.0
100
AcDbArc
 50
0.0
 51
58.7905569635444
  0
ARC
  5
227
330
1F
100
AcDbEntity
  8
100
  6
Continuous
 62
     3
100
AcDbCircle
 10
-173.996542879213
 20
87.5447385184625
 30
0.0
 40
5.999999999999728
100
AcDbArc
 50
121.2094430364571
 51
180.0
  0
ARC
  5
228
330
1F
100
AcDbEntity
  8
100
  6
Continuous
 62
     3
100
AcDbCircle
 10
-172.5
 20
95.0
 30
0.0
 40
2.5
100
AcDbArc
 50
90.0
 51
106.9775427409461
  0
ARC
  5
229
330
1F
100
AcDbEntity
  8
100
  6
Continuous
 62
     3
100
AcDbCircle
 10
-185.0
 20
87.5242403030426
 30
0.0
 40
6.000000000000077
100
AcDbArc
 50
106.97754274095
 51
180.0
  0
ARC
  5
22A
330
1F
100
AcDbEntity
  8
100
  6
Continuous
 62
     3
100
AcDbCircle
 10
-141.0
 20
52.9000732012339
 30
0.0
 40
10.0
100
AcDbArc
 50
180.0
 51
236.6329870307681
  0
ARC
  5
22B
330
1F
100
AcDbEntity
  8
100
  6
Continuous
 62
     3
100
AcDbCircle
 10
-179.0
 20
52.9000732012339
 30
0.0
 40
9.999999999999972
100
AcDbArc
 50
303.3670129692318
 51
0.0
  0
CIRCLE
  5
22C
330
1F
100
AcDbEntity
  8
100
  6
Continuous
 62
     3
100
AcDbCircle
 10
0.0
 20
155.0
 30
0.0
 40
10.0
  0
CIRCLE
  5
22D
330
1F
100
AcDbEntity
  8
100
  6
Continuous
 62
     3
100
AcDbCircle
 10
-160.0
 20
0.0
 30
0.0
 40
10.47749999999999
  0
CIRCLE
  5
22E
330
1F
100
AcDbEntity
  8
2
  6
Continuous
 62
     3
100
AcDbCircle
 10
-160.0
 20
0.0
 30
0.0
 40
9.315499999999986
  0
CIRCLE
  5
22F
330
1F
100
AcDbEntity
  8
100
  6
Continuous
 62
     3
100
AcDbCircle
 10
-160.0
 20
0.0
 30
0.0
 40
7.5
  0
LWPOLYLINE
  5
230
330
1F
100
AcDbEntity
  8
100
  6
Continuous
 62
     3
100
AcDbPolyline
 90
        6
 70
     0
 43
0.0
 10
-10.1571578979492
 20
-0.01515626907349
 10
-9.21965789794922
 20
-0.95265626907349
 10
-9.21965789794922
 20
-1.73390626907349
 10
-10.0009078979492
 20
-2.51515626907349
 10
-10.9384078979492
 20
-2.51515626907349
 10
-11.7196578979492
 20
-1.73390626907349
  0
LWPOLYLINE
  5
231
330
1F
100
AcDbEntity
  8
100
  6
Continuous
 62
     3
100
AcDbPolyline
 90
        7
 70
     0
 43
0.0
 10
-11.7196578979492
 20
1.54734373092651
 10
-10.9384078979492
 20
2.48484373092651
 10
-10.0009078979492
 20
2.48484373092651
 10
-9.21965789794922
 20
1.54734373092651
 10
-9.21965789794922
 20
0.76609373092651
 10
-10.1571578979492
 20
-0.01515626907349
 10
-11.0946578979492
 20
-0.01515626907349
  0
LWPOLYLINE
  5
232
330
1F
100
AcDbEntity
  8
100
  6
Continuous
 62
     3
100
AcDbPolyline
 90
        3
 70
     0
 43
0.0
 10
-13.9071578979492
 20
-2.51515626907349
 10
-13.9071578979492
 20
2.48484373092651
 10
-14.7665328979492
 20
1.00046873092651
  0
LWPOLYLINE
  5
233
330
1F
100
AcDbEntity
  8
100
  6
Continuous
 62
     3
100
AcDbPolyline
 90
        2
 70
     0
 43
0.0
 10
4.39999999999998
 20
59.5
 10
4.39999999999998
 20
77.5
  0
LWPOLYLINE
  5
234
330
1F
100
AcDbEntity
  8
100
  6
Continuous
 62
     3
100
AcDbPolyline
 90
        2
 70
     0
 43
0.0
 10
114.4
 20
59.5
 10
114.4
 20
77.5
  0
LWPOLYLINE
  5
235
330
1F
100
AcDbEntity
  8
100
  6
Continuous
 62
     3
100
AcDbPolyline
 90
        2
 70
     0
 43
0.0
 10
-155.6
 20
59.5
 10
-155.6
 20
77.5
  0
LEADER
  5
236
330
1F
100
AcDbEntity
  8
1
  6
Continuous
 62
     4
100
AcDbLeader
  3
Standard
 71
     0
 76
     3
 10
-75.1199999999999
 20
-10.5
 30
0.0
 10
-86.7046305578992
 20
-33.3392401906128
 30
0.0
 10
-121.787498474121
 20
-33.3392401906128
 30
0.0
  0
LEADER
  5
237
330
1F
100
AcDbEntity
  8
1
  6
Continuous
 62
     4
100
AcDbLeader
  3
Standard
 71
     0
 76
     3
 10
10.7769658139665
 20
-73.1562492110112
 30
0.0
 10
27.4622003121102
 20
-92.6872660797798
 30
0.0
 10
61.6305566208185
 20
-92.6872660797798
 30
0.0
  0
ENDSEC
  0
SECTION
  2
OBJECTS
  0
DICTIONARY
  5
C
330
0
100
AcDbDictionary
281
     1
  3
ACAD_GROUP
350
D
  3
ACAD_LAYOUT
350
1A
  3
ACAD_MATERIAL
350
3B
  3
ACAD_MLEADERSTYLE
350
23A
  3
ACAD_MLINESTYLE
350
17
  3
ACAD_PLOTSETTINGS
350
19
  3
ACAD_PLOTSTYLENAME
350
E
  3
ACAD_VISUALSTYLE
350
2A
  3
AcDbVariableDictionary
350
238
  0
DICTIONARY
  5
D
102
{ACAD_REACTORS
330
C
102
}
330
C
100
AcDbDictionary
281
     1
  0
DICTIONARY
  5
1A
102
{ACAD_REACTORS
330
C
102
}
330
C
100
AcDbDictionary
281
     1
  3
Layout1
350
1E
  3
Layout2
350
26
  3
Model
350
22
  0
DICTIONARY
  5
3B
102
{ACAD_REACTORS
330
C
102
}
330
C
100
AcDbDictionary
281
     1
  3
ByBlock
350
3D
  3
ByLayer
350
3C
  3
Global
350
3E
  0
DICTIONARY
  5
23A
102
{ACAD_REACTORS
330
C
102
}
330
C
100
AcDbDictionary
281
     1
  0
DICTIONARY
  5
17
102
{ACAD_REACTORS
330
C
102
}
330
C
100
AcDbDictionary
281
     1
  3
Standard
350
18
  0
DICTIONARY
  5
19
102
{ACAD_REACTORS
330
C
102
}
330
C
100
AcDbDictionary
281
     1
  0
ACDBDICTIONARYWDFLT
  5
E
102
{ACAD_REACTORS
330
C
102
}
330
C
100
AcDbDictionary
281
     1
  3
Normal
350
F
100
AcDbDictionaryWithDefault
340
F
  0
DICTIONARY
  5
2A
102
{ACAD_REACTORS
330
C
102
}
330
C
100
AcDbDictionary
281
     1
  3
2dWireframe
350
2F
  3
3D Hidden
350
31
  3
3dWireframe
350
30
  3
Basic
350
32
  3
Brighten
350
36
  3
ColorChange
350
3A
  3
Conceptual
350
34
  3
Dim
350
35
  3
Facepattern
350
39
  3
Flat
350
2B
  3
FlatWithEdges
350
2C
  3
Gouraud
350
2D
  3
GouraudWithEdges
350
2E
  3
Linepattern
350
38
  3
Realistic
350
33
  3
Thicken
350
37
  0
DICTIONARY
  5
238
102
{ACAD_REACTORS
330
C
102
}
330
C
100
AcDbDictionary
281
     1
  3
DIMASSOC
350
23B
  3
HIDETEXT
350
23C
  0
LAYOUT
  5
1E
102
{ACAD_REACTORS
330
1A
102
}
330
1A
100
AcDbPlotSettings
  1

  2
none_device
  4

  6

 40
0.0
 41
0.0
 42
0.0
 43
0.0
 44
0.0
 45
0.0
 46
0.0
 47
0.0
 48
0.0
 49
0.0
140
0.0
141
0.0
142
1.0
143
1.0
 70
   688
 72
     0
 73
     0
 74
     5
  7

 75
    16
147
1.0
148
0.0
149
0.0
100
AcDbLayout
  1
Layout1
 70
     1
 71
     1
 10
0.0
 20
0.0
 11
12.0
 21
9.0
 12
0.0
 22
0.0
 32
0.0
 14
1.00000000000000E+20
 24
1.00000000000000E+20
 34
1.00000000000000E+20
 15
-1.00000000000000E+20
 25
-1.00000000000000E+20
 35
-1.00000000000000E+20
146
0.0
 13
0.0
 23
0.0
 33
0.0
 16
1.0
 26
0.0
 36
0.0
 17
0.0
 27
1.0
 37
0.0
 76
     0
330
1B
  0
LAYOUT
  5
26
102
{ACAD_REACTORS
330
1A
102
}
330
1A
100
AcDbPlotSettings
  1

  2
none_device
  4

  6

 40
0.0
 41
0.0
 42
0.0
 43
0.0
 44
0.0
 45
0.0
 46
0.0
 47
0.0
 48
0.0
 49
0.0
140
0.0
141
0.0
142
1.0
143
1.0
 70
   688
 72
     0
 73
     0
 74
     5
  7

 75
    16
147
1.0
148
0.0
149
0.0
100
AcDbLayout
  1
Layout2
 70
     1
 71
     2
 10
0.0
 20
0.0
 11
0.0
 21
0.0
 12
0.0
 22
0.0
 32
0.0
 14
0.0
 24
0.0
 34
0.0
 15
0.0
 25
0.0
 35
0.0
146
0.0
 13
0.0
 23
0.0
 33
0.0
 16
1.0
 26
0.0
 36
0.0
 17
0.0
 27
1.0
 37
0.0
 76
     0
330
23
  0
LAYOUT
  5
22
102
{ACAD_REACTORS
330
1A
102
}
330
1A
100
AcDbPlotSettings
  1

  2
none_device
  4

  6

 40
0.0
 41
0.0
 42
0.0
 43
0.0
 44
0.0
 45
0.0
 46
0.0
 47
0.0
 48
0.0
 49
0.0
140
0.0
141
0.0
142
1.0
143
1.0
 70
  1712
 72
     0
 73
     0
 74
     0
  7

 75
     0
147
1.0
148
0.0
149
0.0
100
AcDbLayout
  1
Model
 70
     1
 71
     0
 10
0.0
 20
0.0
 11
12.0
 21
9.0
 12
0.0
 22
0.0
 32
0.0
 14
-191.0
 24
-110.813884089865
 34
0.0
 15
201.794208082134
 25
188.417888093455
 35
0.0
146
0.0
 13
0.0
 23
0.0
 33
0.0
 16
1.0
 26
0.0
 36
0.0
 17
0.0
 27
1.0
 37
0.0
 76
     0
330
1F
331
29
  0
MATERIAL
  5
3D
102
{ACAD_REACTORS
330
3B
102
}
102
{ACAD_XDICTIONARY
360
25F
102
}
330
3B
100
AcDbMaterial
  1
ByBlock
  0
MATERIAL
  5
3C
102
{ACAD_REACTORS
330
3B
102
}
102
{ACAD_XDICTIONARY
360
25D
102
}
330
3B
100
AcDbMaterial
  1
ByLayer
  0
MATERIAL
  5
3E
102
{ACAD_REACTORS
330
3B
102
}
102
{ACAD_XDICTIONARY
360
261
102
}
330
3B
100
AcDbMaterial
  1
Global
  0
MLINESTYLE
  5
18
102
{ACAD_REACTORS
330
17
102
}
330
17
100
AcDbMlineStyle
  2
Standard
 70
     0
  3

 62
   256
 51
90.0
 52
90.0
 71
     2
 49
0.5
 62
   256
  6
BYLAYER
 49
-0.5
 62
   256
  6
BYLAYER
  0
ACDBPLACEHOLDER
  5
F
102
{ACAD_REACTORS
330
E
102
}
330
E
  0
VISUALSTYLE
  5
2F
102
{ACAD_REACTORS
330
2A
102
}
102
{ACAD_XDICTIONARY
360
245
102
}
330
2A
100
AcDbVisualStyle
  2
2dWireframe
 70
     4
 71
     0
 72
     2
 73
     0
 90
        0
 40
-0.6
 41
-30.0
 62
     5
 63
     7
 74
     1
 91
        4
 64
     7
 65
   257
 75
     1
175
     1
 42
1.0
 92
        0
 66
   257
 43
1.0
 76
     1
 77
     6
 78
     2
 67
     7
 79
     5
170
     0
171
     0
290
     0
174
     0
 93
        1
 44
0.0
173
     0
291
     0
 45
0.0
1001
ACAD
1000
AcDbSavedByObjectVersion
1070
     0
  0
VISUALSTYLE
  5
31
102
{ACAD_REACTORS
330
2A
102
}
102
{ACAD_XDICTIONARY
360
249
102
}
330
2A
100
AcDbVisualStyle
  2
3D Hidden
 70
     6
 71
     1
 72
     2
 73
     2
 90
        0
 40
-0.6
 41
-30.0
 62
     5
 63
     7
 74
     2
 91
        2
 64
     7
 65
   257
 75
     2
175
     1
 42
40.0
 92
        0
 66
   257
 43
1.0
 76
     1
 77
     6
 78
     2
 67
     7
 79
     3
170
     0
171
     0
290
     0
174
     0
 93
        1
 44
0.0
173
     0
291
     0
 45
0.0
1001
ACAD
1000
AcDbSavedByObjectVersion
1070
     0
  0
VISUALSTYLE
  5
30
102
{ACAD_REACTORS
330
2A
102
}
102
{ACAD_XDICTIONARY
360
247
102
}
330
2A
100
AcDbVisualStyle
  2
3dWireframe
 70
     5
 71
     0
 72
     2
 73
     0
 90
        0
 40
-0.6
 41
-30.0
 62
     5
 63
     7
 74
     1
 91
        4
 64
     7
 65
   257
 75
     1
175
     1
 42
1.0
 92
        0
 66
   257
 43
1.0
 76
     1
 77
     6
 78
     2
 67
     7
 79
     5
170
     0
171
     0
290
     0
174
     0
 93
        1
 44
0.0
173
     0
291
     0
 45
0.0
1001
ACAD
1000
AcDbSavedByObjectVersion
1070
     0
  0
VISUALSTYLE
  5
32
102
{ACAD_REACTORS
330
2A
102
}
102
{ACAD_XDICTIONARY
360
24B
102
}
330
2A
100
AcDbVisualStyle
  2
Basic
 70
     7
 71
     1
 72
     0
 73
     1
 90
        0
 40
-0.6
 41
-30.0
 62
     5
 63
     7
 74
     0
 91
        4
 64
     7
 65
   257
 75
     1
175
     1
 42
1.0
 92
        8
 66
     7
 43
1.0
 76
     1
 77
     6
 78
     2
 67
     7
 79
     5
170
     0
171
     0
290
     0
174
     0
 93
        1
 44
0.0
173
     0
291
     1
 45
0.0
1001
ACAD
1000
AcDbSavedByObjectVersion
1070
     0
  0
VISUALSTYLE
  5
36
102
{ACAD_REACTORS
330
2A
102
}
102
{ACAD_XDICTIONARY
360
253
102
}
330
2A
100
AcDbVisualStyle
  2
Brighten
 70
    12
 71
     2
 72
     2
 73
     0
 90
        0
 40
-0.6
 41
-30.0
 62
     5
 63
     7
 74
     1
 91
        4
 64
     7
 65
   257
 75
     1
175
     1
 42
1.0
 92
        8
 66
     7
 43
1.0
 76
     1
 77
     6
 78
     2
 67
     7
 79
     5
170
     0
171
     0
290
     0
174
     0
 93
        1
 44
50.0
173
     0
291
     1
 45
0.0
1001
ACAD
1000
AcDbSavedByObjectVersion
1070
     0
  0
VISUALSTYLE
  5
3A
102
{ACAD_REACTORS
330
2A
102
}
102
{ACAD_XDICTIONARY
360
25B
102
}
330
2A
100
AcDbVisualStyle
  2
ColorChange
 70
    16
 71
     2
 72
     2
 73
     3
 90
        0
 40
-0.6
 41
-30.0
 62
     5
 63
     8
 74
     1
 91
        4
 64
     7
 65
   257
 75
     1
175
     1
 42
1.0
 92
        8
 66
     8
 43
1.0
 76
     1
 77
     6
 78
     2
 67
     7
 79
     5
170
     0
171
     0
290
     0
174
     0
 93
        1
 44
0.0
173
     0
291
     1
 45
0.0
1001
ACAD
1000
AcDbSavedByObjectVersion
1070
     0
  0
VISUALSTYLE
  5
34
102
{ACAD_REACTORS
330
2A
102
}
102
{ACAD_XDICTIONARY
360
24F
102
}
330
2A
100
AcDbVisualStyle
  2
Conceptual
 70
     9
 71
     3
 72
     2
 73
     0
 90
        0
 40
-0.6
 41
-30.0
 62
     5
 63
     7
 74
     2
 91
        2
 64
     7
 65
   257
 75
     1
175
     1
 42
40.0
 92
        8
 66
     7
 43
1.0
 76
     1
 77
     6
 78
     2
 67
     7
 79
     3
170
     0
171
     0
290
     0
174
     0
 93
        1
 44
0.0
173
     0
291
     0
 45
0.0
1001
ACAD
1000
AcDbSavedByObjectVersion
1070
     0
  0
VISUALSTYLE
  5
35
102
{ACAD_REACTORS
330
2A
102
}
102
{ACAD_XDICTIONARY
360
251
102
}
330
2A
100
AcDbVisualStyle
  2
Dim
 70
    11
 71
     2
 72
     2
 73
     0
 90
        0
 40
-0.6
 41
-30.0
 62
     5
 63
     7
 74
     1
 91
        4
 64
     7
 65
   257
 75
     1
175
     1
 42
1.0
 92
        8
 66
     7
 43
1.0
 76
     1
 77
     6
 78
     2
 67
     7
 79
     5
170
     0
171
     0
290
     0
174
     0
 93
        1
 44
-50.0
173
     0
291
     1
 45
0.0
1001
ACAD
1000
AcDbSavedByObjectVersion
1070
     0
  0
VISUALSTYLE
  5
39
102
{ACAD_REACTORS
330
2A
102
}
102
{ACAD_XDICTIONARY
360
259
102
}
330
2A
100
AcDbVisualStyle
  2
Facepattern
 70
    15
 71
     2
 72
     2
 73
     0
 90
        0
 40
-0.6
 41
-30.0
 62
     5
 63
     7
 74
     1
 91
        4
 64
     7
 65
   257
 75
     1
175
     1
 42
1.0
 92
        8
 66
     7
 43
1.0
 76
     1
 77
     6
 78
     2
 67
     7
 79
     5
170
     0
171
     0
290
     0
174
     0
 93
        1
 44
0.0
173
     0
291
     1
 45
0.0
1001
ACAD
1000
AcDbSavedByObjectVersion
1070
     0
  0
VISUALSTYLE
  5
2B
102
{ACAD_REACTORS
330
2A
102
}
102
{ACAD_XDICTIONARY
360
23D
102
}
330
2A
100
AcDbVisualStyle
  2
Flat
 70
     0
 71
     2
 72
     1
 73
     1
 90
        2
 40
-0.6
 41
30.0
 62
     5
 63
     7
 74
     0
 91
        4
 64
     7
 65
   257
 75
     1
175
     1
 42
1.0
 92
        8
 66
     7
 43
1.0
 76
     1
 77
     6
 78
     2
 67
     7
 79
     5
170
     0
171
     0
290
     0
174
     0
 93
       13
 44
0.0
173
     0
291
     1
 45
0.0
1001
ACAD
1000
AcDbSavedByObjectVersion
1070
     0
  0
VISUALSTYLE
  5
2C
102
{ACAD_REACTORS
330
2A
102
}
102
{ACAD_XDICTIONARY
360
23F
102
}
330
2A
100
AcDbVisualStyle
  2
FlatWithEdges
 70
     1
 71
     2
 72
     1
 73
     1
 90
        2
 40
-0.6
 41
30.0
 62
     5
 63
     7
 74
     1
 91
        4
 64
     7
 65
   257
 75
     1
175
     1
 42
1.0
 92
        0
 66
   257
 43
1.0
 76
     1
 77
     6
 78
     2
 67
     7
 79
     5
170
     0
171
     0
290
     0
174
     0
 93
       13
 44
0.0
173
     0
291
     1
 45
0.0
1001
ACAD
1000
AcDbSavedByObjectVersion
1070
     0
  0
VISUALSTYLE
  5
2D
102
{ACAD_REACTORS
330
2A
102
}
102
{ACAD_XDICTIONARY
360
241
102
}
330
2A
100
AcDbVisualStyle
  2
Gouraud
 70
     2
 71
     2
 72
     2
 73
     1
 90
        2
 40
-0.6
 41
30.0
 62
     5
 63
     7
 74
     0
 91
        4
 64
     7
 65
   257
 75
     1
175
     1
 42
1.0
 92
        0
 66
     7
 43
1.0
 76
     1
 77
     6
 78
     2
 67
     7
 79
     5
170
     0
171
     0
290
     0
174
     0
 93
       13
 44
0.0
173
     0
291
     1
 45
0.0
1001
ACAD
1000
AcDbSavedByObjectVersion
1070
     0
  0
VISUALSTYLE
  5
2E
102
{ACAD_REACTORS
330
2A
102
}
102
{ACAD_XDICTIONARY
360
243
102
}
330
2A
100
AcDbVisualStyle
  2
GouraudWithEdges
 70
     3
 71
     2
 72
     2
 73
     1
 90
        2
 40
-0.6
 41
30.0
 62
     5
 63
     7
 74
     1
 91
        4
 64
     7
 65
   257
 75
     1
175
     1
 42
1.0
 92
        0
 66
   257
 43
1.0
 76
     1
 77
     6
 78
     2
 67
     7
 79
     5
170
     0
171
     0
290
     0
174
     0
 93
       13
 44
0.0
173
     0
291
     1
 45
0.0
1001
ACAD
1000
AcDbSavedByObjectVersion
1070
     0
  0
VISUALSTYLE
  5
38
102
{ACAD_REACTORS
330
2A
102
}
102
{ACAD_XDICTIONARY
360
257
102
}
330
2A
100
AcDbVisualStyle
  2
Linepattern
 70
    14
 71
     2
 72
     2
 73
     0
 90
        0
 40
-0.6
 41
-30.0
 62
     5
 63
     7
 74
     1
 91
        4
 64
     7
 65
   257
 75
     7
175
     7
 42
1.0
 92
        8
 66
     7
 43
1.0
 76
     1
 77
     6
 78
     2
 67
     7
 79
     5
170
     0
171
     0
290
     0
174
     0
 93
        1
 44
0.0
173
     0
291
     1
 45
0.0
1001
ACAD
1000
AcDbSavedByObjectVersion
1070
     0
  0
VISUALSTYLE
  5
33
102
{ACAD_REACTORS
330
2A
102
}
102
{ACAD_XDICTIONARY
360
24D
102
}
330
2A
100
AcDbVisualStyle
  2
Realistic
 70
     8
 71
     2
 72
     2
 73
     0
 90
        0
 40
-0.6
 41
-30.0
 62
     5
 63
     7
 74
     1
 91
        0
 64
     7
 65
   257
 75
     1
175
     1
 42
1.0
 92
        8
 66
     8
 43
1.0
 76
     1
 77
     6
 78
     2
 67
     7
 79
     5
170
     0
171
     0
290
     0
174
     0
 93
       13
 44
0.0
173
     0
291
     0
 45
0.0
1001
ACAD
1000
AcDbSavedByObjectVersion
1070
     0
  0
VISUALSTYLE
  5
37
102
{ACAD_REACTORS
330
2A
102
}
102
{ACAD_XDICTIONARY
360
255
102
}
330
2A
100
AcDbVisualStyle
  2
Thicken
 70
    13
 71
     2
 72
     2
 73
     0
 90
        0
 40
-0.6
 41
-30.0
 62
     5
 63
     7
 74
     1
 91
        4
 64
     7
 65
   257
 75
     1
175
     1
 42
1.0
 92
       12
 66
     7
 43
1.0
 76
     1
 77
     6
 78
     2
 67
     7
 79
     5
170
     0
171
     0
290
     0
174
     0
 93
        1
 44
0.0
173
     0
291
     1
 45
0.0
1001
ACAD
1000
AcDbSavedByObjectVersion
1070
     0
  0
DICTIONARYVAR
  5
23B
102
{ACAD_REACTORS
330
238
102
}
330
238
100
DictionaryVariables
280
     0
  1
2
  0
DICTIONARYVAR
  5
23C
102
{ACAD_REACTORS
330
238
102
}
330
238
100
DictionaryVariables
280
     0
  1
1
  0
DICTIONARY
  5
25F
330
3D
100
AcDbDictionary
280
     1
281
     1
  3
ACAD_XREC_ROUNDTRIP
360
260
  0
DICTIONARY
  5
25D
330
3C
100
AcDbDictionary
280
     1
281
     1
  3
ACAD_XREC_ROUNDTRIP
360
25E
  0
DICTIONARY
  5
261
330
3E
100
AcDbDictionary
280
     1
281
     1
  3
ACAD_XREC_ROUNDTRIP
360
262
  0
DICTIONARY
  5
245
330
2F
100
AcDbDictionary
280
     1
281
     1
  3
ACAD_XREC_ROUNDTRIP
360
246
  0
DICTIONARY
  5
249
330
31
100
AcDbDictionary
280
     1
281
     1
  3
ACAD_XREC_ROUNDTRIP
360
24A
  0
DICTIONARY
  5
247
330
30
100
AcDbDictionary
280
     1
281
     1
  3
ACAD_XREC_ROUNDTRIP
360
248
  0
DICTIONARY
  5
24B
330
32
100
AcDbDictionary
280
     1
281
     1
  3
ACAD_XREC_ROUNDTRIP
360
24C
  0
DICTIONARY
  5
253
330
36
100
AcDbDictionary
280
     1
281
     1
  3
ACAD_XREC_ROUNDTRIP
360
254
  0
DICTIONARY
  5
25B
330
3A
100
AcDbDictionary
280
     1
281
     1
  3
ACAD_XREC_ROUNDTRIP
360
25C
  0
DICTIONARY
  5
24F
330
34
100
AcDbDictionary
280
     1
281
     1
  3
ACAD_XREC_ROUNDTRIP
360
250
  0
DICTIONARY
  5
251
330
35
100
AcDbDictionary
280
     1
281
     1
  3
ACAD_XREC_ROUNDTRIP
360
252
  0
DICTIONARY
  5
259
330
39
100
AcDbDictionary
280
     1
281
     1
  3
ACAD_XREC_ROUNDTRIP
360
25A
  0
DICTIONARY
  5
23D
330
2B
100
AcDbDictionary
280
     1
281
     1
  3
ACAD_XREC_ROUNDTRIP
360
23E
  0
DICTIONARY
  5
23F
330
2C
100
AcDbDictionary
280
     1
281
     1
  3
ACAD_XREC_ROUNDTRIP
360
240
  0
DICTIONARY
  5
241
330
2D
100
AcDbDictionary
280
     1
281
     1
  3
ACAD_XREC_ROUNDTRIP
360
242
  0
DICTIONARY
  5
243
330
2E
100
AcDbDictionary
280
     1
281
     1
  3
ACAD_XREC_ROUNDTRIP
360
244
  0
DICTIONARY
  5
257
330
38
100
AcDbDictionary
280
     1
281
     1
  3
ACAD_XREC_ROUNDTRIP
360
258
  0
DICTIONARY
  5
24D
330
33
100
AcDbDictionary
280
     1
281
     1
  3
ACAD_XREC_ROUNDTRIP
360
24E
  0
DICTIONARY
  5
255
330
37
100
AcDbDictionary
280
     1
281
     1
  3
ACAD_XREC_ROUNDTRIP
360
256
  0
XRECORD
  5
260
102
{ACAD_REACTORS
330
25F
102
}
330
25F
100
AcDbXrecord
280
     1
102
MATERIAL
148
0.0
149
0.0
149
0.0
 93
        0
 94
      127
282
     0
 72
     1
 77
     1
171
     1
175
     1
179
     1
273
     0
  0
XRECORD
  5
25E
102
{ACAD_REACTORS
330
25D
102
}
330
25D
100
AcDbXrecord
280
     1
102
MATERIAL
148
0.0
149
0.0
149
0.0
 93
        0
 94
      127
282
     0
 72
     1
 77
     1
171
     1
175
     1
179
     1
273
     0
  0
XRECORD
  5
262
102
{ACAD_REACTORS
330
261
102
}
330
261
100
AcDbXrecord
280
     1
102
MATERIAL
148
0.0
149
0.0
149
0.0
 93
        0
 94
      127
282
     0
 72
     1
 77
     1
171
     1
175
     1
179
     1
273
     0
  0
XRECORD
  5
246
102
{ACAD_REACTORS
330
245
102
}
330
245
100
AcDbXrecord
280
     1
102
RTVSPropertyOp0
 70
     1
102
RTVSPropertyOp1
 70
     1
102
RTVSPropertyOp2
 70
     1
102
RTVSPropertyOp3
 70
     1
102
RTVSPropertyOp4
 70
     1
102
RTVSPropertyOp5
 70
     1
102
RTVSPropertyOp6
 70
     1
102
RTVSPropertyOp7
 70
     1
102
RTVSPropertyOp8
 70
     1
102
RTVSPropertyOp9
 70
     1
102
RTVSPropertyOp10
 70
     1
102
RTVSPropertyOp11
 70
     1
102
RTVSPropertyOp12
 70
     1
102
RTVSPropertyOp13
 70
     1
102
RTVSPropertyOp14
 70
     1
102
RTVSPropertyOp15
 70
     1
102
RTVSPropertyOp16
 70
     1
102
RTVSPropertyOp17
 70
     1
102
RTVSPropertyOp18
 70
     1
102
RTVSPropertyOp19
 70
     1
102
RTVSPropertyOp20
 70
     1
102
RTVSPropertyOp21
 70
     1
102
RTVSPropertyOp22
 70
     1
102
RTVSPropertyOp23
 70
     1
102
RTVSPropertyOp24
 70
     1
102
RTVSPropertyOp25
 70
     1
102
RTVSPropertyOp26
 70
     1
102
RTVSPropertyOp27
 70
     1
  0
XRECORD
  5
24A
102
{ACAD_REACTORS
330
249
102
}
330
249
100
AcDbXrecord
280
     1
102
RTVSPropertyOp0
 70
     1
102
RTVSPropertyOp1
 70
     1
102
RTVSPropertyOp2
 70
     1
102
RTVSPropertyOp3
 70
     1
102
RTVSPropertyOp4
 70
     1
102
RTVSPropertyOp5
 70
     1
102
RTVSPropertyOp6
 70
     1
102
RTVSPropertyOp7
 70
     1
102
RTVSPropertyOp8
 70
     1
102
RTVSPropertyOp9
 70
     1
102
RTVSPropertyOp10
 70
     1
102
RTVSPropertyOp11
 70
     1
102
RTVSPropertyOp12
 70
     1
102
RTVSPropertyOp13
 70
     1
102
RTVSPropertyOp14
 70
     1
102
RTVSPropertyOp15
 70
     1
102
RTVSPropertyOp16
 70
     1
102
RTVSPropertyOp17
 70
     1
102
RTVSPropertyOp18
 70
     1
102
RTVSPropertyOp19
 70
     1
102
RTVSPropertyOp20
 70
     1
102
RTVSPropertyOp21
 70
     1
102
RTVSPropertyOp22
 70
     1
102
RTVSPropertyOp23
 70
     1
102
RTVSPropertyOp24
 70
     1
102
RTVSPropertyOp25
 70
     1
102
RTVSPropertyOp26
 70
     1
102
RTVSPropertyOp27
 70
     1
  0
XRECORD
  5
248
102
{ACAD_REACTORS
330
247
102
}
330
247
100
AcDbXrecord
280
     1
102
RTVSPropertyOp0
 70
     1
102
RTVSPropertyOp1
 70
     1
102
RTVSPropertyOp2
 70
     1
102
RTVSPropertyOp3
 70
     1
102
RTVSPropertyOp4
 70
     1
102
RTVSPropertyOp5
 70
     1
102
RTVSPropertyOp6
 70
     1
102
RTVSPropertyOp7
 70
     1
102
RTVSPropertyOp8
 70
     1
102
RTVSPropertyOp9
 70
     1
102
RTVSPropertyOp10
 70
     1
102
RTVSPropertyOp11
 70
     1
102
RTVSPropertyOp12
 70
     1
102
RTVSPropertyOp13
 70
     1
102
RTVSPropertyOp14
 70
     1
102
RTVSPropertyOp15
 70
     1
102
RTVSPropertyOp16
 70
     1
102
RTVSPropertyOp17
 70
     1
102
RTVSPropertyOp18
 70
     1
102
RTVSPropertyOp19
 70
     1
102
RTVSPropertyOp20
 70
     1
102
RTVSPropertyOp21
 70
     1
102
RTVSPropertyOp22
 70
     1
102
RTVSPropertyOp23
 70
     1
102
RTVSPropertyOp24
 70
     1
102
RTVSPropertyOp25
 70
     1
102
RTVSPropertyOp26
 70
     1
102
RTVSPropertyOp27
 70
     1
  0
XRECORD
  5
24C
102
{ACAD_REACTORS
330
24B
102
}
330
24B
100
AcDbXrecord
280
     1
102
RTVSPropertyOp0
 70
     1
102
RTVSPropertyOp1
 70
     1
102
RTVSPropertyOp2
 70
     1
102
RTVSPropertyOp3
 70
     1
102
RTVSPropertyOp4
 70
     1
102
RTVSPropertyOp5
 70
     1
102
RTVSPropertyOp6
 70
     1
102
RTVSPropertyOp7
 70
     1
102
RTVSPropertyOp8
 70
     1
102
RTVSPropertyOp9
 70
     1
102
RTVSPropertyOp10
 70
     1
102
RTVSPropertyOp11
 70
     1
102
RTVSPropertyOp12
 70
     1
102
RTVSPropertyOp13
 70
     1
102
RTVSPropertyOp14
 70
     1
102
RTVSPropertyOp15
 70
     1
102
RTVSPropertyOp16
 70
     1
102
RTVSPropertyOp17
 70
     1
102
RTVSPropertyOp18
 70
     1
102
RTVSPropertyOp19
 70
     1
102
RTVSPropertyOp20
 70
     1
102
RTVSPropertyOp21
 70
     1
102
RTVSPropertyOp22
 70
     1
102
RTVSPropertyOp23
 70
     1
102
RTVSPropertyOp24
 70
     1
102
RTVSPropertyOp25
 70
     1
102
RTVSPropertyOp26
 70
     1
102
RTVSPropertyOp27
 70
     1
  0
XRECORD
  5
254
102
{ACAD_REACTORS
330
253
102
}
330
253
100
AcDbXrecord
280
     1
102
RTVSPropertyOp0
 70
     1
102
RTVSPropertyOp1
 70
     1
102
RTVSPropertyOp2
 70
     1
102
RTVSPropertyOp3
 70
     1
102
RTVSPropertyOp4
 70
     1
102
RTVSPropertyOp5
 70
     1
102
RTVSPropertyOp6
 70
     1
102
RTVSPropertyOp7
 70
     1
102
RTVSPropertyOp8
 70
     1
102
RTVSPropertyOp9
 70
     1
102
RTVSPropertyOp10
 70
     1
102
RTVSPropertyOp11
 70
     1
102
RTVSPropertyOp12
 70
     1
102
RTVSPropertyOp13
 70
     1
102
RTVSPropertyOp14
 70
     1
102
RTVSPropertyOp15
 70
     1
102
RTVSPropertyOp16
 70
     1
102
RTVSPropertyOp17
 70
     1
102
RTVSPropertyOp18
 70
     1
102
RTVSPropertyOp19
 70
     1
102
RTVSPropertyOp20
 70
     1
102
RTVSPropertyOp21
 70
     1
102
RTVSPropertyOp22
 70
     1
102
RTVSPropertyOp23
 70
     1
102
RTVSPropertyOp24
 70
     1
102
RTVSPropertyOp25
 70
     1
102
RTVSPropertyOp26
 70
     1
102
RTVSPropertyOp27
 70
     1
  0
XRECORD
  5
25C
102
{ACAD_REACTORS
330
25B
102
}
330
25B
100
AcDbXrecord
280
     1
102
RTVSPropertyOp0
 70
     1
102
RTVSPropertyOp1
 70
     1
102
RTVSPropertyOp2
 70
     1
102
RTVSPropertyOp3
 70
     1
102
RTVSPropertyOp4
 70
     1
102
RTVSPropertyOp5
 70
     1
102
RTVSPropertyOp6
 70
     1
102
RTVSPropertyOp7
 70
     1
102
RTVSPropertyOp8
 70
     1
102
RTVSPropertyOp9
 70
     1
102
RTVSPropertyOp10
 70
     1
102
RTVSPropertyOp11
 70
     1
102
RTVSPropertyOp12
 70
     1
102
RTVSPropertyOp13
 70
     1
102
RTVSPropertyOp14
 70
     1
102
RTVSPropertyOp15
 70
     1
102
RTVSPropertyOp16
 70
     1
102
RTVSPropertyOp17
 70
     1
102
RTVSPropertyOp18
 70
     1
102
RTVSPropertyOp19
 70
     1
102
RTVSPropertyOp20
 70
     1
102
RTVSPropertyOp21
 70
     1
102
RTVSPropertyOp22
 70
     1
102
RTVSPropertyOp23
 70
     1
102
RTVSPropertyOp24
 70
     1
102
RTVSPropertyOp25
 70
     1
102
RTVSPropertyOp26
 70
     1
102
RTVSPropertyOp27
 70
     1
  0
XRECORD
  5
250
102
{ACAD_REACTORS
330
24F
102
}
330
24F
100
AcDbXrecord
280
     1
102
RTVSPropertyOp0
 70
     1
102
RTVSPropertyOp1
 70
     1
102
RTVSPropertyOp2
 70
     1
102
RTVSPropertyOp3
 70
     1
102
RTVSPropertyOp4
 70
     1
102
RTVSPropertyOp5
 70
     1
102
RTVSPropertyOp6
 70
     1
102
RTVSPropertyOp7
 70
     1
102
RTVSPropertyOp8
 70
     1
102
RTVSPropertyOp9
 70
     1
102
RTVSPropertyOp10
 70
     1
102
RTVSPropertyOp11
 70
     1
102
RTVSPropertyOp12
 70
     1
102
RTVSPropertyOp13
 70
     1
102
RTVSPropertyOp14
 70
     1
102
RTVSPropertyOp15
 70
     1
102
RTVSPropertyOp16
 70
     1
102
RTVSPropertyOp17
 70
     1
102
RTVSPropertyOp18
 70
     1
102
RTVSPropertyOp19
 70
     1
102
RTVSPropertyOp20
 70
     1
102
RTVSPropertyOp21
 70
     1
102
RTVSPropertyOp22
 70
     1
102
RTVSPropertyOp23
 70
     1
102
RTVSPropertyOp24
 70
     1
102
RTVSPropertyOp25
 70
     1
102
RTVSPropertyOp26
 70
     1
102
RTVSPropertyOp27
 70
     1
  0
XRECORD
  5
252
102
{ACAD_REACTORS
330
251
102
}
330
251
100
AcDbXrecord
280
     1
102
RTVSPropertyOp0
 70
     1
102
RTVSPropertyOp1
 70
     1
102
RTVSPropertyOp2
 70
     1
102
RTVSPropertyOp3
 70
     1
102
RTVSPropertyOp4
 70
     1
102
RTVSPropertyOp5
 70
     1
102
RTVSPropertyOp6
 70
     1
102
RTVSPropertyOp7
 70
     1
102
RTVSPropertyOp8
 70
     1
102
RTVSPropertyOp9
 70
     1
102
RTVSPropertyOp10
 70
     1
102
RTVSPropertyOp11
 70
     1
102
RTVSPropertyOp12
 70
     1
102
RTVSPropertyOp13
 70
     1
102
RTVSPropertyOp14
 70
     1
102
RTVSPropertyOp15
 70
     1
102
RTVSPropertyOp16
 70
     1
102
RTVSPropertyOp17
 70
     1
102
RTVSPropertyOp18
 70
     1
102
RTVSPropertyOp19
 70
     1
102
RTVSPropertyOp20
 70
     1
102
RTVSPropertyOp21
 70
     1
102
RTVSPropertyOp22
 70
     1
102
RTVSPropertyOp23
 70
     1
102
RTVSPropertyOp24
 70
     1
102
RTVSPropertyOp25
 70
     1
102
RTVSPropertyOp26
 70
     1
102
RTVSPropertyOp27
 70
     1
  0
XRECORD
  5
25A
102
{ACAD_REACTORS
330
259
102
}
330
259
100
AcDbXrecord
280
     1
102
RTVSPropertyOp0
 70
     1
102
RTVSPropertyOp1
 70
     1
102
RTVSPropertyOp2
 70
     1
102
RTVSPropertyOp3
 70
     1
102
RTVSPropertyOp4
 70
     1
102
RTVSPropertyOp5
 70
     1
102
RTVSPropertyOp6
 70
     1
102
RTVSPropertyOp7
 70
     1
102
RTVSPropertyOp8
 70
     1
102
RTVSPropertyOp9
 70
     1
102
RTVSPropertyOp10
 70
     1
102
RTVSPropertyOp11
 70
     1
102
RTVSPropertyOp12
 70
     1
102
RTVSPropertyOp13
 70
     1
102
RTVSPropertyOp14
 70
     1
102
RTVSPropertyOp15
 70
     1
102
RTVSPropertyOp16
 70
     1
102
RTVSPropertyOp17
 70
     1
102
RTVSPropertyOp18
 70
     1
102
RTVSPropertyOp19
 70
     1
102
RTVSPropertyOp20
 70
     1
102
RTVSPropertyOp21
 70
     1
102
RTVSPropertyOp22
 70
     1
102
RTVSPropertyOp23
 70
     1
102
RTVSPropertyOp24
 70
     1
102
RTVSPropertyOp25
 70
     1
102
RTVSPropertyOp26
 70
     1
102
RTVSPropertyOp27
 70
     1
  0
XRECORD
  5
23E
102
{ACAD_REACTORS
330
23D
102
}
330
23D
100
AcDbXrecord
280
     1
102
RTVSPropertyOp0
 70
     1
102
RTVSPropertyOp1
 70
     1
102
RTVSPropertyOp2
 70
     1
102
RTVSPropertyOp3
 70
     1
102
RTVSPropertyOp4
 70
     1
102
RTVSPropertyOp5
 70
     1
102
RTVSPropertyOp6
 70
     1
102
RTVSPropertyOp7
 70
     1
102
RTVSPropertyOp8
 70
     1
102
RTVSPropertyOp9
 70
     1
102
RTVSPropertyOp10
 70
     1
102
RTVSPropertyOp11
 70
     1
102
RTVSPropertyOp12
 70
     1
102
RTVSPropertyOp13
 70
     1
102
RTVSPropertyOp14
 70
     1
102
RTVSPropertyOp15
 70
     1
102
RTVSPropertyOp16
 70
     1
102
RTVSPropertyOp17
 70
     1
102
RTVSPropertyOp18
 70
     1
102
RTVSPropertyOp19
 70
     1
102
RTVSPropertyOp20
 70
     1
102
RTVSPropertyOp21
 70
     1
102
RTVSPropertyOp22
 70
     1
102
RTVSPropertyOp23
 70
     1
102
RTVSPropertyOp24
 70
     1
102
RTVSPropertyOp25
 70
     1
102
RTVSPropertyOp26
 70
     1
102
RTVSPropertyOp27
 70
     1
  0
XRECORD
  5
240
102
{ACAD_REACTORS
330
23F
102
}
330
23F
100
AcDbXrecord
280
     1
102
RTVSPropertyOp0
 70
     1
102
RTVSPropertyOp1
 70
     1
102
RTVSPropertyOp2
 70
     1
102
RTVSPropertyOp3
 70
     1
102
RTVSPropertyOp4
 70
     1
102
RTVSPropertyOp5
 70
     1
102
RTVSPropertyOp6
 70
     1
102
RTVSPropertyOp7
 70
     1
102
RTVSPropertyOp8
 70
     1
102
RTVSPropertyOp9
 70
     1
102
RTVSPropertyOp10
 70
     1
102
RTVSPropertyOp11
 70
     1
102
RTVSPropertyOp12
 70
     1
102
RTVSPropertyOp13
 70
     1
102
RTVSPropertyOp14
 70
     1
102
RTVSPropertyOp15
 70
     1
102
RTVSPropertyOp16
 70
     1
102
RTVSPropertyOp17
 70
     1
102
RTVSPropertyOp18
 70
     1
102
RTVSPropertyOp19
 70
     1
102
RTVSPropertyOp20
 70
     1
102
RTVSPropertyOp21
 70
     1
102
RTVSPropertyOp22
 70
     1
102
RTVSPropertyOp23
 70
     1
102
RTVSPropertyOp24
 70
     1
102
RTVSPropertyOp25
 70
     1
102
RTVSPropertyOp26
 70
     1
102
RTVSPropertyOp27
 70
     1
  0
XRECORD
  5
242
102
{ACAD_REACTORS
330
241
102
}
330
241
100
AcDbXrecord
280
     1
102
RTVSPropertyOp0
 70
     1
102
RTVSPropertyOp1
 70
     1
102
RTVSPropertyOp2
 70
     1
102
RTVSPropertyOp3
 70
     1
102
RTVSPropertyOp4
 70
     1
102
RTVSPropertyOp5
 70
     1
102
RTVSPropertyOp6
 70
     1
102
RTVSPropertyOp7
 70
     1
102
RTVSPropertyOp8
 70
     1
102
RTVSPropertyOp9
 70
     1
102
RTVSPropertyOp10
 70
     1
102
RTVSPropertyOp11
 70
     1
102
RTVSPropertyOp12
 70
     1
102
RTVSPropertyOp13
 70
     1
102
RTVSPropertyOp14
 70
     1
102
RTVSPropertyOp15
 70
     1
102
RTVSPropertyOp16
 70
     1
102
RTVSPropertyOp17
 70
     1
102
RTVSPropertyOp18
 70
     1
102
RTVSPropertyOp19
 70
     1
102
RTVSPropertyOp20
 70
     1
102
RTVSPropertyOp21
 70
     1
102
RTVSPropertyOp22
 70
     1
102
RTVSPropertyOp23
 70
     1
102
RTVSPropertyOp24
 70
     1
102
RTVSPropertyOp25
 70
     1
102
RTVSPropertyOp26
 70
     1
102
RTVSPropertyOp27
 70
     1
  0
XRECORD
  5
244
102
{ACAD_REACTORS
330
243
102
}
330
243
100
AcDbXrecord
280
     1
102
RTVSPropertyOp0
 70
     1
102
RTVSPropertyOp1
 70
     1
102
RTVSPropertyOp2
 70
     1
102
RTVSPropertyOp3
 70
     1
102
RTVSPropertyOp4
 70
     1
102
RTVSPropertyOp5
 70
     1
102
RTVSPropertyOp6
 70
     1
102
RTVSPropertyOp7
 70
     1
102
RTVSPropertyOp8
 70
     1
102
RTVSPropertyOp9
 70
     1
102
RTVSPropertyOp10
 70
     1
102
RTVSPropertyOp11
 70
     1
102
RTVSPropertyOp12
 70
     1
102
RTVSPropertyOp13
 70
     1
102
RTVSPropertyOp14
 70
     1
102
RTVSPropertyOp15
 70
     1
102
RTVSPropertyOp16
 70
     1
102
RTVSPropertyOp17
 70
     1
102
RTVSPropertyOp18
 70
     1
102
RTVSPropertyOp19
 70
     1
102
RTVSPropertyOp20
 70
     1
102
RTVSPropertyOp21
 70
     1
102
RTVSPropertyOp22
 70
     1
102
RTVSPropertyOp23
 70
     1
102
RTVSPropertyOp24
 70
     1
102
RTVSPropertyOp25
 70
     1
102
RTVSPropertyOp26
 70
     1
102
RTVSPropertyOp27
 70
     1
  0
XRECORD
  5
258
102
{ACAD_REACTORS
330
257
102
}
330
257
100
AcDbXrecord
280
     1
102
RTVSPropertyOp0
 70
     1
102
RTVSPropertyOp1
 70
     1
102
RTVSPropertyOp2
 70
     1
102
RTVSPropertyOp3
 70
     1
102
RTVSPropertyOp4
 70
     1
102
RTVSPropertyOp5
 70
     1
102
RTVSPropertyOp6
 70
     1
102
RTVSPropertyOp7
 70
     1
102
RTVSPropertyOp8
 70
     1
102
RTVSPropertyOp9
 70
     1
102
RTVSPropertyOp10
 70
     1
102
RTVSPropertyOp11
 70
     1
102
RTVSPropertyOp12
 70
     1
102
RTVSPropertyOp13
 70
     1
102
RTVSPropertyOp14
 70
     1
102
RTVSPropertyOp15
 70
     1
102
RTVSPropertyOp16
 70
     1
102
RTVSPropertyOp17
 70
     1
102
RTVSPropertyOp18
 70
     1
102
RTVSPropertyOp19
 70
     1
102
RTVSPropertyOp20
 70
     1
102
RTVSPropertyOp21
 70
     1
102
RTVSPropertyOp22
 70
     1
102
RTVSPropertyOp23
 70
     1
102
RTVSPropertyOp24
 70
     1
102
RTVSPropertyOp25
 70
     1
102
RTVSPropertyOp26
 70
     1
102
RTVSPropertyOp27
 70
     1
  0
XRECORD
  5
24E
102
{ACAD_REACTORS
330
24D
102
}
330
24D
100
AcDbXrecord
280
     1
102
RTVSPropertyOp0
 70
     1
102
RTVSPropertyOp1
 70
     1
102
RTVSPropertyOp2
 70
     1
102
RTVSPropertyOp3
 70
     1
102
RTVSPropertyOp4
 70
     1
102
RTVSPropertyOp5
 70
     1
102
RTVSPropertyOp6
 70
     1
102
RTVSPropertyOp7
 70
     1
102
RTVSPropertyOp8
 70
     1
102
RTVSPropertyOp9
 70
     1
102
RTVSPropertyOp10
 70
     1
102
RTVSPropertyOp11
 70
     1
102
RTVSPropertyOp12
 70
     1
102
RTVSPropertyOp13
 70
     1
102
RTVSPropertyOp14
 70
     1
102
RTVSPropertyOp15
 70
     1
102
RTVSPropertyOp16
 70
     1
102
RTVSPropertyOp17
 70
     1
102
RTVSPropertyOp18
 70
     1
102
RTVSPropertyOp19
 70
     1
102
RTVSPropertyOp20
 70
     1
102
RTVSPropertyOp21
 70
     1
102
RTVSPropertyOp22
 70
     1
102
RTVSPropertyOp23
 70
     1
102
RTVSPropertyOp24
 70
     1
102
RTVSPropertyOp25
 70
     1
102
RTVSPropertyOp26
 70
     1
102
RTVSPropertyOp27
 70
     1
  0
XRECORD
  5
256
102
{ACAD_REACTORS
330
255
102
}
330
255
100
AcDbXrecord
280
     1
102
RTVSPropertyOp0
 70
     1
102
RTVSPropertyOp1
 70
     1
102
RTVSPropertyOp2
 70
     1
102
RTVSPropertyOp3
 70
     1
102
RTVSPropertyOp4
 70
     1
102
RTVSPropertyOp5
 70
     1
102
RTVSPropertyOp6
 70
     1
102
RTVSPropertyOp7
 70
     1
102
RTVSPropertyOp8
 70
     1
102
RTVSPropertyOp9
 70
     1
102
RTVSPropertyOp10
 70
     1
102
RTVSPropertyOp11
 70
     1
102
RTVSPropertyOp12
 70
     1
102
RTVSPropertyOp13
 70
     1
102
RTVSPropertyOp14
 70
     1
102
RTVSPropertyOp15
 70
     1
102
RTVSPropertyOp16
 70
     1
102
RTVSPropertyOp17
 70
     1
102
RTVSPropertyOp18
 70
     1
102
RTVSPropertyOp19
 70
     1
102
RTVSPropertyOp20
 70
     1
102
RTVSPropertyOp21
 70
     1
102
RTVSPropertyOp22
 70
     1
102
RTVSPropertyOp23
 70
     1
102
RTVSPropertyOp24
 70
     1
102
RTVSPropertyOp25
 70
     1
102
RTVSPropertyOp26
 70
     1
102
RTVSPropertyOp27
 70
     1
  0
ENDSEC
  0
EOF
