  0
SECTION
  2
HEADER
  9
$ACADVER
  1
AC1015
  9
$ACADMAINTVER
 70
     6
  9
$DWGCODEPAGE
  3
ANSI_932
  9
$INSBASE
 10
0.0
 20
0.0
 30
0.0
  9
$EXTMIN
 10
-117.0
 20
-217.312883564523
 30
0.0
  9
$EXTMAX
 10
519.5
 20
495.0
 30
0.0
  9
$LIMMIN
 10
0.0
 20
0.0
  9
$LIMMAX
 10
12.0
 20
9.0
  9
$ORTHOMODE
 70
     0
  9
$REGENMODE
 70
     1
  9
$FILLMODE
 70
     1
  9
$QTEXTMODE
 70
     0
  9
$MIRRTEXT
 70
     1
  9
$LTSCALE
 40
1.0
  9
$ATTMODE
 70
     1
  9
$TEXTSIZE
 40
0.2
  9
$TRACEWID
 40
0.05
  9
$TEXTSTYLE
  7
Standard
  9
$CLAYER
  8
0
  9
$CELTYPE
  6
ByLayer
  9
$CECOLOR
 62
   256
  9
$CELTSCALE
 40
1.0
  9
$DISPSILH
 70
     0
  9
$DIMSCALE
 40
1.0
  9
$DIMASZ
 40
0.18
  9
$DIMEXO
 40
0.0625
  9
$DIMDLI
 40
0.38
  9
$DIMRND
 40
0.0
  9
$DIMDLE
 40
0.0
  9
$DIMEXE
 40
0.18
  9
$DIMTP
 40
0.0
  9
$DIMTM
 40
0.0
  9
$DIMTXT
 40
0.18
  9
$DIMCEN
 40
0.09
  9
$DIMTSZ
 40
0.0
  9
$DIMTOL
 70
     0
  9
$DIMLIM
 70
     0
  9
$DIMTIH
 70
     1
  9
$DIMTOH
 70
     1
  9
$DIMSE1
 70
     0
  9
$DIMSE2
 70
     0
  9
$DIMTAD
 70
     0
  9
$DIMZIN
 70
     0
  9
$DIMBLK
  1

  9
$DIMASO
 70
     1
  9
$DIMSHO
 70
     1
  9
$DIMPOST
  1

  9
$DIMAPOST
  1

  9
$DIMALT
 70
     0
  9
$DIMALTD
 70
     2
  9
$DIMALTF
 40
25.4
  9
$DIMLFAC
 40
1.0
  9
$DIMTOFL
 70
     0
  9
$DIMTVP
 40
0.0
  9
$DIMTIX
 70
     0
  9
$DIMSOXD
 70
     0
  9
$DIMSAH
 70
     0
  9
$DIMBLK1
  1

  9
$DIMBLK2
  1

  9
$DIMSTYLE
  2
Standard
  9
$DIMCLRD
 70
     0
  9
$DIMCLRE
 70
     0
  9
$DIMCLRT
 70
     0
  9
$DIMTFAC
 40
1.0
  9
$DIMGAP
 40
0.09
  9
$DIMJUST
 70
     0
  9
$DIMSD1
 70
     0
  9
$DIMSD2
 70
     0
  9
$DIMTOLJ
 70
     1
  9
$DIMTZIN
 70
     0
  9
$DIMALTZ
 70
     0
  9
$DIMALTTZ
 70
     0
  9
$DIMUPT
 70
     0
  9
$DIMDEC
 70
     4
  9
$DIMTDEC
 70
     4
  9
$DIMALTU
 70
     2
  9
$DIMALTTD
 70
     2
  9
$DIMTXSTY
  7
Standard
  9
$DIMAUNIT
 70
     0
  9
$DIMADEC
 70
     0
  9
$DIMALTRND
 40
0.0
  9
$DIMAZIN
 70
     0
  9
$DIMDSEP
 70
    46
  9
$DIMATFIT
 70
     3
  9
$DIMFRAC
 70
     0
  9
$DIMLDRBLK
  1

  9
$DIMLUNIT
 70
     2
  9
$DIMLWD
 70
    -2
  9
$DIMLWE
 70
    -2
  9
$DIMTMOVE
 70
     0
  9
$LUNITS
 70
     2
  9
$LUPREC
 70
     4
  9
$SKETCHINC
 40
0.1
  9
$FILLETRAD
 40
0.5
  9
$AUNITS
 70
     0
  9
$AUPREC
 70
     0
  9
$MENU
  1
.
  9
$ELEVATION
 40
0.0
  9
$PELEVATION
 40
0.0
  9
$THICKNESS
 40
0.0
  9
$LIMCHECK
 70
     0
  9
$CHAMFERA
 40
0.5
  9
$CHAMFERB
 40
0.5
  9
$CHAMFERC
 40
1.0
  9
$CHAMFERD
 40
0.0
  9
$SKPOLY
 70
     0
  9
$TDCREATE
 40
2457624.702617431
  9
$TDUCREATE
 40
2457624.327617431
  9
$TDUPDATE
 40
2457624.702617442
  9
$TDUUPDATE
 40
2457624.327617442
  9
$TDINDWG
 40
0.0000000116
  9
$TDUSRTIMER
 40
0.0000000116
  9
$USRTIMER
 70
     1
  9
$ANGBASE
 50
0.0
  9
$ANGDIR
 70
     0
  9
$PDMODE
 70
     0
  9
$PDSIZE
 40
0.0
  9
$PLINEWID
 40
0.0
  9
$SPLFRAME
 70
     0
  9
$SPLINETYPE
 70
     6
  9
$SPLINESEGS
 70
     8
  9
$HANDSEED
  5
3A5
  9
$SURFTAB1
 70
     6
  9
$SURFTAB2
 70
     6
  9
$SURFTYPE
 70
     6
  9
$SURFU
 70
     6
  9
$SURFV
 70
     6
  9
$UCSBASE
  2

  9
$UCSNAME
  2

  9
$UCSORG
 10
0.0
 20
0.0
 30
0.0
  9
$UCSXDIR
 10
1.0
 20
0.0
 30
0.0
  9
$UCSYDIR
 10
0.0
 20
1.0
 30
0.0
  9
$UCSORTHOREF
  2

  9
$UCSORTHOVIEW
 70
     0
  9
$UCSORGTOP
 10
0.0
 20
0.0
 30
0.0
  9
$UCSORGBOTTOM
 10
0.0
 20
0.0
 30
0.0
  9
$UCSORGLEFT
 10
0.0
 20
0.0
 30
0.0
  9
$UCSORGRIGHT
 10
0.0
 20
0.0
 30
0.0
  9
$UCSORGFRONT
 10
0.0
 20
0.0
 30
0.0
  9
$UCSORGBACK
 10
0.0
 20
0.0
 30
0.0
  9
$PUCSBASE
  2

  9
$PUCSNAME
  2

  9
$PUCSORG
 10
0.0
 20
0.0
 30
0.0
  9
$PUCSXDIR
 10
1.0
 20
0.0
 30
0.0
  9
$PUCSYDIR
 10
0.0
 20
1.0
 30
0.0
  9
$PUCSORTHOREF
  2

  9
$PUCSORTHOVIEW
 70
     0
  9
$PUCSORGTOP
 10
0.0
 20
0.0
 30
0.0
  9
$PUCSORGBOTTOM
 10
0.0
 20
0.0
 30
0.0
  9
$PUCSORGLEFT
 10
0.0
 20
0.0
 30
0.0
  9
$PUCSORGRIGHT
 10
0.0
 20
0.0
 30
0.0
  9
$PUCSORGFRONT
 10
0.0
 20
0.0
 30
0.0
  9
$PUCSORGBACK
 10
0.0
 20
0.0
 30
0.0
  9
$USERI1
 70
     0
  9
$USERI2
 70
     0
  9
$USERI3
 70
     0
  9
$USERI4
 70
     0
  9
$USERI5
 70
     0
  9
$USERR1
 40
18.0
  9
$USERR2
 40
0.0
  9
$USERR3
 40
0.0
  9
$USERR4
 40
0.0
  9
$USERR5
 40
0.0
  9
$WORLDVIEW
 70
     1
  9
$SHADEDGE
 70
     3
  9
$SHADEDIF
 70
    70
  9
$TILEMODE
 70
     1
  9
$MAXACTVP
 70
    64
  9
$PINSBASE
 10
0.0
 20
0.0
 30
0.0
  9
$PLIMCHECK
 70
     0
  9
$PEXTMIN
 10
1.00000000000000E+20
 20
1.00000000000000E+20
 30
1.00000000000000E+20
  9
$PEXTMAX
 10
-1.00000000000000E+20
 20
-1.00000000000000E+20
 30
-1.00000000000000E+20
  9
$PLIMMIN
 10
0.0
 20
0.0
  9
$PLIMMAX
 10
12.0
 20
9.0
  9
$UNITMODE
 70
     0
  9
$VISRETAIN
 70
     1
  9
$PLINEGEN
 70
     0
  9
$PSLTSCALE
 70
     1
  9
$TREEDEPTH
 70
  3020
  9
$CMLSTYLE
  2
Standard
  9
$CMLJUST
 70
     0
  9
$CMLSCALE
 40
1.0
  9
$PROXYGRAPHICS
 70
     1
  9
$MEASUREMENT
 70
     1
  9
$CELWEIGHT
370
    -1
  9
$ENDCAPS
280
     0
  9
$JOINSTYLE
280
     0
  9
$LWDISPLAY
290
     0
  9
$INSUNITS
 70
     1
  9
$HYPERLINKBASE
  1

  9
$STYLESHEET
  1

  9
$XEDIT
290
     1
  9
$CEPSNTYPE
380
     0
  9
$PSTYLEMODE
290
     1
  9
$FINGERPRINTGUID
  2
{FE8E5049-EEE8-4934-B9BF-C1A84E385B06}
  9
$VERSIONGUID
  2
{FAEB1C32-E019-11D5-929B-00C0DF256EC4}
  9
$EXTNAMES
290
     1
  9
$PSVPSCALE
 40
0.0
  9
$OLESTARTUP
290
     0
  0
ENDSEC
  0
SECTION
  2
CLASSES
  0
CLASS
  1
ACDBDICTIONARYWDFLT
  2
AcDbDictionaryWithDefault
  3
ObjectDBX Classes
 90
        0
280
     0
281
     0
  0
CLASS
  1
VISUALSTYLE
  2
AcDbVisualStyle
  3
ObjectDBX Classes
 90
     4095
280
     0
281
     0
  0
CLASS
  1
MATERIAL
  2
AcDbMaterial
  3
ObjectDBX Classes
 90
     1153
280
     0
281
     0
  0
CLASS
  1

  2
exOdDbCircle
  3

 90
        0
280
     0
281
     1
  0
CLASS
  1

  2
exOdDbPolyline
  3

 90
        0
280
     0
281
     1
  0
CLASS
  1
DICTIONARYVAR
  2
AcDbDictionaryVar
  3
ObjectDBX Classes
 90
        0
280
     0
281
     0
  0
CLASS
  1
ACDBPLACEHOLDER
  2
AcDbPlaceHolder
  3
ObjectDBX Classes
 90
        0
280
     0
281
     0
  0
CLASS
  1
LAYOUT
  2
AcDbLayout
  3
ObjectDBX Classes
 90
        0
280
     0
281
     0
  0
ENDSEC
  0
SECTION
  2
TABLES
  0
TABLE
  2
VPORT
  5
8
330
0
100
AcDbSymbolTable
 70
     1
  0
VPORT
  5
29
330
8
100
AcDbSymbolTableRecord
100
AcDbViewportTableRecord
  2
*Active
 70
     0
 10
0.0
 20
0.0
 11
1.0
 21
1.0
 12
201.25
 22
138.8435582177385
 13
0.0
 23
0.0
 14
0.5
 24
0.5
 15
0.5
 25
0.5
 16
0.0
 26
0.0
 36
1.0
 17
0.0
 27
0.0
 37
0.0
 40
783.5441719209754
 41
1.60267857142857
 42
50.0
 43
0.0
 44
0.0
 50
0.0
 51
0.0
 71
     0
 72
   100
 73
     1
 74
     3
 75
     0
 76
     0
 77
     0
 78
     0
281
     0
 65
     1
110
0.0
120
0.0
130
0.0
111
1.0
121
0.0
131
0.0
112
0.0
122
1.0
132
0.0
 79
     0
146
0.0
  0
ENDTAB
  0
TABLE
  2
LTYPE
  5
5
330
0
100
AcDbSymbolTable
 70
     8
  0
LTYPE
  5
14
330
5
100
AcDbSymbolTableRecord
100
AcDbLinetypeTableRecord
  2
ByBlock
 70
     0
  3

 72
    65
 73
     0
 40
0.0
  0
LTYPE
  5
15
330
5
100
AcDbSymbolTableRecord
100
AcDbLinetypeTableRecord
  2
ByLayer
 70
     0
  3

 72
    65
 73
     0
 40
0.0
  0
LTYPE
  5
16
330
5
100
AcDbSymbolTableRecord
100
AcDbLinetypeTableRecord
  2
Continuous
 70
     0
  3
Solid line
 72
    65
 73
     0
 40
0.0
  0
LTYPE
  5
3F
330
5
100
AcDbSymbolTableRecord
100
AcDbLinetypeTableRecord
  2
DASHED
 70
     0
  3
Dashed
 72
    65
 73
     2
 40
15.0
 49
7.0
 74
     0
 49
-8.0
 74
     0
  0
LTYPE
  5
40
330
5
100
AcDbSymbolTableRecord
100
AcDbLinetypeTableRecord
  2
DOTTED
 70
     0
  3
Dotted
 72
    65
 73
     2
 40
1.0
 49
0.0
 74
     0
 49
-1.0
 74
     0
  0
LTYPE
  5
41
330
5
100
AcDbSymbolTableRecord
100
AcDbLinetypeTableRecord
  2
DOT_CENTER
 70
     0
  3
Dot_Center
 72
    65
 73
     4
 40
14.0
 49
12.0
 74
     0
 49
-1.0
 74
     0
 49
0.0
 74
     0
 49
-1.0
 74
     0
  0
LTYPE
  5
42
330
5
100
AcDbSymbolTableRecord
100
AcDbLinetypeTableRecord
  2
LONG_DASHED
 70
     0
  3
Long_Dashed
 72
    65
 73
     2
 40
15.0
 49
10.0
 74
     0
 49
-5.0
 74
     0
  0
LTYPE
  5
43
330
5
100
AcDbSymbolTableRecord
100
AcDbLinetypeTableRecord
  2
DASH_CENTER
 70
     0
  3
Dash_Center
 72
    65
 73
     4
 40
14.0
 49
11.0
 74
     0
 49
-1.0
 74
     0
 49
1.0
 74
     0
 49
-1.0
 74
     0
  0
LTYPE
  5
44
330
5
100
AcDbSymbolTableRecord
100
AcDbLinetypeTableRecord
  2
PHANTOM
 70
     0
  3
Phantom
 72
    65
 73
     6
 40
13.0
 49
10.0
 74
     0
 49
-1.0
 74
     0
 49
0.0
 74
     0
 49
-1.0
 74
     0
 49
0.0
 74
     0
 49
-1.0
 74
     0
  0
LTYPE
  5
45
330
5
100
AcDbSymbolTableRecord
100
AcDbLinetypeTableRecord
  2
CENTER_DASH_DASH
 70
     0
  3
Center_Dash_Dash
 72
    65
 73
     6
 40
14.0
 49
9.0
 74
     0
 49
-1.0
 74
     0
 49
1.0
 74
     0
 49
-1.0
 74
     0
 49
1.0
 74
     0
 49
-1.0
 74
     0
  0
ENDTAB
  0
TABLE
  2
LAYER
  5
2
330
0
100
AcDbSymbolTable
 70
     4
  0
LAYER
  5
10
330
2
100
AcDbSymbolTableRecord
100
AcDbLayerTableRecord
  2
0
 70
     0
 62
     7
  6
Continuous
370
    -3
390
F
  0
LAYER
  5
46
330
2
100
AcDbSymbolTableRecord
100
AcDbLayerTableRecord
  2
1
 70
     0
 62
     7
  6
Continuous
370
    -3
390
F
  0
LAYER
  5
47
330
2
100
AcDbSymbolTableRecord
100
AcDbLayerTableRecord
  2
100
 70
     0
 62
     7
  6
Continuous
370
    -3
390
F
  0
LAYER
  5
48
330
2
100
AcDbSymbolTableRecord
100
AcDbLayerTableRecord
  2
2
 70
     0
 62
     7
  6
Continuous
370
    -3
390
F
  0
ENDTAB
  0
TABLE
  2
STYLE
  5
3
330
0
100
AcDbSymbolTable
 70
     1
  0
STYLE
  5
11
330
3
100
AcDbSymbolTableRecord
100
AcDbTextStyleTableRecord
  2
Standard
 70
     0
 40
0.0
 41
1.0
 50
0.0
 71
     0
 42
0.2
  3
txt
  4

  0
ENDTAB
  0
TABLE
  2
VIEW
  5
6
330
0
100
AcDbSymbolTable
 70
     0
  0
ENDTAB
  0
TABLE
  2
UCS
  5
7
330
0
100
AcDbSymbolTable
 70
     0
  0
ENDTAB
  0
TABLE
  2
APPID
  5
9
330
0
100
AcDbSymbolTable
 70
     1
  0
APPID
  5
12
330
9
100
AcDbSymbolTableRecord
100
AcDbRegAppTableRecord
  2
ACAD
 70
     0
  0
ENDTAB
  0
TABLE
  2
DIMSTYLE
  5
A
330
0
100
AcDbSymbolTable
 70
     1
100
AcDbDimStyleTable
  0
DIMSTYLE
105
27
330
A
100
AcDbSymbolTableRecord
100
AcDbDimStyleTableRecord
  2
Standard
 70
     0
340
11
  0
ENDTAB
  0
TABLE
  2
BLOCK_RECORD
  5
1
330
0
100
AcDbSymbolTable
 70
     1
  0
BLOCK_RECORD
  5
1F
330
1
100
AcDbSymbolTableRecord
100
AcDbBlockTableRecord
  2
*Model_Space
340
22
  0
BLOCK_RECORD
  5
1B
330
1
100
AcDbSymbolTableRecord
100
AcDbBlockTableRecord
  2
*Paper_Space
340
1E
  0
BLOCK_RECORD
  5
23
330
1
100
AcDbSymbolTableRecord
100
AcDbBlockTableRecord
  2
*Paper_Space0
340
26
  0
ENDTAB
  0
ENDSEC
  0
SECTION
  2
BLOCKS
  0
BLOCK
  5
20
330
1F
100
AcDbEntity
  8
0
100
AcDbBlockBegin
  2
*Model_Space
 70
     0
 10
0.0
 20
0.0
 30
0.0
  3
*Model_Space
  1

  0
ENDBLK
  5
21
330
1F
100
AcDbEntity
  8
0
100
AcDbBlockEnd
  0
BLOCK
  5
1C
330
1B
100
AcDbEntity
 67
     1
  8
0
100
AcDbBlockBegin
  2
*Paper_Space
 70
     0
 10
0.0
 20
0.0
 30
0.0
  3
*Paper_Space
  1

  0
ENDBLK
  5
1D
330
1B
100
AcDbEntity
 67
     1
  8
0
100
AcDbBlockEnd
  0
BLOCK
  5
24
330
23
100
AcDbEntity
  8
0
100
AcDbBlockBegin
  2
*Paper_Space0
 70
     0
 10
0.0
 20
0.0
 30
0.0
  3
*Paper_Space0
  1

  0
ENDBLK
  5
25
330
23
100
AcDbEntity
  8
0
100
AcDbBlockEnd
  0
ENDSEC
  0
SECTION
  2
ENTITIES
  0
LINE
  5
71
330
1F
100
AcDbEntity
  8
1
  6
Continuous
 62
     4
100
AcDbLine
 10
11.1519546027742
 20
-214.812883564523
 30
0.0
 11
10.6519546027742
 21
-215.437883564523
 31
0.0
  0
LINE
  5
72
330
1F
100
AcDbEntity
  8
1
  6
Continuous
 62
     4
100
AcDbLine
 10
10.6519546027742
 20
-214.187883564523
 30
0.0
 11
11.1519546027742
 21
-214.812883564523
 31
0.0
  0
LINE
  5
73
330
1F
100
AcDbEntity
  8
1
  6
Continuous
 62
     4
100
AcDbLine
 10
7.4019546027742
 20
-214.812883564523
 30
0.0
 11
11.1519546027742
 21
-214.812883564523
 31
0.0
  0
LINE
  5
74
330
1F
100
AcDbEntity
  8
1
  6
Continuous
 62
     4
100
AcDbLine
 10
3.2769546027742
 20
-213.375383564523
 30
0.0
 11
6.1519546027742
 21
-213.375383564523
 31
0.0
  0
LINE
  5
75
330
1F
100
AcDbEntity
  8
1
  6
Continuous
 62
     4
100
AcDbLine
 10
3.2769546027742
 20
-213.375383564523
 30
0.0
 11
3.9644546027742
 21
-212.437883564523
 31
0.0
  0
LINE
  5
76
330
1F
100
AcDbEntity
  8
1
  6
Continuous
 62
     4
100
AcDbLine
 10
4.9019546027742
 20
-215.750383564523
 30
0.0
 11
3.8394546027742
 21
-215.750383564523
 31
0.0
  0
LINE
  5
77
330
1F
100
AcDbEntity
  8
1
  6
Continuous
 62
     4
100
AcDbLine
 10
4.9019546027742
 20
-214.500383564523
 30
0.0
 11
4.9019546027742
 21
-215.750383564523
 31
0.0
  0
LINE
  5
78
330
1F
100
AcDbEntity
  8
1
  6
Continuous
 62
     4
100
AcDbLine
 10
3.8394546027742
 20
-214.500383564523
 30
0.0
 11
4.9019546027742
 21
-214.500383564523
 31
0.0
  0
LINE
  5
79
330
1F
100
AcDbEntity
  8
1
  6
Continuous
 62
     4
100
AcDbLine
 10
3.8394546027742
 20
-215.750383564523
 30
0.0
 11
3.8394546027742
 21
-214.500383564523
 31
0.0
  0
LINE
  5
7A
330
1F
100
AcDbEntity
  8
1
  6
Continuous
 62
     4
100
AcDbLine
 10
6.1519546027742
 20
-217.125383564523
 30
0.0
 11
5.4644546027742
 21
-217.125383564523
 31
0.0
  0
LINE
  5
7B
330
1F
100
AcDbEntity
  8
1
  6
Continuous
 62
     4
100
AcDbLine
 10
6.1519546027742
 20
-213.375383564523
 30
0.0
 11
6.1519546027742
 21
-217.125383564523
 31
0.0
  0
LINE
  5
7C
330
1F
100
AcDbEntity
  8
1
  6
Continuous
 62
     4
100
AcDbLine
 10
2.5894546027742
 20
-213.375383564523
 30
0.0
 11
3.2769546027742
 21
-213.375383564523
 31
0.0
  0
LINE
  5
7D
330
1F
100
AcDbEntity
  8
1
  6
Continuous
 62
     4
100
AcDbLine
 10
2.5894546027742
 20
-217.125383564523
 30
0.0
 11
2.5894546027742
 21
-213.375383564523
 31
0.0
  0
LINE
  5
7E
330
1F
100
AcDbEntity
  8
1
  6
Continuous
 62
     4
100
AcDbLine
 10
-0.0980453972258
 20
-217.312883564523
 30
0.0
 11
-0.5980453972258
 21
-217.000383564523
 31
0.0
  0
LINE
  5
7F
330
1F
100
AcDbEntity
  8
1
  6
Continuous
 62
     4
100
AcDbLine
 10
0.2144546027742
 20
-216.812883564523
 30
0.0
 11
-0.0980453972258
 21
-217.312883564523
 31
0.0
  0
LINE
  5
80
330
1F
100
AcDbEntity
  8
1
  6
Continuous
 62
     4
100
AcDbLine
 10
0.4644546027742
 20
-216.062883564523
 30
0.0
 11
0.2144546027742
 21
-216.812883564523
 31
0.0
  0
LINE
  5
81
330
1F
100
AcDbEntity
  8
1
  6
Continuous
 62
     4
100
AcDbLine
 10
0.7769546027742
 20
-214.937883564523
 30
0.0
 11
0.4644546027742
 21
-216.062883564523
 31
0.0
  0
LINE
  5
82
330
1F
100
AcDbEntity
  8
1
  6
Continuous
 62
     4
100
AcDbLine
 10
0.7769546027742
 20
-214.500383564523
 30
0.0
 11
0.7769546027742
 21
-214.937883564523
 31
0.0
  0
LINE
  5
83
330
1F
100
AcDbEntity
  8
1
  6
Continuous
 62
     4
100
AcDbLine
 10
-1.0355453972258
 20
-214.500383564523
 30
0.0
 11
0.7769546027742
 21
-214.500383564523
 31
0.0
  0
LINE
  5
84
330
1F
100
AcDbEntity
  8
1
  6
Continuous
 62
     4
100
AcDbLine
 10
-2.7230453972258
 20
-213.250383564523
 30
0.0
 11
1.4644546027742
 21
-213.250383564523
 31
0.0
  0
LINE
  5
85
330
1F
100
AcDbEntity
  8
1
  6
Continuous
 62
     4
100
AcDbLine
 10
-0.9105453972258
 20
-213.687883564523
 30
0.0
 11
-0.7855453972258
 21
-212.437883564523
 31
0.0
  0
LINE
  5
86
330
1F
100
AcDbEntity
  8
1
  6
Continuous
 62
     4
100
AcDbLine
 10
-1.1605453972258
 20
-214.937883564523
 30
0.0
 11
-0.9105453972258
 21
-213.687883564523
 31
0.0
  0
LINE
  5
87
330
1F
100
AcDbEntity
  8
1
  6
Continuous
 62
     4
100
AcDbLine
 10
-1.4730453972258
 20
-215.750383564523
 30
0.0
 11
-1.1605453972258
 21
-214.937883564523
 31
0.0
  0
LINE
  5
88
330
1F
100
AcDbEntity
  8
1
  6
Continuous
 62
     4
100
AcDbLine
 10
-1.8480453972258
 20
-216.500383564523
 30
0.0
 11
-1.4730453972258
 21
-215.750383564523
 31
0.0
  0
LINE
  5
89
330
1F
100
AcDbEntity
  8
1
  6
Continuous
 62
     4
100
AcDbLine
 10
-2.4105453972258
 20
-217.125383564523
 30
0.0
 11
-1.8480453972258
 21
-216.500383564523
 31
0.0
  0
LINE
  5
8A
330
1F
100
AcDbEntity
  8
1
  6
Continuous
 62
     4
100
AcDbLine
 10
-4.0980453972258
 20
-215.750383564523
 30
0.0
 11
-3.4105453972258
 21
-216.500383564523
 31
0.0
  0
LINE
  5
8B
330
1F
100
AcDbEntity
  8
1
  6
Continuous
 62
     4
100
AcDbLine
 10
-4.6605453972258
 20
-214.812883564523
 30
0.0
 11
-4.0980453972258
 21
-215.750383564523
 31
0.0
  0
LINE
  5
8C
330
1F
100
AcDbEntity
  8
1
  6
Continuous
 62
     4
100
AcDbLine
 10
-5.0980453972258
 20
-213.687883564523
 30
0.0
 11
-4.6605453972258
 21
-214.812883564523
 31
0.0
  0
LINE
  5
8D
330
1F
100
AcDbEntity
  8
1
  6
Continuous
 62
     4
100
AcDbLine
 10
-3.8480453972258
 20
-213.562883564523
 30
0.0
 11
-4.7855453972258
 21
-214.312883564523
 31
0.0
  0
LINE
  5
8E
330
1F
100
AcDbEntity
  8
1
  6
Continuous
 62
     4
100
AcDbLine
 10
-5.4730453972258
 20
-217.312883564523
 30
0.0
 11
-5.9105453972258
 21
-217.125383564523
 31
0.0
  0
LINE
  5
8F
330
1F
100
AcDbEntity
  8
1
  6
Continuous
 62
     4
100
AcDbLine
 10
-5.4730453972258
 20
-212.437883564523
 30
0.0
 11
-5.4730453972258
 21
-217.312883564523
 31
0.0
  0
LINE
  5
90
330
1F
100
AcDbEntity
  8
1
  6
Continuous
 62
     4
100
AcDbLine
 10
-6.1605453972258
 20
-214.000383564523
 30
0.0
 11
-7.5980453972258
 21
-214.000383564523
 31
0.0
  0
LINE
  5
91
330
1F
100
AcDbEntity
  8
1
  6
Continuous
 62
     4
100
AcDbLine
 10
-6.4730453972258
 20
-214.937883564523
 30
0.0
 11
-6.1605453972258
 21
-214.000383564523
 31
0.0
  0
LINE
  5
92
330
1F
100
AcDbEntity
  8
1
  6
Continuous
 62
     4
100
AcDbLine
 10
-7.0355453972258
 20
-215.875383564523
 30
0.0
 11
-6.4730453972258
 21
-214.937883564523
 31
0.0
  0
LINE
  5
93
330
1F
100
AcDbEntity
  8
1
  6
Continuous
 62
     4
100
AcDbLine
 10
-7.5980453972258
 20
-216.500383564523
 30
0.0
 11
-7.0355453972258
 21
-215.875383564523
 31
0.0
  0
LINE
  5
94
330
1F
100
AcDbEntity
  8
1
  6
Continuous
 62
     4
100
AcDbLine
 10
-10.3480453972258
 20
-213.062883564523
 30
0.0
 11
-8.6605453972258
 21
-213.062883564523
 31
0.0
  0
LINE
  5
95
330
1F
100
AcDbEntity
  8
1
  6
Continuous
 62
     4
100
AcDbLine
 10
-8.4105453972258
 20
-216.812883564523
 30
0.0
 11
-8.4105453972258
 21
-216.500383564523
 31
0.0
  0
LINE
  5
96
330
1F
100
AcDbEntity
  8
1
  6
Continuous
 62
     4
100
AcDbLine
 10
-8.6605453972258
 20
-217.125383564523
 30
0.0
 11
-8.4105453972258
 21
-216.812883564523
 31
0.0
  0
LINE
  5
97
330
1F
100
AcDbEntity
  8
1
  6
Continuous
 62
     4
100
AcDbLine
 10
-9.2230453972258
 20
-217.125383564523
 30
0.0
 11
-8.6605453972258
 21
-217.125383564523
 31
0.0
  0
LINE
  5
98
330
1F
100
AcDbEntity
  8
1
  6
Continuous
 62
     4
100
AcDbLine
 10
-9.5355453972258
 20
-216.687883564523
 30
0.0
 11
-9.2230453972258
 21
-217.125383564523
 31
0.0
  0
LINE
  5
99
330
1F
100
AcDbEntity
  8
1
  6
Continuous
 62
     4
100
AcDbLine
 10
-9.5355453972258
 20
-215.125383564523
 30
0.0
 11
-9.5355453972258
 21
-216.687883564523
 31
0.0
  0
LINE
  5
9A
330
1F
100
AcDbEntity
  8
1
  6
Continuous
 62
     4
100
AcDbLine
 10
-10.3480453972258
 20
-217.125383564523
 30
0.0
 11
-10.3480453972258
 21
-215.125383564523
 31
0.0
  0
LINE
  5
9B
330
1F
100
AcDbEntity
  8
1
  6
Continuous
 62
     4
100
AcDbLine
 10
-11.5980453972258
 20
-217.000383564523
 30
0.0
 11
-12.0355453972258
 21
-217.312883564523
 31
0.0
  0
LINE
  5
9C
330
1F
100
AcDbEntity
  8
1
  6
Continuous
 62
     4
100
AcDbLine
 10
-11.3480453972258
 20
-216.687883564523
 30
0.0
 11
-11.5980453972258
 21
-217.000383564523
 31
0.0
  0
LINE
  5
9D
330
1F
100
AcDbEntity
  8
1
  6
Continuous
 62
     4
100
AcDbLine
 10
-11.1605453972258
 20
-216.187883564523
 30
0.0
 11
-11.3480453972258
 21
-216.687883564523
 31
0.0
  0
LINE
  5
9E
330
1F
100
AcDbEntity
  8
1
  6
Continuous
 62
     4
100
AcDbLine
 10
-11.0355453972258
 20
-215.125383564523
 30
0.0
 11
-11.1605453972258
 21
-216.187883564523
 31
0.0
  0
LINE
  5
9F
330
1F
100
AcDbEntity
  8
1
  6
Continuous
 62
     4
100
AcDbLine
 10
-9.6605453972258
 20
-213.562883564523
 30
0.0
 11
-9.0980453972258
 21
-214.625383564523
 31
0.0
  0
LINE
  5
A0
330
1F
100
AcDbEntity
  8
1
  6
Continuous
 62
     4
100
AcDbLine
 10
-11.4730453972258
 20
-214.312883564523
 30
0.0
 11
-9.3480453972258
 21
-214.187883564523
 31
0.0
  0
LINE
  5
A1
330
1F
100
AcDbEntity
  8
1
  6
Continuous
 62
     4
100
AcDbLine
 10
-10.3480453972258
 20
-213.062883564523
 30
0.0
 11
-10.9105453972258
 21
-214.312883564523
 31
0.0
  0
LINE
  5
A2
330
1F
100
AcDbEntity
  8
1
  6
Continuous
 62
     4
100
AcDbLine
 10
-10.2230453972258
 20
-212.312883564523
 30
0.0
 11
-10.2230453972258
 21
-213.062883564523
 31
0.0
  0
LINE
  5
A3
330
1F
100
AcDbEntity
  8
1
  6
Continuous
 62
     4
100
AcDbLine
 10
-11.7230453972258
 20
-213.062883564523
 30
0.0
 11
-10.3480453972258
 21
-213.062883564523
 31
0.0
  0
LINE
  5
A4
330
1F
100
AcDbEntity
  8
1
  6
Continuous
 62
     4
100
AcDbLine
 10
-12.7230453972258
 20
-217.125383564523
 30
0.0
 11
-12.1605453972258
 21
-215.125383564523
 31
0.0
  0
LINE
  5
A5
330
1F
100
AcDbEntity
  8
1
  6
Continuous
 62
     4
100
AcDbLine
 10
-12.8480453972258
 20
-213.875383564523
 30
0.0
 11
-12.4105453972258
 21
-214.312883564523
 31
0.0
  0
LINE
  5
A6
330
1F
100
AcDbEntity
  8
1
  6
Continuous
 62
     4
100
AcDbLine
 10
-12.4105453972258
 20
-212.437883564523
 30
0.0
 11
-12.1605453972258
 21
-212.937883564523
 31
0.0
  0
LINE
  5
A7
330
1F
100
AcDbEntity
  8
1
  6
Continuous
 62
     4
100
AcDbLine
 10
77.9104152516092
 20
-202.645115176424
 30
0.0
 11
78.9104152516092
 21
-203.270115176424
 31
0.0
  0
LINE
  5
A8
330
1F
100
AcDbEntity
  8
1
  6
Continuous
 62
     4
100
AcDbLine
 10
79.2854152516092
 20
-202.332615176424
 30
0.0
 11
78.4729152516092
 21
-201.707615176424
 31
0.0
  0
LINE
  5
A9
330
1F
100
AcDbEntity
  8
1
  6
Continuous
 62
     4
100
AcDbLine
 10
79.9729152516092
 20
-201.582615176424
 30
0.0
 11
80.4104152516092
 21
-202.020115176424
 31
0.0
  0
LINE
  5
AA
330
1F
100
AcDbEntity
  8
1
  6
Continuous
 62
     4
100
AcDbLine
 10
80.7229152516092
 20
-201.707615176424
 30
0.0
 11
80.2854152516092
 21
-201.270115176424
 31
0.0
  0
LINE
  5
AB
330
1F
100
AcDbEntity
  8
1
  6
Continuous
 62
     4
100
AcDbLine
 10
80.4104152516092
 20
-203.582615176424
 30
0.0
 11
81.0979152516092
 21
-202.645115176424
 31
0.0
  0
LINE
  5
AC
330
1F
100
AcDbEntity
  8
1
  6
Continuous
 62
     4
100
AcDbLine
 10
79.2854152516092
 20
-204.520115176424
 30
0.0
 11
80.4104152516092
 21
-203.582615176424
 31
0.0
  0
LINE
  5
AD
330
1F
100
AcDbEntity
  8
1
  6
Continuous
 62
     4
100
AcDbLine
 10
78.2229152516092
 20
-205.145115176424
 30
0.0
 11
79.2854152516092
 21
-204.520115176424
 31
0.0
  0
LINE
  5
AE
330
1F
100
AcDbEntity
  8
1
  6
Continuous
 62
     4
100
AcDbLine
 10
75.5354152516092
 20
-203.770115176424
 30
0.0
 11
75.9729152516092
 21
-204.395115176424
 31
0.0
  0
LINE
  5
AF
330
1F
100
AcDbEntity
  8
1
  6
Continuous
 62
     4
100
AcDbLine
 10
74.9729152516092
 20
-203.270115176424
 30
0.0
 11
75.5354152516092
 21
-203.770115176424
 31
0.0
  0
LINE
  5
B0
330
1F
100
AcDbEntity
  8
1
  6
Continuous
 62
     4
100
AcDbLine
 10
74.5979152516092
 20
-201.270115176424
 30
0.0
 11
74.8479152516092
 21
-201.582615176424
 31
0.0
  0
LINE
  5
B1
330
1F
100
AcDbEntity
  8
1
  6
Continuous
 62
     4
100
AcDbLine
 10
74.0354152516092
 20
-200.957615176424
 30
0.0
 11
74.5979152516092
 21
-201.270115176424
 31
0.0
  0
LINE
  5
B2
330
1F
100
AcDbEntity
  8
1
  6
Continuous
 62
     4
100
AcDbLine
 10
75.2854152516092
 20
-202.207615176424
 30
0.0
 11
73.3479152516092
 21
-202.207615176424
 31
0.0
  0
LINE
  5
B3
330
1F
100
AcDbEntity
  8
1
  6
Continuous
 62
     4
100
AcDbLine
 10
74.2854152516092
 20
-203.270115176424
 30
0.0
 11
75.2854152516092
 21
-202.207615176424
 31
0.0
  0
LINE
  5
B4
330
1F
100
AcDbEntity
  8
1
  6
Continuous
 62
     4
100
AcDbLine
 10
72.9104152516092
 20
-204.207615176424
 30
0.0
 11
74.2854152516092
 21
-203.270115176424
 31
0.0
  0
LINE
  5
B5
330
1F
100
AcDbEntity
  8
1
  6
Continuous
 62
     4
100
AcDbLine
 10
74.4729152516092
 20
-205.145115176424
 30
0.0
 11
74.4729152516092
 21
-203.145115176424
 31
0.0
  0
LINE
  5
B6
330
1F
100
AcDbEntity
  8
1
  6
Continuous
 62
     4
100
AcDbLine
 10
67.7229152516092
 20
-205.645115176424
 30
0.0
 11
70.7229152516092
 21
-205.645115176424
 31
0.0
  0
LINE
  5
B7
330
1F
100
AcDbEntity
  8
1
  6
Continuous
 62
     4
100
AcDbLine
 10
70.4729152516092
 20
-202.395115176424
 30
0.0
 11
67.7229152516092
 21
-205.645115176424
 31
0.0
  0
LINE
  5
B8
330
1F
100
AcDbEntity
  8
1
  6
Continuous
 62
     4
100
AcDbLine
 10
70.7229152516092
 20
-201.895115176424
 30
0.0
 11
70.4729152516092
 21
-202.395115176424
 31
0.0
  0
LINE
  5
B9
330
1F
100
AcDbEntity
  8
1
  6
Continuous
 62
     4
100
AcDbLine
 10
70.7229152516092
 20
-201.395115176424
 30
0.0
 11
70.7229152516092
 21
-201.895115176424
 31
0.0
  0
LINE
  5
BA
330
1F
100
AcDbEntity
  8
1
  6
Continuous
 62
     4
100
AcDbLine
 10
70.4729152516092
 20
-201.020115176424
 30
0.0
 11
70.7229152516092
 21
-201.395115176424
 31
0.0
  0
LINE
  5
BB
330
1F
100
AcDbEntity
  8
1
  6
Continuous
 62
     4
100
AcDbLine
 10
70.0979152516092
 20
-200.770115176424
 30
0.0
 11
70.4729152516092
 21
-201.020115176424
 31
0.0
  0
LINE
  5
BC
330
1F
100
AcDbEntity
  8
1
  6
Continuous
 62
     4
100
AcDbLine
 10
69.5979152516092
 20
-200.645115176424
 30
0.0
 11
70.0979152516092
 21
-200.770115176424
 31
0.0
  0
LINE
  5
BD
330
1F
100
AcDbEntity
  8
1
  6
Continuous
 62
     4
100
AcDbLine
 10
68.8479152516092
 20
-200.645115176424
 30
0.0
 11
69.5979152516092
 21
-200.645115176424
 31
0.0
  0
LINE
  5
BE
330
1F
100
AcDbEntity
  8
1
  6
Continuous
 62
     4
100
AcDbLine
 10
68.3479152516092
 20
-200.770115176424
 30
0.0
 11
68.8479152516092
 21
-200.645115176424
 31
0.0
  0
LINE
  5
BF
330
1F
100
AcDbEntity
  8
1
  6
Continuous
 62
     4
100
AcDbLine
 10
67.9729152516092
 20
-201.020115176424
 30
0.0
 11
68.3479152516092
 21
-200.770115176424
 31
0.0
  0
LINE
  5
C0
330
1F
100
AcDbEntity
  8
1
  6
Continuous
 62
     4
100
AcDbLine
 10
67.7229152516092
 20
-201.395115176424
 30
0.0
 11
67.9729152516092
 21
-201.020115176424
 31
0.0
  0
LINE
  5
C1
330
1F
100
AcDbEntity
  8
1
  6
Continuous
 62
     4
100
AcDbLine
 10
64.2229152516092
 20
-205.645115176424
 30
0.0
 11
66.2229152516092
 21
-200.645115176424
 31
0.0
  0
LINE
  5
C2
330
1F
100
AcDbEntity
  8
1
  6
Continuous
 62
     4
100
AcDbLine
 10
62.7229152516092
 20
-200.645115176424
 30
0.0
 11
62.7229152516092
 21
-205.645115176424
 31
0.0
  0
LINE
  5
C3
330
1F
100
AcDbEntity
  8
1
  6
Continuous
 62
     4
100
AcDbLine
 10
61.2229152516092
 20
-202.145115176424
 30
0.0
 11
62.7229152516092
 21
-200.645115176424
 31
0.0
  0
LINE
  5
C4
330
1F
100
AcDbEntity
  8
1
  6
Continuous
 62
     4
100
AcDbLine
 10
55.7229152516092
 20
-200.645115176424
 30
0.0
 11
55.7229152516092
 21
-205.645115176424
 31
0.0
  0
LINE
  5
C5
330
1F
100
AcDbEntity
  8
1
  6
Continuous
 62
     4
100
AcDbLine
 10
54.2229152516092
 20
-202.145115176424
 30
0.0
 11
55.7229152516092
 21
-200.645115176424
 31
0.0
  0
LINE
  5
C6
330
1F
100
AcDbEntity
  8
1
  6
Continuous
 62
     4
100
AcDbLine
 10
49.2229152516092
 20
-205.645115176424
 30
0.0
 11
49.2229152516092
 21
-203.145115176424
 31
0.0
  0
LINE
  5
C7
330
1F
100
AcDbEntity
  8
1
  6
Continuous
 62
     4
100
AcDbLine
 10
51.2229152516092
 20
-203.145115176424
 30
0.0
 11
52.7229152516092
 21
-205.645115176424
 31
0.0
  0
LINE
  5
C8
330
1F
100
AcDbEntity
  8
1
  6
Continuous
 62
     4
100
AcDbLine
 10
51.5979152516092
 20
-203.145115176424
 30
0.0
 11
51.2229152516092
 21
-203.145115176424
 31
0.0
  0
LINE
  5
C9
330
1F
100
AcDbEntity
  8
1
  6
Continuous
 62
     4
100
AcDbLine
 10
52.0979152516092
 20
-203.020115176424
 30
0.0
 11
51.5979152516092
 21
-203.145115176424
 31
0.0
  0
LINE
  5
CA
330
1F
100
AcDbEntity
  8
1
  6
Continuous
 62
     4
100
AcDbLine
 10
52.4729152516092
 20
-202.770115176424
 30
0.0
 11
52.0979152516092
 21
-203.020115176424
 31
0.0
  0
LINE
  5
CB
330
1F
100
AcDbEntity
  8
1
  6
Continuous
 62
     4
100
AcDbLine
 10
52.5979152516092
 20
-202.520115176424
 30
0.0
 11
52.4729152516092
 21
-202.770115176424
 31
0.0
  0
LINE
  5
CC
330
1F
100
AcDbEntity
  8
1
  6
Continuous
 62
     4
100
AcDbLine
 10
52.7229152516092
 20
-202.145115176424
 30
0.0
 11
52.5979152516092
 21
-202.520115176424
 31
0.0
  0
LINE
  5
CD
330
1F
100
AcDbEntity
  8
1
  6
Continuous
 62
     4
100
AcDbLine
 10
52.7229152516092
 20
-201.645115176424
 30
0.0
 11
52.7229152516092
 21
-202.145115176424
 31
0.0
  0
LINE
  5
CE
330
1F
100
AcDbEntity
  8
1
  6
Continuous
 62
     4
100
AcDbLine
 10
52.5979152516092
 20
-201.270115176424
 30
0.0
 11
52.7229152516092
 21
-201.645115176424
 31
0.0
  0
LINE
  5
CF
330
1F
100
AcDbEntity
  8
1
  6
Continuous
 62
     4
100
AcDbLine
 10
52.4729152516092
 20
-201.020115176424
 30
0.0
 11
52.5979152516092
 21
-201.270115176424
 31
0.0
  0
LINE
  5
D0
330
1F
100
AcDbEntity
  8
1
  6
Continuous
 62
     4
100
AcDbLine
 10
52.0979152516092
 20
-200.770115176424
 30
0.0
 11
52.4729152516092
 21
-201.020115176424
 31
0.0
  0
LINE
  5
D1
330
1F
100
AcDbEntity
  8
1
  6
Continuous
 62
     4
100
AcDbLine
 10
51.5979152516092
 20
-200.645115176424
 30
0.0
 11
52.0979152516092
 21
-200.770115176424
 31
0.0
  0
LINE
  5
D2
330
1F
100
AcDbEntity
  8
1
  6
Continuous
 62
     4
100
AcDbLine
 10
49.2229152516092
 20
-200.645115176424
 30
0.0
 11
51.5979152516092
 21
-200.645115176424
 31
0.0
  0
LINE
  5
D3
330
1F
100
AcDbEntity
  8
1
  6
Continuous
 62
     4
100
AcDbLine
 10
49.2229152516092
 20
-203.145115176424
 30
0.0
 11
49.2229152516092
 21
-200.645115176424
 31
0.0
  0
LINE
  5
D4
330
1F
100
AcDbEntity
  8
1
  6
Continuous
 62
     4
100
AcDbLine
 10
51.2229152516092
 20
-203.145115176424
 30
0.0
 11
49.2229152516092
 21
-203.145115176424
 31
0.0
  0
LINE
  5
D5
330
1F
100
AcDbEntity
  8
1
  6
Continuous
 62
     4
100
AcDbLine
 10
189.475899244265
 20
-45.12667217907
 30
0.0
 11
190.475899244265
 21
-45.75167217907
 31
0.0
  0
LINE
  5
D6
330
1F
100
AcDbEntity
  8
1
  6
Continuous
 62
     4
100
AcDbLine
 10
190.850899244265
 20
-44.81417217907
 30
0.0
 11
190.038399244265
 21
-44.18917217907
 31
0.0
  0
LINE
  5
D7
330
1F
100
AcDbEntity
  8
1
  6
Continuous
 62
     4
100
AcDbLine
 10
191.538399244265
 20
-44.06417217907
 30
0.0
 11
191.975899244265
 21
-44.50167217907
 31
0.0
  0
LINE
  5
D8
330
1F
100
AcDbEntity
  8
1
  6
Continuous
 62
     4
100
AcDbLine
 10
192.288399244265
 20
-44.18917217907
 30
0.0
 11
191.850899244265
 21
-43.75167217907
 31
0.0
  0
LINE
  5
D9
330
1F
100
AcDbEntity
  8
1
  6
Continuous
 62
     4
100
AcDbLine
 10
191.975899244265
 20
-46.06417217907
 30
0.0
 11
192.663399244265
 21
-45.12667217907
 31
0.0
  0
LINE
  5
DA
330
1F
100
AcDbEntity
  8
1
  6
Continuous
 62
     4
100
AcDbLine
 10
190.850899244265
 20
-47.00167217907
 30
0.0
 11
191.975899244265
 21
-46.06417217907
 31
0.0
  0
LINE
  5
DB
330
1F
100
AcDbEntity
  8
1
  6
Continuous
 62
     4
100
AcDbLine
 10
189.788399244265
 20
-47.62667217907
 30
0.0
 11
190.850899244265
 21
-47.00167217907
 31
0.0
  0
LINE
  5
DC
330
1F
100
AcDbEntity
  8
1
  6
Continuous
 62
     4
100
AcDbLine
 10
186.850899244265
 20
-45.62667217907
 30
0.0
 11
187.538399244265
 21
-44.68917217907
 31
0.0
  0
LINE
  5
DD
330
1F
100
AcDbEntity
  8
1
  6
Continuous
 62
     4
100
AcDbLine
 10
185.725899244265
 20
-46.68917217907
 30
0.0
 11
186.850899244265
 21
-45.62667217907
 31
0.0
  0
LINE
  5
DE
330
1F
100
AcDbEntity
  8
1
  6
Continuous
 62
     4
100
AcDbLine
 10
184.788399244265
 20
-47.18917217907
 30
0.0
 11
185.725899244265
 21
-46.68917217907
 31
0.0
  0
LINE
  5
DF
330
1F
100
AcDbEntity
  8
1
  6
Continuous
 62
     4
100
AcDbLine
 10
184.600899244265
 20
-44.37667217907
 30
0.0
 11
185.288399244265
 21
-45.12667217907
 31
0.0
  0
LINE
  5
E0
330
1F
100
AcDbEntity
  8
1
  6
Continuous
 62
     4
100
AcDbLine
 10
179.913399244265
 20
-44.06417217907
 30
0.0
 11
182.100899244265
 21
-44.06417217907
 31
0.0
  0
LINE
  5
E1
330
1F
100
AcDbEntity
  8
1
  6
Continuous
 62
     4
100
AcDbLine
 10
182.413399244265
 20
-45.12667217907
 30
0.0
 11
179.600899244265
 21
-45.12667217907
 31
0.0
  0
LINE
  5
E2
330
1F
100
AcDbEntity
  8
1
  6
Continuous
 62
     4
100
AcDbLine
 10
182.100899244265
 20
-45.93917217907
 30
0.0
 11
182.413399244265
 21
-45.12667217907
 31
0.0
  0
LINE
  5
E3
330
1F
100
AcDbEntity
  8
1
  6
Continuous
 62
     4
100
AcDbLine
 10
181.288399244265
 20
-47.00167217907
 30
0.0
 11
182.100899244265
 21
-45.93917217907
 31
0.0
  0
LINE
  5
E4
330
1F
100
AcDbEntity
  8
1
  6
Continuous
 62
     4
100
AcDbLine
 10
180.288399244265
 20
-47.62667217907
 30
0.0
 11
181.288399244265
 21
-47.00167217907
 31
0.0
  0
LINE
  5
E5
330
1F
100
AcDbEntity
  8
1
  6
Continuous
 62
     4
100
AcDbLine
 10
176.288399244265
 20
-46.87667217907
 30
0.0
 11
175.475899244265
 21
-47.62667217907
 31
0.0
  0
LINE
  5
E6
330
1F
100
AcDbEntity
  8
1
  6
Continuous
 62
     4
100
AcDbLine
 10
177.100899244265
 20
-45.62667217907
 30
0.0
 11
176.288399244265
 21
-46.87667217907
 31
0.0
  0
LINE
  5
E7
330
1F
100
AcDbEntity
  8
1
  6
Continuous
 62
     4
100
AcDbLine
 10
177.413399244265
 20
-44.37667217907
 30
0.0
 11
177.100899244265
 21
-45.62667217907
 31
0.0
  0
LINE
  5
E8
330
1F
100
AcDbEntity
  8
1
  6
Continuous
 62
     4
100
AcDbLine
 10
174.600899244265
 20
-44.37667217907
 30
0.0
 11
177.413399244265
 21
-44.37667217907
 31
0.0
  0
LINE
  5
E9
330
1F
100
AcDbEntity
  8
1
  6
Continuous
 62
     4
100
AcDbLine
 10
170.038399244265
 20
-46.37667217907
 30
0.0
 11
170.038399244265
 21
-45.62667217907
 31
0.0
  0
LINE
  5
EA
330
1F
100
AcDbEntity
  8
1
  6
Continuous
 62
     4
100
AcDbLine
 10
171.038399244265
 20
-45.00167217907
 30
0.0
 11
172.975899244265
 21
-45.00167217907
 31
0.0
  0
LINE
  5
EB
330
1F
100
AcDbEntity
  8
1
  6
Continuous
 62
     4
100
AcDbLine
 10
171.975899244265
 20
-43.87667217907
 30
0.0
 11
172.288399244265
 21
-44.50167217907
 31
0.0
  0
LINE
  5
EC
330
1F
100
AcDbEntity
  8
1
  6
Continuous
 62
     4
100
AcDbLine
 10
171.413399244265
 20
-43.56417217907
 30
0.0
 11
172.788399244265
 21
-43.56417217907
 31
0.0
  0
LINE
  5
ED
330
1F
100
AcDbEntity
  8
1
  6
Continuous
 62
     4
100
AcDbLine
 10
171.725899244265
 20
-43.12667217907
 30
0.0
 11
171.163399244265
 21
-44.37667217907
 31
0.0
  0
LINE
  5
EE
330
1F
100
AcDbEntity
  8
1
  6
Continuous
 62
     4
100
AcDbLine
 10
169.913399244265
 20
-43.87667217907
 30
0.0
 11
170.288399244265
 21
-44.50167217907
 31
0.0
  0
LINE
  5
EF
330
1F
100
AcDbEntity
  8
1
  6
Continuous
 62
     4
100
AcDbLine
 10
169.475899244265
 20
-43.56417217907
 30
0.0
 11
170.725899244265
 21
-43.56417217907
 31
0.0
  0
LINE
  5
F0
330
1F
100
AcDbEntity
  8
1
  6
Continuous
 62
     4
100
AcDbLine
 10
169.788399244265
 20
-43.12667217907
 30
0.0
 11
169.038399244265
 21
-44.37667217907
 31
0.0
  0
LINE
  5
F1
330
1F
100
AcDbEntity
  8
1
  6
Continuous
 62
     4
100
AcDbLine
 10
171.038399244265
 20
-44.37667217907
 30
0.0
 11
171.038399244265
 21
-45.00167217907
 31
0.0
  0
LINE
  5
F2
330
1F
100
AcDbEntity
  8
1
  6
Continuous
 62
     4
100
AcDbLine
 10
172.975899244265
 20
-45.00167217907
 30
0.0
 11
172.975899244265
 21
-45.75167217907
 31
0.0
  0
LINE
  5
F3
330
1F
100
AcDbEntity
  8
1
  6
Continuous
 62
     4
100
AcDbLine
 10
169.038399244265
 20
-45.00167217907
 30
0.0
 11
171.038399244265
 21
-45.00167217907
 31
0.0
  0
LINE
  5
F4
330
1F
100
AcDbEntity
  8
1
  6
Continuous
 62
     4
100
AcDbLine
 10
169.038399244265
 20
-45.75167217907
 30
0.0
 11
169.038399244265
 21
-45.00167217907
 31
0.0
  0
LINE
  5
F5
330
1F
100
AcDbEntity
  8
1
  6
Continuous
 62
     4
100
AcDbLine
 10
172.100899244265
 20
-46.37667217907
 30
0.0
 11
170.038399244265
 21
-46.37667217907
 31
0.0
  0
LINE
  5
F6
330
1F
100
AcDbEntity
  8
1
  6
Continuous
 62
     4
100
AcDbLine
 10
172.100899244265
 20
-45.62667217907
 30
0.0
 11
172.100899244265
 21
-46.37667217907
 31
0.0
  0
LINE
  5
F7
330
1F
100
AcDbEntity
  8
1
  6
Continuous
 62
     4
100
AcDbLine
 10
170.038399244265
 20
-45.62667217907
 30
0.0
 11
172.100899244265
 21
-45.62667217907
 31
0.0
  0
LINE
  5
F8
330
1F
100
AcDbEntity
  8
1
  6
Continuous
 62
     4
100
AcDbLine
 10
170.038399244265
 20
-47.18917217907
 30
0.0
 11
170.038399244265
 21
-46.37667217907
 31
0.0
  0
LINE
  5
F9
330
1F
100
AcDbEntity
  8
1
  6
Continuous
 62
     4
100
AcDbLine
 10
170.038399244265
 20
-47.93917217907
 30
0.0
 11
172.100899244265
 21
-47.93917217907
 31
0.0
  0
LINE
  5
FA
330
1F
100
AcDbEntity
  8
1
  6
Continuous
 62
     4
100
AcDbLine
 10
170.038399244265
 20
-47.18917217907
 30
0.0
 11
170.038399244265
 21
-47.93917217907
 31
0.0
  0
LINE
  5
FB
330
1F
100
AcDbEntity
  8
1
  6
Continuous
 62
     4
100
AcDbLine
 10
172.100899244265
 20
-47.18917217907
 30
0.0
 11
170.038399244265
 21
-47.18917217907
 31
0.0
  0
LINE
  5
FC
330
1F
100
AcDbEntity
  8
1
  6
Continuous
 62
     4
100
AcDbLine
 10
172.100899244265
 20
-47.93917217907
 30
0.0
 11
172.100899244265
 21
-47.18917217907
 31
0.0
  0
LINE
  5
FD
330
1F
100
AcDbEntity
  8
1
  6
Continuous
 62
     4
100
AcDbLine
 10
165.850899244265
 20
-46.37667217907
 30
0.0
 11
166.163399244265
 21
-46.37667217907
 31
0.0
  0
LINE
  5
FE
330
1F
100
AcDbEntity
  8
1
  6
Continuous
 62
     4
100
AcDbLine
 10
166.163399244265
 20
-46.37667217907
 30
0.0
 11
167.975899244265
 21
-46.37667217907
 31
0.0
  0
LINE
  5
FF
330
1F
100
AcDbEntity
  8
1
  6
Continuous
 62
     4
100
AcDbLine
 10
167.538399244265
 20
-45.75167217907
 30
0.0
 11
167.288399244265
 21
-45.75167217907
 31
0.0
  0
LINE
  5
100
330
1F
100
AcDbEntity
  8
1
  6
Continuous
 62
     4
100
AcDbLine
 10
167.663399244265
 20
-45.62667217907
 30
0.0
 11
167.538399244265
 21
-45.75167217907
 31
0.0
  0
LINE
  5
101
330
1F
100
AcDbEntity
  8
1
  6
Continuous
 62
     4
100
AcDbLine
 10
167.663399244265
 20
-43.25167217907
 30
0.0
 11
167.663399244265
 21
-45.62667217907
 31
0.0
  0
LINE
  5
102
330
1F
100
AcDbEntity
  8
1
  6
Continuous
 62
     4
100
AcDbLine
 10
166.725899244265
 20
-43.56417217907
 30
0.0
 11
166.725899244265
 21
-45.12667217907
 31
0.0
  0
LINE
  5
103
330
1F
100
AcDbEntity
  8
1
  6
Continuous
 62
     4
100
AcDbLine
 10
164.038399244265
 20
-43.87667217907
 30
0.0
 11
163.913399244265
 21
-44.06417217907
 31
0.0
  0
LINE
  5
104
330
1F
100
AcDbEntity
  8
1
  6
Continuous
 62
     4
100
AcDbLine
 10
164.350899244265
 20
-43.56417217907
 30
0.0
 11
164.038399244265
 21
-43.87667217907
 31
0.0
  0
LINE
  5
105
330
1F
100
AcDbEntity
  8
1
  6
Continuous
 62
     4
100
AcDbLine
 10
164.600899244265
 20
-43.12667217907
 30
0.0
 11
164.350899244265
 21
-43.56417217907
 31
0.0
  0
LINE
  5
106
330
1F
100
AcDbEntity
  8
1
  6
Continuous
 62
     4
100
AcDbLine
 10
164.350899244265
 20
-43.56417217907
 30
0.0
 11
165.725899244265
 21
-43.56417217907
 31
0.0
  0
LINE
  5
107
330
1F
100
AcDbEntity
  8
1
  6
Continuous
 62
     4
100
AcDbLine
 10
164.038399244265
 20
-44.37667217907
 30
0.0
 11
166.038399244265
 21
-44.37667217907
 31
0.0
  0
LINE
  5
108
330
1F
100
AcDbEntity
  8
1
  6
Continuous
 62
     4
100
AcDbLine
 10
165.725899244265
 20
-45.75167217907
 30
0.0
 11
165.600899244265
 21
-45.75167217907
 31
0.0
  0
LINE
  5
109
330
1F
100
AcDbEntity
  8
1
  6
Continuous
 62
     4
100
AcDbLine
 10
165.725899244265
 20
-44.81417217907
 30
0.0
 11
165.725899244265
 21
-45.75167217907
 31
0.0
  0
LINE
  5
10A
330
1F
100
AcDbEntity
  8
1
  6
Continuous
 62
     4
100
AcDbLine
 10
164.350899244265
 20
-44.81417217907
 30
0.0
 11
165.725899244265
 21
-44.81417217907
 31
0.0
  0
LINE
  5
10B
330
1F
100
AcDbEntity
  8
1
  6
Continuous
 62
     4
100
AcDbLine
 10
164.350899244265
 20
-45.75167217907
 30
0.0
 11
164.350899244265
 21
-44.81417217907
 31
0.0
  0
LINE
  5
10C
330
1F
100
AcDbEntity
  8
1
  6
Continuous
 62
     4
100
AcDbLine
 10
165.038399244265
 20
-45.93917217907
 30
0.0
 11
165.038399244265
 21
-43.12667217907
 31
0.0
  0
LINE
  5
10D
330
1F
100
AcDbEntity
  8
1
  6
Continuous
 62
     4
100
AcDbLine
 10
166.163399244265
 20
-46.37667217907
 30
0.0
 11
166.163399244265
 21
-45.62667217907
 31
0.0
  0
LINE
  5
10E
330
1F
100
AcDbEntity
  8
1
  6
Continuous
 62
     4
100
AcDbLine
 10
167.663399244265
 20
-47.81417217907
 30
0.0
 11
167.975899244265
 21
-47.93917217907
 31
0.0
  0
LINE
  5
10F
330
1F
100
AcDbEntity
  8
1
  6
Continuous
 62
     4
100
AcDbLine
 10
167.100899244265
 20
-47.50167217907
 30
0.0
 11
167.663399244265
 21
-47.81417217907
 31
0.0
  0
LINE
  5
110
330
1F
100
AcDbEntity
  8
1
  6
Continuous
 62
     4
100
AcDbLine
 10
166.725899244265
 20
-47.18917217907
 30
0.0
 11
167.100899244265
 21
-47.50167217907
 31
0.0
  0
LINE
  5
111
330
1F
100
AcDbEntity
  8
1
  6
Continuous
 62
     4
100
AcDbLine
 10
166.413399244265
 20
-46.87667217907
 30
0.0
 11
166.725899244265
 21
-47.18917217907
 31
0.0
  0
LINE
  5
112
330
1F
100
AcDbEntity
  8
1
  6
Continuous
 62
     4
100
AcDbLine
 10
166.163399244265
 20
-46.56417217907
 30
0.0
 11
166.413399244265
 21
-46.87667217907
 31
0.0
  0
LINE
  5
113
330
1F
100
AcDbEntity
  8
1
  6
Continuous
 62
     4
100
AcDbLine
 10
167.538399244265
 20
-46.68917217907
 30
0.0
 11
166.725899244265
 21
-47.18917217907
 31
0.0
  0
LINE
  5
114
330
1F
100
AcDbEntity
  8
1
  6
Continuous
 62
     4
100
AcDbLine
 10
164.038399244265
 20
-46.37667217907
 30
0.0
 11
165.850899244265
 21
-46.37667217907
 31
0.0
  0
LINE
  5
115
330
1F
100
AcDbEntity
  8
1
  6
Continuous
 62
     4
100
AcDbLine
 10
164.225899244265
 20
-47.50167217907
 30
0.0
 11
163.913399244265
 21
-47.62667217907
 31
0.0
  0
LINE
  5
116
330
1F
100
AcDbEntity
  8
1
  6
Continuous
 62
     4
100
AcDbLine
 10
164.475899244265
 20
-47.31417217907
 30
0.0
 11
164.225899244265
 21
-47.50167217907
 31
0.0
  0
LINE
  5
117
330
1F
100
AcDbEntity
  8
1
  6
Continuous
 62
     4
100
AcDbLine
 10
165.038399244265
 20
-47.00167217907
 30
0.0
 11
164.475899244265
 21
-47.31417217907
 31
0.0
  0
LINE
  5
118
330
1F
100
AcDbEntity
  8
1
  6
Continuous
 62
     4
100
AcDbLine
 10
165.475899244265
 20
-46.68917217907
 30
0.0
 11
165.038399244265
 21
-47.00167217907
 31
0.0
  0
LINE
  5
119
330
1F
100
AcDbEntity
  8
1
  6
Continuous
 62
     4
100
AcDbLine
 10
165.850899244265
 20
-46.37667217907
 30
0.0
 11
165.475899244265
 21
-46.68917217907
 31
0.0
  0
LINE
  5
11A
330
1F
100
AcDbEntity
  8
1
  6
Continuous
 62
     4
100
AcDbLine
 10
165.475899244265
 20
-47.62667217907
 30
0.0
 11
165.475899244265
 21
-46.68917217907
 31
0.0
  0
LINE
  5
11B
330
1F
100
AcDbEntity
  8
1
  6
Continuous
 62
     4
100
AcDbLine
 10
164.600899244265
 20
-47.93917217907
 30
0.0
 11
166.288399244265
 21
-47.31417217907
 31
0.0
  0
LINE
  5
11C
330
1F
100
AcDbEntity
  8
1
  6
Continuous
 62
     4
100
AcDbLine
 10
161.038399244265
 20
-47.93917217907
 30
0.0
 11
162.663399244265
 21
-47.93917217907
 31
0.0
  0
LINE
  5
11D
330
1F
100
AcDbEntity
  8
1
  6
Continuous
 62
     4
100
AcDbLine
 10
161.038399244265
 20
-45.00167217907
 30
0.0
 11
161.975899244265
 21
-45.00167217907
 31
0.0
  0
LINE
  5
11E
330
1F
100
AcDbEntity
  8
1
  6
Continuous
 62
     4
100
AcDbLine
 10
162.663399244265
 20
-45.12667217907
 30
0.0
 11
163.225899244265
 21
-45.62667217907
 31
0.0
  0
LINE
  5
11F
330
1F
100
AcDbEntity
  8
1
  6
Continuous
 62
     4
100
AcDbLine
 10
161.725899244265
 20
-44.06417217907
 30
0.0
 11
162.663399244265
 21
-45.12667217907
 31
0.0
  0
LINE
  5
120
330
1F
100
AcDbEntity
  8
1
  6
Continuous
 62
     4
100
AcDbLine
 10
161.038399244265
 20
-43.12667217907
 30
0.0
 11
161.725899244265
 21
-44.06417217907
 31
0.0
  0
LINE
  5
121
330
1F
100
AcDbEntity
  8
1
  6
Continuous
 62
     4
100
AcDbLine
 10
160.288399244265
 20
-44.06417217907
 30
0.0
 11
161.038399244265
 21
-43.12667217907
 31
0.0
  0
LINE
  5
122
330
1F
100
AcDbEntity
  8
1
  6
Continuous
 62
     4
100
AcDbLine
 10
159.350899244265
 20
-45.12667217907
 30
0.0
 11
160.288399244265
 21
-44.06417217907
 31
0.0
  0
LINE
  5
123
330
1F
100
AcDbEntity
  8
1
  6
Continuous
 62
     4
100
AcDbLine
 10
158.788399244265
 20
-45.62667217907
 30
0.0
 11
159.350899244265
 21
-45.12667217907
 31
0.0
  0
LINE
  5
124
330
1F
100
AcDbEntity
  8
1
  6
Continuous
 62
     4
100
AcDbLine
 10
161.725899244265
 20
-47.31417217907
 30
0.0
 11
161.975899244265
 21
-46.56417217907
 31
0.0
  0
LINE
  5
125
330
1F
100
AcDbEntity
  8
1
  6
Continuous
 62
     4
100
AcDbLine
 10
160.038399244265
 20
-46.56417217907
 30
0.0
 11
160.288399244265
 21
-47.31417217907
 31
0.0
  0
LINE
  5
126
330
1F
100
AcDbEntity
  8
1
  6
Continuous
 62
     4
100
AcDbLine
 10
162.413399244265
 20
-45.93917217907
 30
0.0
 11
159.600899244265
 21
-45.93917217907
 31
0.0
  0
LINE
  5
127
330
1F
100
AcDbEntity
  8
1
  6
Continuous
 62
     4
100
AcDbLine
 10
160.038399244265
 20
-45.00167217907
 30
0.0
 11
161.038399244265
 21
-45.00167217907
 31
0.0
  0
LINE
  5
128
330
1F
100
AcDbEntity
  8
1
  6
Continuous
 62
     4
100
AcDbLine
 10
161.038399244265
 20
-47.93917217907
 30
0.0
 11
161.038399244265
 21
-45.00167217907
 31
0.0
  0
LINE
  5
129
330
1F
100
AcDbEntity
  8
1
  6
Continuous
 62
     4
100
AcDbLine
 10
159.225899244265
 20
-47.93917217907
 30
0.0
 11
161.038399244265
 21
-47.93917217907
 31
0.0
  0
LINE
  5
12A
330
1F
100
AcDbEntity
  8
1
  6
Continuous
 62
     4
100
AcDbLine
 10
154.913399244265
 20
-46.37667217907
 30
0.0
 11
156.975899244265
 21
-46.37667217907
 31
0.0
  0
LINE
  5
12B
330
1F
100
AcDbEntity
  8
1
  6
Continuous
 62
     4
100
AcDbLine
 10
154.913399244265
 20
-48.12667217907
 30
0.0
 11
154.913399244265
 21
-46.37667217907
 31
0.0
  0
LINE
  5
12C
330
1F
100
AcDbEntity
  8
1
  6
Continuous
 62
     4
100
AcDbLine
 10
156.975899244265
 20
-48.12667217907
 30
0.0
 11
154.913399244265
 21
-48.12667217907
 31
0.0
  0
LINE
  5
12D
330
1F
100
AcDbEntity
  8
1
  6
Continuous
 62
     4
100
AcDbLine
 10
156.975899244265
 20
-46.37667217907
 30
0.0
 11
156.975899244265
 21
-48.12667217907
 31
0.0
  0
LINE
  5
12E
330
1F
100
AcDbEntity
  8
1
  6
Continuous
 62
     4
100
AcDbLine
 10
155.038399244265
 20
-45.31417217907
 30
0.0
 11
156.850899244265
 21
-45.31417217907
 31
0.0
  0
LINE
  5
12F
330
1F
100
AcDbEntity
  8
1
  6
Continuous
 62
     4
100
AcDbLine
 10
156.038399244265
 20
-43.25167217907
 30
0.0
 11
158.225899244265
 21
-45.75167217907
 31
0.0
  0
LINE
  5
130
330
1F
100
AcDbEntity
  8
1
  6
Continuous
 62
     4
100
AcDbLine
 10
153.788399244265
 20
-46.06417217907
 30
0.0
 11
156.038399244265
 21
-43.25167217907
 31
0.0
  0
LINE
  5
131
330
1F
100
AcDbEntity
  8
1
  6
Continuous
 62
     4
100
AcDbLine
 10
149.913399244265
 20
-45.00167217907
 30
0.0
 11
150.475899244265
 21
-45.00167217907
 31
0.0
  0
LINE
  5
132
330
1F
100
AcDbEntity
  8
1
  6
Continuous
 62
     4
100
AcDbLine
 10
153.100899244265
 20
-48.12667217907
 30
0.0
 11
152.788399244265
 21
-48.12667217907
 31
0.0
  0
LINE
  5
133
330
1F
100
AcDbEntity
  8
1
  6
Continuous
 62
     4
100
AcDbLine
 10
153.100899244265
 20
-43.56417217907
 30
0.0
 11
153.100899244265
 21
-48.12667217907
 31
0.0
  0
LINE
  5
134
330
1F
100
AcDbEntity
  8
1
  6
Continuous
 62
     4
100
AcDbLine
 10
151.163399244265
 20
-43.56417217907
 30
0.0
 11
153.100899244265
 21
-43.56417217907
 31
0.0
  0
LINE
  5
135
330
1F
100
AcDbEntity
  8
1
  6
Continuous
 62
     4
100
AcDbLine
 10
151.163399244265
 20
-48.12667217907
 30
0.0
 11
151.163399244265
 21
-43.56417217907
 31
0.0
  0
LINE
  5
136
330
1F
100
AcDbEntity
  8
1
  6
Continuous
 62
     4
100
AcDbLine
 10
152.663399244265
 20
-44.50167217907
 30
0.0
 11
151.538399244265
 21
-44.50167217907
 31
0.0
  0
LINE
  5
137
330
1F
100
AcDbEntity
  8
1
  6
Continuous
 62
     4
100
AcDbLine
 10
151.725899244265
 20
-45.31417217907
 30
0.0
 11
151.725899244265
 21
-46.56417217907
 31
0.0
  0
LINE
  5
138
330
1F
100
AcDbEntity
  8
1
  6
Continuous
 62
     4
100
AcDbLine
 10
152.538399244265
 20
-45.31417217907
 30
0.0
 11
151.725899244265
 21
-45.31417217907
 31
0.0
  0
LINE
  5
139
330
1F
100
AcDbEntity
  8
1
  6
Continuous
 62
     4
100
AcDbLine
 10
152.538399244265
 20
-46.56417217907
 30
0.0
 11
152.538399244265
 21
-45.31417217907
 31
0.0
  0
LINE
  5
13A
330
1F
100
AcDbEntity
  8
1
  6
Continuous
 62
     4
100
AcDbLine
 10
151.725899244265
 20
-46.56417217907
 30
0.0
 11
152.538399244265
 21
-46.56417217907
 31
0.0
  0
LINE
  5
13B
330
1F
100
AcDbEntity
  8
1
  6
Continuous
 62
     4
100
AcDbLine
 10
149.913399244265
 20
-45.00167217907
 30
0.0
 11
149.913399244265
 21
-47.50167217907
 31
0.0
  0
LINE
  5
13C
330
1F
100
AcDbEntity
  8
1
  6
Continuous
 62
     4
100
AcDbLine
 10
149.225899244265
 20
-46.37667217907
 30
0.0
 11
149.350899244265
 21
-47.00167217907
 31
0.0
  0
LINE
  5
13D
330
1F
100
AcDbEntity
  8
1
  6
Continuous
 62
     4
100
AcDbLine
 10
149.350899244265
 20
-44.50167217907
 30
0.0
 11
148.788399244265
 21
-45.43917217907
 31
0.0
  0
LINE
  5
13E
330
1F
100
AcDbEntity
  8
1
  6
Continuous
 62
     4
100
AcDbLine
 10
149.913399244265
 20
-43.43917217907
 30
0.0
 11
149.350899244265
 21
-44.50167217907
 31
0.0
  0
LINE
  5
13F
330
1F
100
AcDbEntity
  8
1
  6
Continuous
 62
     4
100
AcDbLine
 10
150.725899244265
 20
-44.37667217907
 30
0.0
 11
149.913399244265
 21
-43.43917217907
 31
0.0
  0
LINE
  5
140
330
1F
100
AcDbEntity
  8
1
  6
Continuous
 62
     4
100
AcDbLine
 10
149.350899244265
 20
-45.00167217907
 30
0.0
 11
149.913399244265
 21
-45.00167217907
 31
0.0
  0
LINE
  5
141
330
1F
100
AcDbEntity
  8
1
  6
Continuous
 62
     4
100
AcDbLine
 10
150.600899244265
 20
-45.75167217907
 30
0.0
 11
149.038399244265
 21
-45.75167217907
 31
0.0
  0
LINE
  5
142
330
1F
100
AcDbEntity
  8
1
  6
Continuous
 62
     4
100
AcDbLine
 10
150.475899244265
 20
-46.87667217907
 30
0.0
 11
150.600899244265
 21
-46.25167217907
 31
0.0
  0
LINE
  5
143
330
1F
100
AcDbEntity
  8
1
  6
Continuous
 62
     4
100
AcDbLine
 10
149.038399244265
 20
-47.81417217907
 30
0.0
 11
150.600899244265
 21
-47.31417217907
 31
0.0
  0
LINE
  5
144
330
1F
100
AcDbEntity
  8
1
  6
Continuous
 62
     4
100
AcDbLine
 10
188.038399244265
 20
-36.67167217907
 30
0.0
 11
188.038399244265
 21
-37.92167217907
 31
0.0
  0
LINE
  5
145
330
1F
100
AcDbEntity
  8
1
  6
Continuous
 62
     4
100
AcDbLine
 10
187.913399244265
 20
-35.92167217907
 30
0.0
 11
188.038399244265
 21
-36.67167217907
 31
0.0
  0
LINE
  5
146
330
1F
100
AcDbEntity
  8
1
  6
Continuous
 62
     4
100
AcDbLine
 10
187.663399244265
 20
-35.42167217907
 30
0.0
 11
187.913399244265
 21
-35.92167217907
 31
0.0
  0
LINE
  5
147
330
1F
100
AcDbEntity
  8
1
  6
Continuous
 62
     4
100
AcDbLine
 10
187.413399244265
 20
-35.17167217907
 30
0.0
 11
187.663399244265
 21
-35.42167217907
 31
0.0
  0
LINE
  5
148
330
1F
100
AcDbEntity
  8
1
  6
Continuous
 62
     4
100
AcDbLine
 10
187.038399244265
 20
-34.92167217907
 30
0.0
 11
187.413399244265
 21
-35.17167217907
 31
0.0
  0
LINE
  5
149
330
1F
100
AcDbEntity
  8
1
  6
Continuous
 62
     4
100
AcDbLine
 10
186.663399244265
 20
-34.79667217907
 30
0.0
 11
187.038399244265
 21
-34.92167217907
 31
0.0
  0
LINE
  5
14A
330
1F
100
AcDbEntity
  8
1
  6
Continuous
 62
     4
100
AcDbLine
 10
186.413399244265
 20
-34.79667217907
 30
0.0
 11
186.663399244265
 21
-34.79667217907
 31
0.0
  0
LINE
  5
14B
330
1F
100
AcDbEntity
  8
1
  6
Continuous
 62
     4
100
AcDbLine
 10
186.038399244265
 20
-34.92167217907
 30
0.0
 11
186.413399244265
 21
-34.79667217907
 31
0.0
  0
LINE
  5
14C
330
1F
100
AcDbEntity
  8
1
  6
Continuous
 62
     4
100
AcDbLine
 10
185.663399244265
 20
-35.17167217907
 30
0.0
 11
186.038399244265
 21
-34.92167217907
 31
0.0
  0
LINE
  5
14D
330
1F
100
AcDbEntity
  8
1
  6
Continuous
 62
     4
100
AcDbLine
 10
185.413399244265
 20
-35.42167217907
 30
0.0
 11
185.663399244265
 21
-35.17167217907
 31
0.0
  0
LINE
  5
14E
330
1F
100
AcDbEntity
  8
1
  6
Continuous
 62
     4
100
AcDbLine
 10
185.163399244265
 20
-35.92167217907
 30
0.0
 11
185.413399244265
 21
-35.42167217907
 31
0.0
  0
LINE
  5
14F
330
1F
100
AcDbEntity
  8
1
  6
Continuous
 62
     4
100
AcDbLine
 10
185.038399244265
 20
-36.67167217907
 30
0.0
 11
185.163399244265
 21
-35.92167217907
 31
0.0
  0
LINE
  5
150
330
1F
100
AcDbEntity
  8
1
  6
Continuous
 62
     4
100
AcDbLine
 10
185.038399244265
 20
-37.92167217907
 30
0.0
 11
185.038399244265
 21
-36.67167217907
 31
0.0
  0
LINE
  5
151
330
1F
100
AcDbEntity
  8
1
  6
Continuous
 62
     4
100
AcDbLine
 10
185.163399244265
 20
-38.67167217907
 30
0.0
 11
185.038399244265
 21
-37.92167217907
 31
0.0
  0
LINE
  5
152
330
1F
100
AcDbEntity
  8
1
  6
Continuous
 62
     4
100
AcDbLine
 10
185.413399244265
 20
-39.17167217907
 30
0.0
 11
185.163399244265
 21
-38.67167217907
 31
0.0
  0
LINE
  5
153
330
1F
100
AcDbEntity
  8
1
  6
Continuous
 62
     4
100
AcDbLine
 10
185.663399244265
 20
-39.42167217907
 30
0.0
 11
185.413399244265
 21
-39.17167217907
 31
0.0
  0
LINE
  5
154
330
1F
100
AcDbEntity
  8
1
  6
Continuous
 62
     4
100
AcDbLine
 10
186.038399244265
 20
-39.67167217907
 30
0.0
 11
185.663399244265
 21
-39.42167217907
 31
0.0
  0
LINE
  5
155
330
1F
100
AcDbEntity
  8
1
  6
Continuous
 62
     4
100
AcDbLine
 10
186.413399244265
 20
-39.79667217907
 30
0.0
 11
186.038399244265
 21
-39.67167217907
 31
0.0
  0
LINE
  5
156
330
1F
100
AcDbEntity
  8
1
  6
Continuous
 62
     4
100
AcDbLine
 10
186.663399244265
 20
-39.79667217907
 30
0.0
 11
186.413399244265
 21
-39.79667217907
 31
0.0
  0
LINE
  5
157
330
1F
100
AcDbEntity
  8
1
  6
Continuous
 62
     4
100
AcDbLine
 10
187.038399244265
 20
-39.67167217907
 30
0.0
 11
186.663399244265
 21
-39.79667217907
 31
0.0
  0
LINE
  5
158
330
1F
100
AcDbEntity
  8
1
  6
Continuous
 62
     4
100
AcDbLine
 10
187.413399244265
 20
-39.42167217907
 30
0.0
 11
187.038399244265
 21
-39.67167217907
 31
0.0
  0
LINE
  5
159
330
1F
100
AcDbEntity
  8
1
  6
Continuous
 62
     4
100
AcDbLine
 10
187.663399244265
 20
-39.17167217907
 30
0.0
 11
187.413399244265
 21
-39.42167217907
 31
0.0
  0
LINE
  5
15A
330
1F
100
AcDbEntity
  8
1
  6
Continuous
 62
     4
100
AcDbLine
 10
187.913399244265
 20
-38.67167217907
 30
0.0
 11
187.663399244265
 21
-39.17167217907
 31
0.0
  0
LINE
  5
15B
330
1F
100
AcDbEntity
  8
1
  6
Continuous
 62
     4
100
AcDbLine
 10
188.038399244265
 20
-37.92167217907
 30
0.0
 11
187.913399244265
 21
-38.67167217907
 31
0.0
  0
LINE
  5
15C
330
1F
100
AcDbEntity
  8
1
  6
Continuous
 62
     4
100
AcDbLine
 10
182.788399244265
 20
-37.79667217907
 30
0.0
 11
182.788399244265
 21
-39.79667217907
 31
0.0
  0
LINE
  5
15D
330
1F
100
AcDbEntity
  8
1
  6
Continuous
 62
     4
100
AcDbLine
 10
180.538399244265
 20
-38.79667217907
 30
0.0
 11
183.538399244265
 21
-38.79667217907
 31
0.0
  0
LINE
  5
15E
330
1F
100
AcDbEntity
  8
1
  6
Continuous
 62
     4
100
AcDbLine
 10
182.788399244265
 20
-34.79667217907
 30
0.0
 11
180.538399244265
 21
-38.79667217907
 31
0.0
  0
LINE
  5
15F
330
1F
100
AcDbEntity
  8
1
  6
Continuous
 62
     4
100
AcDbLine
 10
176.038399244265
 20
-39.79667217907
 30
0.0
 11
179.038399244265
 21
-39.79667217907
 31
0.0
  0
LINE
  5
160
330
1F
100
AcDbEntity
  8
1
  6
Continuous
 62
     4
100
AcDbLine
 10
178.788399244265
 20
-36.54667217907
 30
0.0
 11
176.038399244265
 21
-39.79667217907
 31
0.0
  0
LINE
  5
161
330
1F
100
AcDbEntity
  8
1
  6
Continuous
 62
     4
100
AcDbLine
 10
179.038399244265
 20
-36.04667217907
 30
0.0
 11
178.788399244265
 21
-36.54667217907
 31
0.0
  0
LINE
  5
162
330
1F
100
AcDbEntity
  8
1
  6
Continuous
 62
     4
100
AcDbLine
 10
179.038399244265
 20
-35.54667217907
 30
0.0
 11
179.038399244265
 21
-36.04667217907
 31
0.0
  0
LINE
  5
163
330
1F
100
AcDbEntity
  8
1
  6
Continuous
 62
     4
100
AcDbLine
 10
178.788399244265
 20
-35.17167217907
 30
0.0
 11
179.038399244265
 21
-35.54667217907
 31
0.0
  0
LINE
  5
164
330
1F
100
AcDbEntity
  8
1
  6
Continuous
 62
     4
100
AcDbLine
 10
178.413399244265
 20
-34.92167217907
 30
0.0
 11
178.788399244265
 21
-35.17167217907
 31
0.0
  0
LINE
  5
165
330
1F
100
AcDbEntity
  8
1
  6
Continuous
 62
     4
100
AcDbLine
 10
177.913399244265
 20
-34.79667217907
 30
0.0
 11
178.413399244265
 21
-34.92167217907
 31
0.0
  0
LINE
  5
166
330
1F
100
AcDbEntity
  8
1
  6
Continuous
 62
     4
100
AcDbLine
 10
177.163399244265
 20
-34.79667217907
 30
0.0
 11
177.913399244265
 21
-34.79667217907
 31
0.0
  0
LINE
  5
167
330
1F
100
AcDbEntity
  8
1
  6
Continuous
 62
     4
100
AcDbLine
 10
176.663399244265
 20
-34.92167217907
 30
0.0
 11
177.163399244265
 21
-34.79667217907
 31
0.0
  0
LINE
  5
168
330
1F
100
AcDbEntity
  8
1
  6
Continuous
 62
     4
100
AcDbLine
 10
176.288399244265
 20
-35.17167217907
 30
0.0
 11
176.663399244265
 21
-34.92167217907
 31
0.0
  0
LINE
  5
169
330
1F
100
AcDbEntity
  8
1
  6
Continuous
 62
     4
100
AcDbLine
 10
176.038399244265
 20
-35.54667217907
 30
0.0
 11
176.288399244265
 21
-35.17167217907
 31
0.0
  0
LINE
  5
16A
330
1F
100
AcDbEntity
  8
1
  6
Continuous
 62
     4
100
AcDbLine
 10
171.538399244265
 20
-39.79667217907
 30
0.0
 11
174.538399244265
 21
-39.79667217907
 31
0.0
  0
LINE
  5
16B
330
1F
100
AcDbEntity
  8
1
  6
Continuous
 62
     4
100
AcDbLine
 10
174.288399244265
 20
-36.54667217907
 30
0.0
 11
171.538399244265
 21
-39.79667217907
 31
0.0
  0
LINE
  5
16C
330
1F
100
AcDbEntity
  8
1
  6
Continuous
 62
     4
100
AcDbLine
 10
174.538399244265
 20
-36.04667217907
 30
0.0
 11
174.288399244265
 21
-36.54667217907
 31
0.0
  0
LINE
  5
16D
330
1F
100
AcDbEntity
  8
1
  6
Continuous
 62
     4
100
AcDbLine
 10
174.538399244265
 20
-35.54667217907
 30
0.0
 11
174.538399244265
 21
-36.04667217907
 31
0.0
  0
LINE
  5
16E
330
1F
100
AcDbEntity
  8
1
  6
Continuous
 62
     4
100
AcDbLine
 10
174.288399244265
 20
-35.17167217907
 30
0.0
 11
174.538399244265
 21
-35.54667217907
 31
0.0
  0
LINE
  5
16F
330
1F
100
AcDbEntity
  8
1
  6
Continuous
 62
     4
100
AcDbLine
 10
173.913399244265
 20
-34.92167217907
 30
0.0
 11
174.288399244265
 21
-35.17167217907
 31
0.0
  0
LINE
  5
170
330
1F
100
AcDbEntity
  8
1
  6
Continuous
 62
     4
100
AcDbLine
 10
173.413399244265
 20
-34.79667217907
 30
0.0
 11
173.913399244265
 21
-34.92167217907
 31
0.0
  0
LINE
  5
171
330
1F
100
AcDbEntity
  8
1
  6
Continuous
 62
     4
100
AcDbLine
 10
172.663399244265
 20
-34.79667217907
 30
0.0
 11
173.413399244265
 21
-34.79667217907
 31
0.0
  0
LINE
  5
172
330
1F
100
AcDbEntity
  8
1
  6
Continuous
 62
     4
100
AcDbLine
 10
172.163399244265
 20
-34.92167217907
 30
0.0
 11
172.663399244265
 21
-34.79667217907
 31
0.0
  0
LINE
  5
173
330
1F
100
AcDbEntity
  8
1
  6
Continuous
 62
     4
100
AcDbLine
 10
171.788399244265
 20
-35.17167217907
 30
0.0
 11
172.163399244265
 21
-34.92167217907
 31
0.0
  0
LINE
  5
174
330
1F
100
AcDbEntity
  8
1
  6
Continuous
 62
     4
100
AcDbLine
 10
171.538399244265
 20
-35.54667217907
 30
0.0
 11
171.788399244265
 21
-35.17167217907
 31
0.0
  0
LINE
  5
175
330
1F
100
AcDbEntity
  8
1
  6
Continuous
 62
     4
100
AcDbLine
 10
162.788399244265
 20
-37.04667217907
 30
0.0
 11
162.788399244265
 21
-34.79667217907
 31
0.0
  0
LINE
  5
176
330
1F
100
AcDbEntity
  8
1
  6
Continuous
 62
     4
100
AcDbLine
 10
165.163399244265
 20
-36.92167217907
 30
0.0
 11
164.788399244265
 21
-37.04667217907
 31
0.0
  0
LINE
  5
177
330
1F
100
AcDbEntity
  8
1
  6
Continuous
 62
     4
100
AcDbLine
 10
165.538399244265
 20
-36.67167217907
 30
0.0
 11
165.163399244265
 21
-36.92167217907
 31
0.0
  0
LINE
  5
178
330
1F
100
AcDbEntity
  8
1
  6
Continuous
 62
     4
100
AcDbLine
 10
165.788399244265
 20
-36.17167217907
 30
0.0
 11
165.538399244265
 21
-36.67167217907
 31
0.0
  0
LINE
  5
179
330
1F
100
AcDbEntity
  8
1
  6
Continuous
 62
     4
100
AcDbLine
 10
165.788399244265
 20
-35.79667217907
 30
0.0
 11
165.788399244265
 21
-36.17167217907
 31
0.0
  0
LINE
  5
17A
330
1F
100
AcDbEntity
  8
1
  6
Continuous
 62
     4
100
AcDbLine
 10
165.663399244265
 20
-35.29667217907
 30
0.0
 11
165.788399244265
 21
-35.79667217907
 31
0.0
  0
LINE
  5
17B
330
1F
100
AcDbEntity
  8
1
  6
Continuous
 62
     4
100
AcDbLine
 10
165.288399244265
 20
-34.92167217907
 30
0.0
 11
165.663399244265
 21
-35.29667217907
 31
0.0
  0
LINE
  5
17C
330
1F
100
AcDbEntity
  8
1
  6
Continuous
 62
     4
100
AcDbLine
 10
164.663399244265
 20
-34.79667217907
 30
0.0
 11
165.288399244265
 21
-34.92167217907
 31
0.0
  0
LINE
  5
17D
330
1F
100
AcDbEntity
  8
1
  6
Continuous
 62
     4
100
AcDbLine
 10
162.788399244265
 20
-34.79667217907
 30
0.0
 11
164.663399244265
 21
-34.79667217907
 31
0.0
  0
LINE
  5
17E
330
1F
100
AcDbEntity
  8
1
  6
Continuous
 62
     4
100
AcDbLine
 10
162.788399244265
 20
-39.79667217907
 30
0.0
 11
162.788399244265
 21
-37.04667217907
 31
0.0
  0
LINE
  5
17F
330
1F
100
AcDbEntity
  8
1
  6
Continuous
 62
     4
100
AcDbLine
 10
165.038399244265
 20
-39.79667217907
 30
0.0
 11
162.788399244265
 21
-39.79667217907
 31
0.0
  0
LINE
  5
180
330
1F
100
AcDbEntity
  8
1
  6
Continuous
 62
     4
100
AcDbLine
 10
165.538399244265
 20
-39.54667217907
 30
0.0
 11
165.038399244265
 21
-39.79667217907
 31
0.0
  0
LINE
  5
181
330
1F
100
AcDbEntity
  8
1
  6
Continuous
 62
     4
100
AcDbLine
 10
165.788399244265
 20
-39.29667217907
 30
0.0
 11
165.538399244265
 21
-39.54667217907
 31
0.0
  0
LINE
  5
182
330
1F
100
AcDbEntity
  8
1
  6
Continuous
 62
     4
100
AcDbLine
 10
166.038399244265
 20
-38.79667217907
 30
0.0
 11
165.788399244265
 21
-39.29667217907
 31
0.0
  0
LINE
  5
183
330
1F
100
AcDbEntity
  8
1
  6
Continuous
 62
     4
100
AcDbLine
 10
166.038399244265
 20
-38.17167217907
 30
0.0
 11
166.038399244265
 21
-38.79667217907
 31
0.0
  0
LINE
  5
184
330
1F
100
AcDbEntity
  8
1
  6
Continuous
 62
     4
100
AcDbLine
 10
165.788399244265
 20
-37.54667217907
 30
0.0
 11
166.038399244265
 21
-38.17167217907
 31
0.0
  0
LINE
  5
185
330
1F
100
AcDbEntity
  8
1
  6
Continuous
 62
     4
100
AcDbLine
 10
165.538399244265
 20
-37.29667217907
 30
0.0
 11
165.788399244265
 21
-37.54667217907
 31
0.0
  0
LINE
  5
186
330
1F
100
AcDbEntity
  8
1
  6
Continuous
 62
     4
100
AcDbLine
 10
165.038399244265
 20
-37.04667217907
 30
0.0
 11
165.538399244265
 21
-37.29667217907
 31
0.0
  0
LINE
  5
187
330
1F
100
AcDbEntity
  8
1
  6
Continuous
 62
     4
100
AcDbLine
 10
164.788399244265
 20
-37.04667217907
 30
0.0
 11
165.038399244265
 21
-37.04667217907
 31
0.0
  0
LINE
  5
188
330
1F
100
AcDbEntity
  8
1
  6
Continuous
 62
     4
100
AcDbLine
 10
162.788399244265
 20
-37.04667217907
 30
0.0
 11
164.788399244265
 21
-37.04667217907
 31
0.0
  0
LINE
  5
189
330
1F
100
AcDbEntity
  8
1
  6
Continuous
 62
     4
100
AcDbLine
 10
154.038399244265
 20
-39.42167217907
 30
0.0
 11
153.788399244265
 21
-39.17167217907
 31
0.0
  0
LINE
  5
18A
330
1F
100
AcDbEntity
  8
1
  6
Continuous
 62
     4
100
AcDbLine
 10
154.538399244265
 20
-39.67167217907
 30
0.0
 11
154.038399244265
 21
-39.42167217907
 31
0.0
  0
LINE
  5
18B
330
1F
100
AcDbEntity
  8
1
  6
Continuous
 62
     4
100
AcDbLine
 10
155.163399244265
 20
-39.79667217907
 30
0.0
 11
154.538399244265
 21
-39.67167217907
 31
0.0
  0
LINE
  5
18C
330
1F
100
AcDbEntity
  8
1
  6
Continuous
 62
     4
100
AcDbLine
 10
155.913399244265
 20
-39.79667217907
 30
0.0
 11
155.163399244265
 21
-39.79667217907
 31
0.0
  0
LINE
  5
18D
330
1F
100
AcDbEntity
  8
1
  6
Continuous
 62
     4
100
AcDbLine
 10
156.538399244265
 20
-39.67167217907
 30
0.0
 11
155.913399244265
 21
-39.79667217907
 31
0.0
  0
LINE
  5
18E
330
1F
100
AcDbEntity
  8
1
  6
Continuous
 62
     4
100
AcDbLine
 10
156.913399244265
 20
-39.42167217907
 30
0.0
 11
156.538399244265
 21
-39.67167217907
 31
0.0
  0
LINE
  5
18F
330
1F
100
AcDbEntity
  8
1
  6
Continuous
 62
     4
100
AcDbLine
 10
157.163399244265
 20
-39.04667217907
 30
0.0
 11
156.913399244265
 21
-39.42167217907
 31
0.0
  0
LINE
  5
190
330
1F
100
AcDbEntity
  8
1
  6
Continuous
 62
     4
100
AcDbLine
 10
157.288399244265
 20
-38.67167217907
 30
0.0
 11
157.163399244265
 21
-39.04667217907
 31
0.0
  0
LINE
  5
191
330
1F
100
AcDbEntity
  8
1
  6
Continuous
 62
     4
100
AcDbLine
 10
157.288399244265
 20
-38.42167217907
 30
0.0
 11
157.288399244265
 21
-38.67167217907
 31
0.0
  0
LINE
  5
192
330
1F
100
AcDbEntity
  8
1
  6
Continuous
 62
     4
100
AcDbLine
 10
157.163399244265
 20
-38.04667217907
 30
0.0
 11
157.288399244265
 21
-38.42167217907
 31
0.0
  0
LINE
  5
193
330
1F
100
AcDbEntity
  8
1
  6
Continuous
 62
     4
100
AcDbLine
 10
156.913399244265
 20
-37.67167217907
 30
0.0
 11
157.163399244265
 21
-38.04667217907
 31
0.0
  0
LINE
  5
194
330
1F
100
AcDbEntity
  8
1
  6
Continuous
 62
     4
100
AcDbLine
 10
156.538399244265
 20
-37.42167217907
 30
0.0
 11
156.913399244265
 21
-37.67167217907
 31
0.0
  0
LINE
  5
195
330
1F
100
AcDbEntity
  8
1
  6
Continuous
 62
     4
100
AcDbLine
 10
154.413399244265
 20
-36.54667217907
 30
0.0
 11
156.538399244265
 21
-37.42167217907
 31
0.0
  0
LINE
  5
196
330
1F
100
AcDbEntity
  8
1
  6
Continuous
 62
     4
100
AcDbLine
 10
154.038399244265
 20
-36.29667217907
 30
0.0
 11
154.413399244265
 21
-36.54667217907
 31
0.0
  0
LINE
  5
197
330
1F
100
AcDbEntity
  8
1
  6
Continuous
 62
     4
100
AcDbLine
 10
153.913399244265
 20
-35.92167217907
 30
0.0
 11
154.038399244265
 21
-36.29667217907
 31
0.0
  0
LINE
  5
198
330
1F
100
AcDbEntity
  8
1
  6
Continuous
 62
     4
100
AcDbLine
 10
153.913399244265
 20
-35.67167217907
 30
0.0
 11
153.913399244265
 21
-35.92167217907
 31
0.0
  0
LINE
  5
199
330
1F
100
AcDbEntity
  8
1
  6
Continuous
 62
     4
100
AcDbLine
 10
154.038399244265
 20
-35.29667217907
 30
0.0
 11
153.913399244265
 21
-35.67167217907
 31
0.0
  0
LINE
  5
19A
330
1F
100
AcDbEntity
  8
1
  6
Continuous
 62
     4
100
AcDbLine
 10
154.413399244265
 20
-35.04667217907
 30
0.0
 11
154.038399244265
 21
-35.29667217907
 31
0.0
  0
LINE
  5
19B
330
1F
100
AcDbEntity
  8
1
  6
Continuous
 62
     4
100
AcDbLine
 10
154.788399244265
 20
-34.92167217907
 30
0.0
 11
154.413399244265
 21
-35.04667217907
 31
0.0
  0
LINE
  5
19C
330
1F
100
AcDbEntity
  8
1
  6
Continuous
 62
     4
100
AcDbLine
 10
155.288399244265
 20
-34.79667217907
 30
0.0
 11
154.788399244265
 21
-34.92167217907
 31
0.0
  0
LINE
  5
19D
330
1F
100
AcDbEntity
  8
1
  6
Continuous
 62
     4
100
AcDbLine
 10
155.788399244265
 20
-34.79667217907
 30
0.0
 11
155.288399244265
 21
-34.79667217907
 31
0.0
  0
LINE
  5
19E
330
1F
100
AcDbEntity
  8
1
  6
Continuous
 62
     4
100
AcDbLine
 10
156.413399244265
 20
-34.92167217907
 30
0.0
 11
155.788399244265
 21
-34.79667217907
 31
0.0
  0
LINE
  5
19F
330
1F
100
AcDbEntity
  8
1
  6
Continuous
 62
     4
100
AcDbLine
 10
156.788399244265
 20
-35.04667217907
 30
0.0
 11
156.413399244265
 21
-34.92167217907
 31
0.0
  0
LINE
  5
1A0
330
1F
100
AcDbEntity
  8
1
  6
Continuous
 62
     4
100
AcDbLine
 10
157.163399244265
 20
-35.29667217907
 30
0.0
 11
156.788399244265
 21
-35.04667217907
 31
0.0
  0
LINE
  5
1A1
330
1F
100
AcDbEntity
  8
1
  6
Continuous
 62
     4
100
AcDbLine
 10
152.288399244265
 20
-39.79667217907
 30
0.0
 11
152.288399244265
 21
-34.79667217907
 31
0.0
  0
LINE
  5
1A2
330
1F
100
AcDbEntity
  8
1
  6
Continuous
 62
     4
100
AcDbLine
 10
149.788399244265
 20
-39.79667217907
 30
0.0
 11
148.788399244265
 21
-39.79667217907
 31
0.0
  0
LINE
  5
1A3
330
1F
100
AcDbEntity
  8
1
  6
Continuous
 62
     4
100
AcDbLine
 10
150.163399244265
 20
-39.67167217907
 30
0.0
 11
149.788399244265
 21
-39.79667217907
 31
0.0
  0
LINE
  5
1A4
330
1F
100
AcDbEntity
  8
1
  6
Continuous
 62
     4
100
AcDbLine
 10
150.538399244265
 20
-39.42167217907
 30
0.0
 11
150.163399244265
 21
-39.67167217907
 31
0.0
  0
LINE
  5
1A5
330
1F
100
AcDbEntity
  8
1
  6
Continuous
 62
     4
100
AcDbLine
 10
150.788399244265
 20
-38.92167217907
 30
0.0
 11
150.538399244265
 21
-39.42167217907
 31
0.0
  0
LINE
  5
1A6
330
1F
100
AcDbEntity
  8
1
  6
Continuous
 62
     4
100
AcDbLine
 10
150.788399244265
 20
-34.79667217907
 30
0.0
 11
150.788399244265
 21
-38.92167217907
 31
0.0
  0
LINE
  5
1A7
330
1F
100
AcDbEntity
  8
1
  6
Continuous
 62
     4
100
AcDbLine
 10
186.975899244265
 20
-28.46667217907
 30
0.0
 11
187.975899244265
 21
-29.09167217907
 31
0.0
  0
LINE
  5
1A8
330
1F
100
AcDbEntity
  8
1
  6
Continuous
 62
     4
100
AcDbLine
 10
188.350899244265
 20
-28.15417217907
 30
0.0
 11
187.538399244265
 21
-27.52917217907
 31
0.0
  0
LINE
  5
1A9
330
1F
100
AcDbEntity
  8
1
  6
Continuous
 62
     4
100
AcDbLine
 10
189.038399244265
 20
-27.40417217907
 30
0.0
 11
189.475899244265
 21
-27.84167217907
 31
0.0
  0
LINE
  5
1AA
330
1F
100
AcDbEntity
  8
1
  6
Continuous
 62
     4
100
AcDbLine
 10
189.788399244265
 20
-27.52917217907
 30
0.0
 11
189.350899244265
 21
-27.09167217907
 31
0.0
  0
LINE
  5
1AB
330
1F
100
AcDbEntity
  8
1
  6
Continuous
 62
     4
100
AcDbLine
 10
189.475899244265
 20
-29.40417217907
 30
0.0
 11
190.163399244265
 21
-28.46667217907
 31
0.0
  0
LINE
  5
1AC
330
1F
100
AcDbEntity
  8
1
  6
Continuous
 62
     4
100
AcDbLine
 10
188.350899244265
 20
-30.34167217907
 30
0.0
 11
189.475899244265
 21
-29.40417217907
 31
0.0
  0
LINE
  5
1AD
330
1F
100
AcDbEntity
  8
1
  6
Continuous
 62
     4
100
AcDbLine
 10
187.288399244265
 20
-30.96667217907
 30
0.0
 11
188.350899244265
 21
-30.34167217907
 31
0.0
  0
LINE
  5
1AE
330
1F
100
AcDbEntity
  8
1
  6
Continuous
 62
     4
100
AcDbLine
 10
184.350899244265
 20
-28.96667217907
 30
0.0
 11
185.038399244265
 21
-28.02917217907
 31
0.0
  0
LINE
  5
1AF
330
1F
100
AcDbEntity
  8
1
  6
Continuous
 62
     4
100
AcDbLine
 10
183.225899244265
 20
-30.02917217907
 30
0.0
 11
184.350899244265
 21
-28.96667217907
 31
0.0
  0
LINE
  5
1B0
330
1F
100
AcDbEntity
  8
1
  6
Continuous
 62
     4
100
AcDbLine
 10
182.288399244265
 20
-30.52917217907
 30
0.0
 11
183.225899244265
 21
-30.02917217907
 31
0.0
  0
LINE
  5
1B1
330
1F
100
AcDbEntity
  8
1
  6
Continuous
 62
     4
100
AcDbLine
 10
182.100899244265
 20
-27.71667217907
 30
0.0
 11
182.788399244265
 21
-28.46667217907
 31
0.0
  0
LINE
  5
1B2
330
1F
100
AcDbEntity
  8
1
  6
Continuous
 62
     4
100
AcDbLine
 10
177.413399244265
 20
-27.40417217907
 30
0.0
 11
179.600899244265
 21
-27.40417217907
 31
0.0
  0
LINE
  5
1B3
330
1F
100
AcDbEntity
  8
1
  6
Continuous
 62
     4
100
AcDbLine
 10
179.913399244265
 20
-28.46667217907
 30
0.0
 11
177.100899244265
 21
-28.46667217907
 31
0.0
  0
LINE
  5
1B4
330
1F
100
AcDbEntity
  8
1
  6
Continuous
 62
     4
100
AcDbLine
 10
179.600899244265
 20
-29.27917217907
 30
0.0
 11
179.913399244265
 21
-28.46667217907
 31
0.0
  0
LINE
  5
1B5
330
1F
100
AcDbEntity
  8
1
  6
Continuous
 62
     4
100
AcDbLine
 10
178.788399244265
 20
-30.34167217907
 30
0.0
 11
179.600899244265
 21
-29.27917217907
 31
0.0
  0
LINE
  5
1B6
330
1F
100
AcDbEntity
  8
1
  6
Continuous
 62
     4
100
AcDbLine
 10
177.788399244265
 20
-30.96667217907
 30
0.0
 11
178.788399244265
 21
-30.34167217907
 31
0.0
  0
LINE
  5
1B7
330
1F
100
AcDbEntity
  8
1
  6
Continuous
 62
     4
100
AcDbLine
 10
173.788399244265
 20
-30.21667217907
 30
0.0
 11
172.975899244265
 21
-30.96667217907
 31
0.0
  0
LINE
  5
1B8
330
1F
100
AcDbEntity
  8
1
  6
Continuous
 62
     4
100
AcDbLine
 10
174.600899244265
 20
-28.96667217907
 30
0.0
 11
173.788399244265
 21
-30.21667217907
 31
0.0
  0
LINE
  5
1B9
330
1F
100
AcDbEntity
  8
1
  6
Continuous
 62
     4
100
AcDbLine
 10
174.913399244265
 20
-27.71667217907
 30
0.0
 11
174.600899244265
 21
-28.96667217907
 31
0.0
  0
LINE
  5
1BA
330
1F
100
AcDbEntity
  8
1
  6
Continuous
 62
     4
100
AcDbLine
 10
172.100899244265
 20
-27.71667217907
 30
0.0
 11
174.913399244265
 21
-27.71667217907
 31
0.0
  0
LINE
  5
1BB
330
1F
100
AcDbEntity
  8
1
  6
Continuous
 62
     4
100
AcDbLine
 10
168.350899244265
 20
-30.21667217907
 30
0.0
 11
169.788399244265
 21
-30.21667217907
 31
0.0
  0
LINE
  5
1BC
330
1F
100
AcDbEntity
  8
1
  6
Continuous
 62
     4
100
AcDbLine
 10
169.913399244265
 20
-29.71667217907
 30
0.0
 11
170.475899244265
 21
-30.52917217907
 31
0.0
  0
LINE
  5
1BD
330
1F
100
AcDbEntity
  8
1
  6
Continuous
 62
     4
100
AcDbLine
 10
169.350899244265
 20
-28.65417217907
 30
0.0
 11
169.913399244265
 21
-29.71667217907
 31
0.0
  0
LINE
  5
1BE
330
1F
100
AcDbEntity
  8
1
  6
Continuous
 62
     4
100
AcDbLine
 10
169.038399244265
 20
-27.84167217907
 30
0.0
 11
169.350899244265
 21
-28.65417217907
 31
0.0
  0
LINE
  5
1BF
330
1F
100
AcDbEntity
  8
1
  6
Continuous
 62
     4
100
AcDbLine
 10
168.788399244265
 20
-28.65417217907
 30
0.0
 11
169.038399244265
 21
-27.84167217907
 31
0.0
  0
LINE
  5
1C0
330
1F
100
AcDbEntity
  8
1
  6
Continuous
 62
     4
100
AcDbLine
 10
168.100899244265
 20
-29.59167217907
 30
0.0
 11
168.788399244265
 21
-28.65417217907
 31
0.0
  0
LINE
  5
1C1
330
1F
100
AcDbEntity
  8
1
  6
Continuous
 62
     4
100
AcDbLine
 10
167.288399244265
 20
-30.52917217907
 30
0.0
 11
168.100899244265
 21
-29.59167217907
 31
0.0
  0
LINE
  5
1C2
330
1F
100
AcDbEntity
  8
1
  6
Continuous
 62
     4
100
AcDbLine
 10
169.038399244265
 20
-26.59167217907
 30
0.0
 11
169.038399244265
 21
-31.46667217907
 31
0.0
  0
LINE
  5
1C3
330
1F
100
AcDbEntity
  8
1
  6
Continuous
 62
     4
100
AcDbLine
 10
167.663399244265
 20
-27.84167217907
 30
0.0
 11
170.475899244265
 21
-27.84167217907
 31
0.0
  0
LINE
  5
1C4
330
1F
100
AcDbEntity
  8
1
  6
Continuous
 62
     4
100
AcDbLine
 10
166.538399244265
 20
-28.46667217907
 30
0.0
 11
166.413399244265
 21
-28.65417217907
 31
0.0
  0
LINE
  5
1C5
330
1F
100
AcDbEntity
  8
1
  6
Continuous
 62
     4
100
AcDbLine
 10
166.975899244265
 20
-27.84167217907
 30
0.0
 11
166.538399244265
 21
-28.46667217907
 31
0.0
  0
LINE
  5
1C6
330
1F
100
AcDbEntity
  8
1
  6
Continuous
 62
     4
100
AcDbLine
 10
167.538399244265
 20
-26.59167217907
 30
0.0
 11
166.975899244265
 21
-27.84167217907
 31
0.0
  0
LINE
  5
1C7
330
1F
100
AcDbEntity
  8
1
  6
Continuous
 62
     4
100
AcDbLine
 10
166.975899244265
 20
-31.46667217907
 30
0.0
 11
166.975899244265
 21
-27.84167217907
 31
0.0
  0
LINE
  5
1C8
330
1F
100
AcDbEntity
  8
1
  6
Continuous
 62
     4
100
AcDbLine
 10
161.413399244265
 20
-28.65417217907
 30
0.0
 11
165.600899244265
 21
-28.65417217907
 31
0.0
  0
LINE
  5
1C9
330
1F
100
AcDbEntity
  8
1
  6
Continuous
 62
     4
100
AcDbLine
 10
156.288399244265
 20
-29.96667217907
 30
0.0
 11
156.288399244265
 21
-26.46667217907
 31
0.0
  0
LINE
  5
1CA
330
1F
100
AcDbEntity
  8
1
  6
Continuous
 62
     4
100
AcDbLine
 10
156.288399244265
 20
-31.46667217907
 30
0.0
 11
156.288399244265
 21
-29.96667217907
 31
0.0
  0
LINE
  5
1CB
330
1F
100
AcDbEntity
  8
1
  6
Continuous
 62
     4
100
AcDbLine
 10
157.288399244265
 20
-28.96667217907
 30
0.0
 11
159.788399244265
 21
-31.46667217907
 31
0.0
  0
LINE
  5
1CC
330
1F
100
AcDbEntity
  8
1
  6
Continuous
 62
     4
100
AcDbLine
 10
159.788399244265
 20
-26.46667217907
 30
0.0
 11
157.288399244265
 21
-28.96667217907
 31
0.0
  0
LINE
  5
1CD
330
1F
100
AcDbEntity
  8
1
  6
Continuous
 62
     4
100
AcDbLine
 10
157.288399244265
 20
-28.96667217907
 30
0.0
 11
156.288399244265
 21
-29.96667217907
 31
0.0
  0
LINE
  5
1CE
330
1F
100
AcDbEntity
  8
1
  6
Continuous
 62
     4
100
AcDbLine
 10
154.788399244265
 20
-28.34167217907
 30
0.0
 11
154.788399244265
 21
-29.59167217907
 31
0.0
  0
LINE
  5
1CF
330
1F
100
AcDbEntity
  8
1
  6
Continuous
 62
     4
100
AcDbLine
 10
154.663399244265
 20
-27.59167217907
 30
0.0
 11
154.788399244265
 21
-28.34167217907
 31
0.0
  0
LINE
  5
1D0
330
1F
100
AcDbEntity
  8
1
  6
Continuous
 62
     4
100
AcDbLine
 10
154.413399244265
 20
-27.09167217907
 30
0.0
 11
154.663399244265
 21
-27.59167217907
 31
0.0
  0
LINE
  5
1D1
330
1F
100
AcDbEntity
  8
1
  6
Continuous
 62
     4
100
AcDbLine
 10
154.163399244265
 20
-26.84167217907
 30
0.0
 11
154.413399244265
 21
-27.09167217907
 31
0.0
  0
LINE
  5
1D2
330
1F
100
AcDbEntity
  8
1
  6
Continuous
 62
     4
100
AcDbLine
 10
153.788399244265
 20
-26.59167217907
 30
0.0
 11
154.163399244265
 21
-26.84167217907
 31
0.0
  0
LINE
  5
1D3
330
1F
100
AcDbEntity
  8
1
  6
Continuous
 62
     4
100
AcDbLine
 10
153.413399244265
 20
-26.46667217907
 30
0.0
 11
153.788399244265
 21
-26.59167217907
 31
0.0
  0
LINE
  5
1D4
330
1F
100
AcDbEntity
  8
1
  6
Continuous
 62
     4
100
AcDbLine
 10
153.163399244265
 20
-26.46667217907
 30
0.0
 11
153.413399244265
 21
-26.46667217907
 31
0.0
  0
LINE
  5
1D5
330
1F
100
AcDbEntity
  8
1
  6
Continuous
 62
     4
100
AcDbLine
 10
152.788399244265
 20
-26.59167217907
 30
0.0
 11
153.163399244265
 21
-26.46667217907
 31
0.0
  0
LINE
  5
1D6
330
1F
100
AcDbEntity
  8
1
  6
Continuous
 62
     4
100
AcDbLine
 10
152.413399244265
 20
-26.84167217907
 30
0.0
 11
152.788399244265
 21
-26.59167217907
 31
0.0
  0
LINE
  5
1D7
330
1F
100
AcDbEntity
  8
1
  6
Continuous
 62
     4
100
AcDbLine
 10
152.163399244265
 20
-27.09167217907
 30
0.0
 11
152.413399244265
 21
-26.84167217907
 31
0.0
  0
LINE
  5
1D8
330
1F
100
AcDbEntity
  8
1
  6
Continuous
 62
     4
100
AcDbLine
 10
151.913399244265
 20
-27.59167217907
 30
0.0
 11
152.163399244265
 21
-27.09167217907
 31
0.0
  0
LINE
  5
1D9
330
1F
100
AcDbEntity
  8
1
  6
Continuous
 62
     4
100
AcDbLine
 10
151.788399244265
 20
-28.34167217907
 30
0.0
 11
151.913399244265
 21
-27.59167217907
 31
0.0
  0
LINE
  5
1DA
330
1F
100
AcDbEntity
  8
1
  6
Continuous
 62
     4
100
AcDbLine
 10
151.788399244265
 20
-29.59167217907
 30
0.0
 11
151.788399244265
 21
-28.34167217907
 31
0.0
  0
LINE
  5
1DB
330
1F
100
AcDbEntity
  8
1
  6
Continuous
 62
     4
100
AcDbLine
 10
151.913399244265
 20
-30.34167217907
 30
0.0
 11
151.788399244265
 21
-29.59167217907
 31
0.0
  0
LINE
  5
1DC
330
1F
100
AcDbEntity
  8
1
  6
Continuous
 62
     4
100
AcDbLine
 10
152.163399244265
 20
-30.84167217907
 30
0.0
 11
151.913399244265
 21
-30.34167217907
 31
0.0
  0
LINE
  5
1DD
330
1F
100
AcDbEntity
  8
1
  6
Continuous
 62
     4
100
AcDbLine
 10
152.413399244265
 20
-31.09167217907
 30
0.0
 11
152.163399244265
 21
-30.84167217907
 31
0.0
  0
LINE
  5
1DE
330
1F
100
AcDbEntity
  8
1
  6
Continuous
 62
     4
100
AcDbLine
 10
152.788399244265
 20
-31.34167217907
 30
0.0
 11
152.413399244265
 21
-31.09167217907
 31
0.0
  0
LINE
  5
1DF
330
1F
100
AcDbEntity
  8
1
  6
Continuous
 62
     4
100
AcDbLine
 10
153.163399244265
 20
-31.46667217907
 30
0.0
 11
152.788399244265
 21
-31.34167217907
 31
0.0
  0
LINE
  5
1E0
330
1F
100
AcDbEntity
  8
1
  6
Continuous
 62
     4
100
AcDbLine
 10
153.413399244265
 20
-31.46667217907
 30
0.0
 11
153.163399244265
 21
-31.46667217907
 31
0.0
  0
LINE
  5
1E1
330
1F
100
AcDbEntity
  8
1
  6
Continuous
 62
     4
100
AcDbLine
 10
153.788399244265
 20
-31.34167217907
 30
0.0
 11
153.413399244265
 21
-31.46667217907
 31
0.0
  0
LINE
  5
1E2
330
1F
100
AcDbEntity
  8
1
  6
Continuous
 62
     4
100
AcDbLine
 10
154.163399244265
 20
-31.09167217907
 30
0.0
 11
153.788399244265
 21
-31.34167217907
 31
0.0
  0
LINE
  5
1E3
330
1F
100
AcDbEntity
  8
1
  6
Continuous
 62
     4
100
AcDbLine
 10
154.413399244265
 20
-30.84167217907
 30
0.0
 11
154.163399244265
 21
-31.09167217907
 31
0.0
  0
LINE
  5
1E4
330
1F
100
AcDbEntity
  8
1
  6
Continuous
 62
     4
100
AcDbLine
 10
154.663399244265
 20
-30.34167217907
 30
0.0
 11
154.413399244265
 21
-30.84167217907
 31
0.0
  0
LINE
  5
1E5
330
1F
100
AcDbEntity
  8
1
  6
Continuous
 62
     4
100
AcDbLine
 10
154.788399244265
 20
-29.59167217907
 30
0.0
 11
154.663399244265
 21
-30.34167217907
 31
0.0
  0
LINE
  5
1E6
330
1F
100
AcDbEntity
  8
1
  6
Continuous
 62
     4
100
AcDbLine
 10
150.288399244265
 20
-26.46667217907
 30
0.0
 11
150.288399244265
 21
-31.46667217907
 31
0.0
  0
LINE
  5
1E7
330
1F
100
AcDbEntity
  8
1
  6
Continuous
 62
     4
100
AcDbLine
 10
148.788399244265
 20
-27.96667217907
 30
0.0
 11
150.288399244265
 21
-26.46667217907
 31
0.0
  0
LINE
  5
1E8
330
1F
100
AcDbEntity
  8
1
  6
Continuous
 62
     4
100
AcDbLine
 10
378.75583153782
 20
394.266616892471
 30
0.0
 11
375.00583153782
 21
394.266616892471
 31
0.0
  0
LINE
  5
1E9
330
1F
100
AcDbEntity
  8
1
  6
Continuous
 62
     4
100
AcDbLine
 10
379.50583153782
 20
394.516616892471
 30
0.0
 11
378.75583153782
 21
394.266616892471
 31
0.0
  0
LINE
  5
1EA
330
1F
100
AcDbEntity
  8
1
  6
Continuous
 62
     4
100
AcDbLine
 10
380.25583153782
 20
395.016616892471
 30
0.0
 11
379.50583153782
 21
394.516616892471
 31
0.0
  0
LINE
  5
1EB
330
1F
100
AcDbEntity
  8
1
  6
Continuous
 62
     4
100
AcDbLine
 10
380.75583153782
 20
395.766616892471
 30
0.0
 11
380.25583153782
 21
395.016616892471
 31
0.0
  0
LINE
  5
1EC
330
1F
100
AcDbEntity
  8
1
  6
Continuous
 62
     4
100
AcDbLine
 10
381.00583153782
 20
396.766616892471
 30
0.0
 11
380.75583153782
 21
395.766616892471
 31
0.0
  0
LINE
  5
1ED
330
1F
100
AcDbEntity
  8
1
  6
Continuous
 62
     4
100
AcDbLine
 10
381.00583153782
 20
398.266616892471
 30
0.0
 11
381.00583153782
 21
396.766616892471
 31
0.0
  0
LINE
  5
1EE
330
1F
100
AcDbEntity
  8
1
  6
Continuous
 62
     4
100
AcDbLine
 10
380.75583153782
 20
399.266616892471
 30
0.0
 11
381.00583153782
 21
398.266616892471
 31
0.0
  0
LINE
  5
1EF
330
1F
100
AcDbEntity
  8
1
  6
Continuous
 62
     4
100
AcDbLine
 10
380.00583153782
 20
400.016616892471
 30
0.0
 11
380.75583153782
 21
399.266616892471
 31
0.0
  0
LINE
  5
1F0
330
1F
100
AcDbEntity
  8
1
  6
Continuous
 62
     4
100
AcDbLine
 10
378.75583153782
 20
400.266616892471
 30
0.0
 11
380.00583153782
 21
400.016616892471
 31
0.0
  0
LINE
  5
1F1
330
1F
100
AcDbEntity
  8
1
  6
Continuous
 62
     4
100
AcDbLine
 10
375.00583153782
 20
400.266616892471
 30
0.0
 11
378.75583153782
 21
400.266616892471
 31
0.0
  0
LINE
  5
1F2
330
1F
100
AcDbEntity
  8
1
  6
Continuous
 62
     4
100
AcDbLine
 10
375.00583153782
 20
404.266616892471
 30
0.0
 11
375.00583153782
 21
400.266616892471
 31
0.0
  0
LINE
  5
1F3
330
1F
100
AcDbEntity
  8
1
  6
Continuous
 62
     4
100
AcDbLine
 10
380.50583153782
 20
404.266616892471
 30
0.0
 11
375.00583153782
 21
404.266616892471
 31
0.0
  0
LINE
  5
1F4
330
1F
100
AcDbEntity
  8
1
  6
Continuous
 62
     4
100
AcDbLine
 10
367.75583153782
 20
402.016616892471
 30
0.0
 11
370.50583153782
 21
404.266616892471
 31
0.0
  0
LINE
  5
1F5
330
1F
100
AcDbEntity
  8
1
  6
Continuous
 62
     4
100
AcDbLine
 10
366.75583153782
 20
400.766616892471
 30
0.0
 11
367.75583153782
 21
402.016616892471
 31
0.0
  0
LINE
  5
1F6
330
1F
100
AcDbEntity
  8
1
  6
Continuous
 62
     4
100
AcDbLine
 10
366.25583153782
 20
399.766616892471
 30
0.0
 11
366.75583153782
 21
400.766616892471
 31
0.0
  0
LINE
  5
1F7
330
1F
100
AcDbEntity
  8
1
  6
Continuous
 62
     4
100
AcDbLine
 10
366.00583153782
 20
397.766616892471
 30
0.0
 11
366.25583153782
 21
399.766616892471
 31
0.0
  0
LINE
  5
1F8
330
1F
100
AcDbEntity
  8
1
  6
Continuous
 62
     4
100
AcDbLine
 10
366.00583153782
 20
396.766616892471
 30
0.0
 11
366.00583153782
 21
397.766616892471
 31
0.0
  0
LINE
  5
1F9
330
1F
100
AcDbEntity
  8
1
  6
Continuous
 62
     4
100
AcDbLine
 10
366.25583153782
 20
395.766616892471
 30
0.0
 11
366.00583153782
 21
396.766616892471
 31
0.0
  0
LINE
  5
1FA
330
1F
100
AcDbEntity
  8
1
  6
Continuous
 62
     4
100
AcDbLine
 10
366.75583153782
 20
395.016616892471
 30
0.0
 11
366.25583153782
 21
395.766616892471
 31
0.0
  0
LINE
  5
1FB
330
1F
100
AcDbEntity
  8
1
  6
Continuous
 62
     4
100
AcDbLine
 10
367.50583153782
 20
394.516616892471
 30
0.0
 11
366.75583153782
 21
395.016616892471
 31
0.0
  0
LINE
  5
1FC
330
1F
100
AcDbEntity
  8
1
  6
Continuous
 62
     4
100
AcDbLine
 10
368.25583153782
 20
394.266616892471
 30
0.0
 11
367.50583153782
 21
394.516616892471
 31
0.0
  0
LINE
  5
1FD
330
1F
100
AcDbEntity
  8
1
  6
Continuous
 62
     4
100
AcDbLine
 10
369.75583153782
 20
394.266616892471
 30
0.0
 11
368.25583153782
 21
394.266616892471
 31
0.0
  0
LINE
  5
1FE
330
1F
100
AcDbEntity
  8
1
  6
Continuous
 62
     4
100
AcDbLine
 10
370.50583153782
 20
394.516616892471
 30
0.0
 11
369.75583153782
 21
394.266616892471
 31
0.0
  0
LINE
  5
1FF
330
1F
100
AcDbEntity
  8
1
  6
Continuous
 62
     4
100
AcDbLine
 10
371.25583153782
 20
395.016616892471
 30
0.0
 11
370.50583153782
 21
394.516616892471
 31
0.0
  0
LINE
  5
200
330
1F
100
AcDbEntity
  8
1
  6
Continuous
 62
     4
100
AcDbLine
 10
371.75583153782
 20
395.766616892471
 30
0.0
 11
371.25583153782
 21
395.016616892471
 31
0.0
  0
LINE
  5
201
330
1F
100
AcDbEntity
  8
1
  6
Continuous
 62
     4
100
AcDbLine
 10
372.00583153782
 20
396.766616892471
 30
0.0
 11
371.75583153782
 21
395.766616892471
 31
0.0
  0
LINE
  5
202
330
1F
100
AcDbEntity
  8
1
  6
Continuous
 62
     4
100
AcDbLine
 10
372.00583153782
 20
397.766616892471
 30
0.0
 11
372.00583153782
 21
396.766616892471
 31
0.0
  0
LINE
  5
203
330
1F
100
AcDbEntity
  8
1
  6
Continuous
 62
     4
100
AcDbLine
 10
371.75583153782
 20
398.766616892471
 30
0.0
 11
372.00583153782
 21
397.766616892471
 31
0.0
  0
LINE
  5
204
330
1F
100
AcDbEntity
  8
1
  6
Continuous
 62
     4
100
AcDbLine
 10
371.25583153782
 20
399.516616892471
 30
0.0
 11
371.75583153782
 21
398.766616892471
 31
0.0
  0
LINE
  5
205
330
1F
100
AcDbEntity
  8
1
  6
Continuous
 62
     4
100
AcDbLine
 10
370.50583153782
 20
400.016616892471
 30
0.0
 11
371.25583153782
 21
399.516616892471
 31
0.0
  0
LINE
  5
206
330
1F
100
AcDbEntity
  8
1
  6
Continuous
 62
     4
100
AcDbLine
 10
369.75583153782
 20
400.266616892471
 30
0.0
 11
370.50583153782
 21
400.016616892471
 31
0.0
  0
LINE
  5
207
330
1F
100
AcDbEntity
  8
1
  6
Continuous
 62
     4
100
AcDbLine
 10
368.25583153782
 20
400.266616892471
 30
0.0
 11
369.75583153782
 21
400.266616892471
 31
0.0
  0
LINE
  5
208
330
1F
100
AcDbEntity
  8
1
  6
Continuous
 62
     4
100
AcDbLine
 10
367.50583153782
 20
400.016616892471
 30
0.0
 11
368.25583153782
 21
400.266616892471
 31
0.0
  0
LINE
  5
209
330
1F
100
AcDbEntity
  8
1
  6
Continuous
 62
     4
100
AcDbLine
 10
366.75583153782
 20
399.516616892471
 30
0.0
 11
367.50583153782
 21
400.016616892471
 31
0.0
  0
LINE
  5
20A
330
1F
100
AcDbEntity
  8
1
  6
Continuous
 62
     4
100
AcDbLine
 10
366.25583153782
 20
398.766616892471
 30
0.0
 11
366.75583153782
 21
399.516616892471
 31
0.0
  0
LINE
  5
20B
330
1F
100
AcDbEntity
  8
1
  6
Continuous
 62
     4
100
AcDbLine
 10
366.00583153782
 20
397.766616892471
 30
0.0
 11
366.25583153782
 21
398.766616892471
 31
0.0
  0
LINE
  5
20C
330
1F
100
AcDbEntity
  8
1
  6
Continuous
 62
     4
100
AcDbLine
 10
358.00583153782
 20
397.766616892471
 30
0.0
 11
363.00583153782
 21
397.766616892471
 31
0.0
  0
LINE
  5
20D
330
1F
100
AcDbEntity
  8
1
  6
Continuous
 62
     4
100
AcDbLine
 10
348.00583153782
 20
399.766616892471
 30
0.0
 11
348.00583153782
 21
399.266616892471
 31
0.0
  0
LINE
  5
20E
330
1F
100
AcDbEntity
  8
1
  6
Continuous
 62
     4
100
AcDbLine
 10
355.00583153782
 20
399.766616892471
 30
0.0
 11
355.00583153782
 21
394.266616892471
 31
0.0
  0
LINE
  5
20F
330
1F
100
AcDbEntity
  8
1
  6
Continuous
 62
     4
100
AcDbLine
 10
348.00583153782
 20
399.266616892471
 30
0.0
 11
348.00583153782
 21
394.266616892471
 31
0.0
  0
LINE
  5
210
330
1F
100
AcDbEntity
  8
1
  6
Continuous
 62
     4
100
AcDbLine
 10
348.00583153782
 20
404.266616892471
 30
0.0
 11
348.00583153782
 21
399.766616892471
 31
0.0
  0
LINE
  5
211
330
1F
100
AcDbEntity
  8
1
  6
Continuous
 62
     4
100
AcDbLine
 10
348.00583153782
 20
399.766616892471
 30
0.0
 11
355.00583153782
 21
399.766616892471
 31
0.0
  0
LINE
  5
212
330
1F
100
AcDbEntity
  8
1
  6
Continuous
 62
     4
100
AcDbLine
 10
355.00583153782
 20
404.266616892471
 30
0.0
 11
355.00583153782
 21
399.766616892471
 31
0.0
  0
LINE
  5
213
330
1F
100
AcDbEntity
  8
1
  6
Continuous
 62
     4
100
AcDbLine
 10
338.50583153782
 20
399.766616892471
 30
0.0
 11
338.50583153782
 21
404.266616892471
 31
0.0
  0
LINE
  5
214
330
1F
100
AcDbEntity
  8
1
  6
Continuous
 62
     4
100
AcDbLine
 10
343.25583153782
 20
400.016616892471
 30
0.0
 11
342.50583153782
 21
399.766616892471
 31
0.0
  0
LINE
  5
215
330
1F
100
AcDbEntity
  8
1
  6
Continuous
 62
     4
100
AcDbLine
 10
344.00583153782
 20
400.516616892471
 30
0.0
 11
343.25583153782
 21
400.016616892471
 31
0.0
  0
LINE
  5
216
330
1F
100
AcDbEntity
  8
1
  6
Continuous
 62
     4
100
AcDbLine
 10
344.50583153782
 20
401.516616892471
 30
0.0
 11
344.00583153782
 21
400.516616892471
 31
0.0
  0
LINE
  5
217
330
1F
100
AcDbEntity
  8
1
  6
Continuous
 62
     4
100
AcDbLine
 10
344.50583153782
 20
402.266616892471
 30
0.0
 11
344.50583153782
 21
401.516616892471
 31
0.0
  0
LINE
  5
218
330
1F
100
AcDbEntity
  8
1
  6
Continuous
 62
     4
100
AcDbLine
 10
344.25583153782
 20
403.266616892471
 30
0.0
 11
344.50583153782
 21
402.266616892471
 31
0.0
  0
LINE
  5
219
330
1F
100
AcDbEntity
  8
1
  6
Continuous
 62
     4
100
AcDbLine
 10
343.50583153782
 20
404.016616892471
 30
0.0
 11
344.25583153782
 21
403.266616892471
 31
0.0
  0
LINE
  5
21A
330
1F
100
AcDbEntity
  8
1
  6
Continuous
 62
     4
100
AcDbLine
 10
342.25583153782
 20
404.266616892471
 30
0.0
 11
343.50583153782
 21
404.016616892471
 31
0.0
  0
LINE
  5
21B
330
1F
100
AcDbEntity
  8
1
  6
Continuous
 62
     4
100
AcDbLine
 10
338.50583153782
 20
404.266616892471
 30
0.0
 11
342.25583153782
 21
404.266616892471
 31
0.0
  0
LINE
  5
21C
330
1F
100
AcDbEntity
  8
1
  6
Continuous
 62
     4
100
AcDbLine
 10
338.50583153782
 20
394.266616892471
 30
0.0
 11
338.50583153782
 21
399.766616892471
 31
0.0
  0
LINE
  5
21D
330
1F
100
AcDbEntity
  8
1
  6
Continuous
 62
     4
100
AcDbLine
 10
343.00583153782
 20
394.266616892471
 30
0.0
 11
338.50583153782
 21
394.266616892471
 31
0.0
  0
LINE
  5
21E
330
1F
100
AcDbEntity
  8
1
  6
Continuous
 62
     4
100
AcDbLine
 10
344.00583153782
 20
394.766616892471
 30
0.0
 11
343.00583153782
 21
394.266616892471
 31
0.0
  0
LINE
  5
21F
330
1F
100
AcDbEntity
  8
1
  6
Continuous
 62
     4
100
AcDbLine
 10
344.50583153782
 20
395.266616892471
 30
0.0
 11
344.00583153782
 21
394.766616892471
 31
0.0
  0
LINE
  5
220
330
1F
100
AcDbEntity
  8
1
  6
Continuous
 62
     4
100
AcDbLine
 10
345.00583153782
 20
396.266616892471
 30
0.0
 11
344.50583153782
 21
395.266616892471
 31
0.0
  0
LINE
  5
221
330
1F
100
AcDbEntity
  8
1
  6
Continuous
 62
     4
100
AcDbLine
 10
345.00583153782
 20
397.516616892471
 30
0.0
 11
345.00583153782
 21
396.266616892471
 31
0.0
  0
LINE
  5
222
330
1F
100
AcDbEntity
  8
1
  6
Continuous
 62
     4
100
AcDbLine
 10
344.50583153782
 20
398.766616892471
 30
0.0
 11
345.00583153782
 21
397.516616892471
 31
0.0
  0
LINE
  5
223
330
1F
100
AcDbEntity
  8
1
  6
Continuous
 62
     4
100
AcDbLine
 10
344.00583153782
 20
399.266616892471
 30
0.0
 11
344.50583153782
 21
398.766616892471
 31
0.0
  0
LINE
  5
224
330
1F
100
AcDbEntity
  8
1
  6
Continuous
 62
     4
100
AcDbLine
 10
343.00583153782
 20
399.766616892471
 30
0.0
 11
344.00583153782
 21
399.266616892471
 31
0.0
  0
LINE
  5
225
330
1F
100
AcDbEntity
  8
1
  6
Continuous
 62
     4
100
AcDbLine
 10
342.50583153782
 20
399.766616892471
 30
0.0
 11
343.00583153782
 21
399.766616892471
 31
0.0
  0
LINE
  5
226
330
1F
100
AcDbEntity
  8
1
  6
Continuous
 62
     4
100
AcDbLine
 10
338.50583153782
 20
399.766616892471
 30
0.0
 11
342.50583153782
 21
399.766616892471
 31
0.0
  0
LINE
  5
227
330
1F
100
AcDbEntity
  8
1
  6
Continuous
 62
     4
100
AcDbLine
 10
24.0
 20
-182.148
 30
0.0
 11
25.400402932418
 21
-184.920190930365
 31
0.0
  0
LINE
  5
228
330
1F
100
AcDbEntity
  8
1
  6
Continuous
 62
     4
100
AcDbLine
 10
24.0
 20
-182.148
 30
0.0
 11
26.5988799801905
 21
-183.848586303628
 31
0.0
  0
LINE
  5
229
330
1F
100
AcDbEntity
  8
1
  6
Continuous
 62
     4
100
AcDbLine
 10
105.0
 20
0.0
 30
0.0
 11
106.218774871777
 21
-2.85670417429674
 31
0.0
  0
LINE
  5
22A
330
1F
100
AcDbEntity
  8
1
  6
Continuous
 62
     4
100
AcDbLine
 10
105.0
 20
0.0
 30
0.0
 11
107.483842087602
 21
-1.86459095014933
 31
0.0
  0
LINE
  5
22B
330
1F
100
AcDbEntity
  8
100
  6
Continuous
 62
     3
100
AcDbLine
 10
-43.0
 20
72.0
 30
0.0
 11
-43.0
 21
101.0
 31
0.0
  0
LINE
  5
22C
330
1F
100
AcDbEntity
  8
100
  6
Continuous
 62
     3
100
AcDbLine
 10
-38.0
 20
72.0
 30
0.0
 11
-37.5
 21
72.0
 31
0.0
  0
LINE
  5
22D
330
1F
100
AcDbEntity
  8
100
  6
Continuous
 62
     3
100
AcDbLine
 10
43.0
 20
72.0
 30
0.0
 11
43.0
 21
101.0
 31
0.0
  0
LINE
  5
22E
330
1F
100
AcDbEntity
  8
100
  6
Continuous
 62
     3
100
AcDbLine
 10
38.0
 20
72.0
 30
0.0
 11
37.5
 21
72.0
 31
0.0
  0
LINE
  5
22F
330
1F
100
AcDbEntity
  8
100
  6
Continuous
 62
     3
100
AcDbLine
 10
-43.0
 20
101.0
 30
0.0
 11
43.0
 21
101.0
 31
0.0
  0
LINE
  5
230
330
1F
100
AcDbEntity
  8
100
  6
Continuous
 62
     3
100
AcDbLine
 10
-46.55
 20
-67.0
 30
0.0
 11
-46.55
 21
-90.0
 31
0.0
  0
LINE
  5
231
330
1F
100
AcDbEntity
  8
100
  6
Continuous
 62
     3
100
AcDbLine
 10
46.55
 20
-67.0
 30
0.0
 11
46.55
 21
-90.0
 31
0.0
  0
LINE
  5
232
330
1F
100
AcDbEntity
  8
100
  6
Continuous
 62
     3
100
AcDbLine
 10
-46.55
 20
-90.0
 30
0.0
 11
46.55
 21
-90.0
 31
0.0
  0
LINE
  5
233
330
1F
100
AcDbEntity
  8
100
  6
Continuous
 62
     3
100
AcDbLine
 10
-46.55
 20
-67.0
 30
0.0
 11
46.55
 21
-67.0
 31
0.0
  0
LINE
  5
234
330
1F
100
AcDbEntity
  8
100
  6
Continuous
 62
     3
100
AcDbLine
 10
36.2601387097952
 20
-99.0
 30
0.0
 11
-36.2601387097952
 21
-99.0
 31
0.0
  0
LINE
  5
235
330
1F
100
AcDbEntity
  8
100
  6
Continuous
 62
     3
100
AcDbLine
 10
-21.0
 20
159.0
 30
0.0
 11
21.0
 21
159.0
 31
0.0
  0
LINE
  5
236
330
1F
100
AcDbEntity
  8
100
  6
Continuous
 62
     3
100
AcDbLine
 10
-21.0
 20
128.0
 30
0.0
 11
-21.0
 21
159.0
 31
0.0
  0
LINE
  5
237
330
1F
100
AcDbEntity
  8
100
  6
Continuous
 62
     3
100
AcDbLine
 10
-44.0
 20
103.5
 30
0.0
 11
-44.0
 21
103.808674427162
 31
0.0
  0
LINE
  5
238
330
1F
100
AcDbEntity
  8
100
  6
Continuous
 62
     3
100
AcDbLine
 10
-28.8675000000001
 20
108.0
 30
0.0
 11
-28.8675000000001
 21
128.0
 31
0.0
  0
LINE
  5
239
330
1F
100
AcDbEntity
  8
100
  6
Continuous
 62
     3
100
AcDbLine
 10
-41.8275661235291
 20
106.287121609314
 30
0.0
 11
-28.8675000000001
 21
108.0
 31
0.0
  0
LINE
  5
23A
330
1F
100
AcDbEntity
  8
100
  6
Continuous
 62
     3
100
AcDbLine
 10
41.827566123529
 20
106.287121609314
 30
0.0
 11
28.8675000000001
 21
108.0
 31
0.0
  0
LINE
  5
23B
330
1F
100
AcDbEntity
  8
100
  6
Continuous
 62
     3
100
AcDbLine
 10
28.8675000000001
 20
108.0
 30
0.0
 11
28.8675000000001
 21
128.0
 31
0.0
  0
LINE
  5
23C
330
1F
100
AcDbEntity
  8
100
  6
Continuous
 62
     3
100
AcDbLine
 10
21.0
 20
128.0
 30
0.0
 11
21.0
 21
159.0
 31
0.0
  0
LINE
  5
23D
330
1F
100
AcDbEntity
  8
2
  6
PHANTOM
 62
     6
100
AcDbLine
 10
17.5
 20
169.253498853239
 30
0.0
 11
17.5
 21
166.0
 31
0.0
  0
LINE
  5
23E
330
1F
100
AcDbEntity
  8
2
  6
PHANTOM
 62
     6
100
AcDbLine
 10
17.5
 20
166.0
 30
0.0
 11
-17.5
 21
166.0
 31
0.0
  0
LINE
  5
23F
330
1F
100
AcDbEntity
  8
2
  6
PHANTOM
 62
     6
100
AcDbLine
 10
30.4003163308657
 20
184.0
 30
0.0
 11
19.5437523009056
 21
173.378717831694
 31
0.0
  0
LINE
  5
240
330
1F
100
AcDbEntity
  8
100
  6
Continuous
 62
     3
100
AcDbLine
 10
-32.5
 20
-67.0
 30
0.0
 11
-32.5
 21
-44.9959999359978
 31
0.0
  0
LINE
  5
241
330
1F
100
AcDbEntity
  8
100
  6
Continuous
 62
     3
100
AcDbLine
 10
32.5
 20
-67.0
 30
0.0
 11
32.5
 21
-44.995999935998
 31
0.0
  0
LINE
  5
242
330
1F
100
AcDbEntity
  8
100
  6
Continuous
 62
     3
100
AcDbLine
 10
105.0
 20
87.0
 30
0.0
 11
105.0
 21
-87.0
 31
0.0
  0
LINE
  5
243
330
1F
100
AcDbEntity
  8
100
  6
Continuous
 62
     3
100
AcDbLine
 10
-32.5
 20
72.0
 30
0.0
 11
-32.5
 21
44.995999935998
 31
0.0
  0
LINE
  5
244
330
1F
100
AcDbEntity
  8
100
  6
Continuous
 62
     3
100
AcDbLine
 10
32.5
 20
44.995999935998
 30
0.0
 11
32.5
 21
72.0
 31
0.0
  0
LINE
  5
245
330
1F
100
AcDbEntity
  8
100
  6
Continuous
 62
     3
100
AcDbLine
 10
87.0
 20
87.0
 30
0.0
 11
105.0
 21
87.0
 31
0.0
  0
LINE
  5
246
330
1F
100
AcDbEntity
  8
100
  6
Continuous
 62
     3
100
AcDbLine
 10
87.0
 20
-87.0
 30
0.0
 11
105.0
 21
-87.0
 31
0.0
  0
LINE
  5
247
330
1F
100
AcDbEntity
  8
100
  6
Continuous
 62
     3
100
AcDbLine
 10
87.0
 20
87.0
 30
0.0
 11
87.0
 21
-87.0
 31
0.0
  0
LINE
  5
248
330
1F
100
AcDbEntity
  8
100
  6
Continuous
 62
     3
100
AcDbLine
 10
87.0
 20
42.0
 30
0.0
 11
57.0
 21
36.0
 31
0.0
  0
LINE
  5
249
330
1F
100
AcDbEntity
  8
100
  6
Continuous
 62
     3
100
AcDbLine
 10
87.0
 20
-42.0
 30
0.0
 11
57.0
 21
-36.0
 31
0.0
  0
LINE
  5
24A
330
1F
100
AcDbEntity
  8
100
  6
Continuous
 62
     3
100
AcDbLine
 10
-105.0
 20
87.0
 30
0.0
 11
-105.0
 21
-87.0
 31
0.0
  0
LINE
  5
24B
330
1F
100
AcDbEntity
  8
100
  6
Continuous
 62
     3
100
AcDbLine
 10
-87.0
 20
42.0
 30
0.0
 11
-57.0
 21
36.0
 31
0.0
  0
LINE
  5
24C
330
1F
100
AcDbEntity
  8
100
  6
Continuous
 62
     3
100
AcDbLine
 10
-87.0
 20
87.0
 30
0.0
 11
-105.0
 21
87.0
 31
0.0
  0
LINE
  5
24D
330
1F
100
AcDbEntity
  8
100
  6
Continuous
 62
     3
100
AcDbLine
 10
-87.0
 20
87.0
 30
0.0
 11
-87.0
 21
-87.0
 31
0.0
  0
LINE
  5
24E
330
1F
100
AcDbEntity
  8
100
  6
Continuous
 62
     3
100
AcDbLine
 10
-87.0
 20
-42.0
 30
0.0
 11
-57.0
 21
-36.0
 31
0.0
  0
LINE
  5
24F
330
1F
100
AcDbEntity
  8
100
  6
Continuous
 62
     3
100
AcDbLine
 10
-87.0
 20
-87.0
 30
0.0
 11
-105.0
 21
-87.0
 31
0.0
  0
LINE
  5
250
330
1F
100
AcDbEntity
  8
2
  6
DOT_CENTER
 62
     1
100
AcDbLine
 10
81.0
 20
70.0
 30
0.0
 11
111.0
 21
70.0
 31
0.0
  0
LINE
  5
251
330
1F
100
AcDbEntity
  8
2
  6
DOT_CENTER
 62
     1
100
AcDbLine
 10
81.0
 20
-70.0
 30
0.0
 11
111.0
 21
-70.0
 31
0.0
  0
LINE
  5
252
330
1F
100
AcDbEntity
  8
2
  6
DASHED
 62
     3
100
AcDbLine
 10
87.0
 20
-60.5
 30
0.0
 11
105.0
 21
-60.5
 31
0.0
  0
LINE
  5
253
330
1F
100
AcDbEntity
  8
2
  6
DASHED
 62
     3
100
AcDbLine
 10
87.0
 20
-79.5
 30
0.0
 11
105.0
 21
-79.5
 31
0.0
  0
LINE
  5
254
330
1F
100
AcDbEntity
  8
2
  6
DOT_CENTER
 62
     1
100
AcDbLine
 10
-81.0
 20
70.0
 30
0.0
 11
-111.0
 21
70.0
 31
0.0
  0
LINE
  5
255
330
1F
100
AcDbEntity
  8
2
  6
DASHED
 62
     3
100
AcDbLine
 10
-87.0
 20
-60.5
 30
0.0
 11
-105.0
 21
-60.5
 31
0.0
  0
LINE
  5
256
330
1F
100
AcDbEntity
  8
2
  6
DOT_CENTER
 62
     1
100
AcDbLine
 10
-81.0
 20
-70.0
 30
0.0
 11
-111.0
 21
-70.0
 31
0.0
  0
LINE
  5
257
330
1F
100
AcDbEntity
  8
2
  6
DASHED
 62
     3
100
AcDbLine
 10
-87.0
 20
-79.5
 30
0.0
 11
-105.0
 21
-79.5
 31
0.0
  0
LINE
  5
258
330
1F
100
AcDbEntity
  8
100
  6
Continuous
 62
     3
100
AcDbLine
 10
48.8799549917962
 20
36.0
 30
0.0
 11
57.0
 21
36.0
 31
0.0
  0
LINE
  5
259
330
1F
100
AcDbEntity
  8
100
  6
Continuous
 62
     3
100
AcDbLine
 10
48.8799549917962
 20
-36.0
 30
0.0
 11
57.0
 21
-36.0
 31
0.0
  0
LINE
  5
25A
330
1F
100
AcDbEntity
  8
100
  6
Continuous
 62
     3
100
AcDbLine
 10
-57.0
 20
36.0
 30
0.0
 11
-48.879954991796
 21
36.0
 31
0.0
  0
LINE
  5
25B
330
1F
100
AcDbEntity
  8
100
  6
Continuous
 62
     3
100
AcDbLine
 10
-57.0
 20
-36.0
 30
0.0
 11
-48.879954991796
 21
-36.0
 31
0.0
  0
LINE
  5
25C
330
1F
100
AcDbEntity
  8
100
  6
Continuous
 62
     3
100
AcDbLine
 10
-29.6500000000001
 20
-99.0
 30
0.0
 11
-29.6500000000001
 21
-90.0
 31
0.0
  0
LINE
  5
25D
330
1F
100
AcDbEntity
  8
100
  6
Continuous
 62
     3
100
AcDbLine
 10
29.6499999999999
 20
-99.0
 30
0.0
 11
29.6500000000001
 21
-90.0
 31
0.0
  0
LINE
  5
25E
330
1F
100
AcDbEntity
  8
100
  6
Continuous
 62
     3
100
AcDbLine
 10
24.0
 20
-128.0
 30
0.0
 11
24.0
 21
-182.148
 31
0.0
  0
LINE
  5
25F
330
1F
100
AcDbEntity
  8
100
  6
Continuous
 62
     3
100
AcDbLine
 10
-24.0
 20
-128.0
 30
0.0
 11
-24.0
 21
-182.148
 31
0.0
  0
LINE
  5
260
330
1F
100
AcDbEntity
  8
100
  6
Continuous
 62
     3
100
AcDbLine
 10
23.504625
 20
-198.0
 30
0.0
 11
-23.504625
 21
-198.0
 31
0.0
  0
LINE
  5
261
330
1F
100
AcDbEntity
  8
100
  6
Continuous
 62
     3
100
AcDbLine
 10
24.0
 20
-169.0
 30
0.0
 11
-24.0
 21
-169.0
 31
0.0
  0
LINE
  5
262
330
1F
100
AcDbEntity
  8
100
  6
Continuous
 62
     3
100
AcDbLine
 10
23.504625
 20
-198.0
 30
0.0
 11
24.0
 21
-182.148
 31
0.0
  0
LINE
  5
263
330
1F
100
AcDbEntity
  8
2
  6
Continuous
 62
     1
100
AcDbLine
 10
22.0249030082557
 20
-198.0
 30
0.0
 11
22.9311530082557
 21
-169.0
 31
0.0
  0
LINE
  5
264
330
1F
100
AcDbEntity
  8
2
  6
Continuous
 62
     3
100
AcDbLine
 10
24.0
 20
-167.148702704782
 30
0.0
 11
22.9311530082557
 21
-169.0
 31
0.0
  0
LINE
  5
265
330
1F
100
AcDbEntity
  8
2
  6
Continuous
 62
     1
100
AcDbLine
 10
-22.0249030082557
 20
-198.0
 30
0.0
 11
-22.9311530082557
 21
-169.0
 31
0.0
  0
LINE
  5
266
330
1F
100
AcDbEntity
  8
2
  6
Continuous
 62
     3
100
AcDbLine
 10
-24.0
 20
-167.148702704782
 30
0.0
 11
-22.9311530082557
 21
-169.0
 31
0.0
  0
LINE
  5
267
330
1F
100
AcDbEntity
  8
100
  6
Continuous
 62
     3
100
AcDbLine
 10
-23.504625
 20
-198.0
 30
0.0
 11
-24.0
 21
-182.148
 31
0.0
  0
LINE
  5
268
330
1F
100
AcDbEntity
  8
100
  6
Continuous
 62
     3
100
AcDbLine
 10
-14.4337567297407
 20
108.0
 30
0.0
 11
-14.4337567297407
 21
128.0
 31
0.0
  0
LINE
  5
269
330
1F
100
AcDbEntity
  8
100
  6
Continuous
 62
     3
100
AcDbLine
 10
14.4337567297407
 20
108.0
 30
0.0
 11
14.4337567297407
 21
128.0
 31
0.0
  0
LINE
  5
26A
330
1F
100
AcDbEntity
  8
100
  6
Continuous
 62
     3
100
AcDbLine
 10
-43.0
 20
72.0
 30
0.0
 11
43.0
 21
72.0
 31
0.0
  0
LINE
  5
26B
330
1F
100
AcDbEntity
  8
100
  6
Continuous
 62
     3
100
AcDbLine
 10
-17.7463687912523
 20
42.0
 30
0.0
 11
17.7463687912521
 21
42.0
 31
0.0
  0
LINE
  5
26C
330
1F
100
AcDbEntity
  8
100
  6
Continuous
 62
     3
100
AcDbLine
 10
-17.7463687912523
 20
-42.0
 30
0.0
 11
17.7463687912521
 21
-42.0
 31
0.0
  0
LINE
  5
26D
330
1F
100
AcDbEntity
  8
100
  6
Continuous
 62
     3
100
AcDbLine
 10
-32.9107751833978
 20
-90.0
 30
0.0
 11
-32.9107751833978
 21
-67.0
 31
0.0
  0
LINE
  5
26E
330
1F
100
AcDbEntity
  8
100
  6
Continuous
 62
     3
100
AcDbLine
 10
32.9107751833976
 20
-90.0
 30
0.0
 11
32.9107751833976
 21
-67.0
 31
0.0
  0
LINE
  5
26F
330
1F
100
AcDbEntity
  8
100
  6
Continuous
 62
     3
100
AcDbLine
 10
-0.00000000000023
 20
-90.0
 30
0.0
 11
-0.00000000000023
 21
-67.0
 31
0.0
  0
LINE
  5
270
330
1F
100
AcDbEntity
  8
100
  6
Continuous
 62
     3
100
AcDbLine
 10
33.5
 20
-128.0
 30
0.0
 11
-33.5
 21
-128.0
 31
0.0
  0
LINE
  5
271
330
1F
100
AcDbEntity
  8
100
  6
Continuous
 62
     3
100
AcDbLine
 10
-33.5
 20
-128.0
 30
0.0
 11
-33.5
 21
-123.0
 31
0.0
  0
LINE
  5
272
330
1F
100
AcDbEntity
  8
100
  6
Continuous
 62
     3
100
AcDbLine
 10
33.5
 20
-128.0
 30
0.0
 11
33.5
 21
-123.0
 31
0.0
  0
LINE
  5
273
330
1F
100
AcDbEntity
  8
100
  6
Continuous
 62
     3
100
AcDbLine
 10
-36.2601387097952
 20
-123.0
 30
0.0
 11
36.2601387097952
 21
-123.0
 31
0.0
  0
LINE
  5
274
330
1F
100
AcDbEntity
  8
100
  6
Continuous
 62
     3
100
AcDbLine
 10
-36.2601387097952
 20
-123.0
 30
0.0
 11
-36.2601387097952
 21
-99.0
 31
0.0
  0
LINE
  5
275
330
1F
100
AcDbEntity
  8
100
  6
Continuous
 62
     3
100
AcDbLine
 10
36.2601387097952
 20
-123.0
 30
0.0
 11
36.2601387097952
 21
-99.0
 31
0.0
  0
LINE
  5
276
330
1F
100
AcDbEntity
  8
100
  6
Continuous
 62
     3
100
AcDbLine
 10
-25.6397899684612
 20
-123.0
 30
0.0
 11
-25.6397899684612
 21
-99.0
 31
0.0
  0
LINE
  5
277
330
1F
100
AcDbEntity
  8
100
  6
Continuous
 62
     3
100
AcDbLine
 10
25.6397899684609
 20
-123.0
 30
0.0
 11
25.6397899684609
 21
-99.0
 31
0.0
  0
LINE
  5
278
330
1F
100
AcDbEntity
  8
100
  6
Continuous
 62
     3
100
AcDbLine
 10
0.00000000000024
 20
-123.0
 30
0.0
 11
-0.00000000000001
 21
-99.0
 31
0.0
  0
LINE
  5
279
330
1F
100
AcDbEntity
  8
2
  6
DOT_CENTER
 62
     1
100
AcDbLine
 10
55.0000000000001
 20
291.335052490234
 30
0.0
 11
55.0000000000001
 21
226.5
 31
0.0
  0
LINE
  5
27A
330
1F
100
AcDbEntity
  8
100
  6
Continuous
 62
     3
100
AcDbLine
 10
60.5000000000001
 20
243.5
 30
0.0
 11
60.5000000000001
 21
239.5
 31
0.0
  0
LINE
  5
27B
330
1F
100
AcDbEntity
  8
100
  6
Continuous
 62
     3
100
AcDbLine
 10
60.5000000000001
 20
239.5
 30
0.0
 11
49.5000000000001
 21
239.5
 31
0.0
  0
LINE
  5
27C
330
1F
100
AcDbEntity
  8
100
  6
Continuous
 62
     3
100
AcDbLine
 10
50.0000000000001
 20
239.5
 30
0.0
 11
50.0000000000001
 21
231.5
 31
0.0
  0
LINE
  5
27D
330
1F
100
AcDbEntity
  8
100
  6
Continuous
 62
     3
100
AcDbLine
 10
60.0000000000001
 20
239.5
 30
0.0
 11
60.0000000000001
 21
231.5
 31
0.0
  0
LINE
  5
27E
330
1F
100
AcDbEntity
  8
100
  6
Continuous
 62
     3
100
AcDbLine
 10
49.5000000000001
 20
243.5
 30
0.0
 11
49.5000000000001
 21
239.5
 31
0.0
  0
LINE
  5
27F
330
1F
100
AcDbEntity
  8
100
  6
Continuous
 62
     3
100
AcDbLine
 10
17.5
 20
199.753498853239
 30
0.0
 11
17.5
 21
196.5
 31
0.0
  0
LINE
  5
280
330
1F
100
AcDbEntity
  8
100
  6
Continuous
 62
     3
100
AcDbLine
 10
17.5
 20
196.5
 30
0.0
 11
-17.5
 21
196.5
 31
0.0
  0
LINE
  5
281
330
1F
100
AcDbEntity
  8
100
  6
Continuous
 62
     3
100
AcDbLine
 10
30.4003163308657
 20
214.5
 30
0.0
 11
19.5437523009059
 21
203.878717831695
 31
0.0
  0
LINE
  5
282
330
1F
100
AcDbEntity
  8
100
  6
Continuous
 62
     3
100
AcDbLine
 10
-61.5
 20
214.5
 30
0.0
 11
61.5
 21
214.5
 31
0.0
  0
LINE
  5
283
330
1F
100
AcDbEntity
  8
100
  6
Continuous
 62
     3
100
AcDbLine
 10
-61.5
 20
231.5
 30
0.0
 11
61.5
 21
231.5
 31
0.0
  0
LINE
  5
284
330
1F
100
AcDbEntity
  8
100
  6
Continuous
 62
     3
100
AcDbLine
 10
10.5
 20
196.5
 30
0.0
 11
10.5
 21
159.0
 31
0.0
  0
LINE
  5
285
330
1F
100
AcDbEntity
  8
100
  6
Continuous
 62
     3
100
AcDbLine
 10
-30.4003163308657
 20
214.5
 30
0.0
 11
-19.5437523009054
 21
203.878717831694
 31
0.0
  0
LINE
  5
286
330
1F
100
AcDbEntity
  8
100
  6
Continuous
 62
     3
100
AcDbLine
 10
-10.5
 20
196.5
 30
0.0
 11
-10.5
 21
159.0
 31
0.0
  0
LINE
  5
287
330
1F
100
AcDbEntity
  8
2
  6
PHANTOM
 62
     6
100
AcDbLine
 10
49.5000000000001
 20
213.0
 30
0.0
 11
49.5000000000001
 21
209.0
 31
0.0
  0
LINE
  5
288
330
1F
100
AcDbEntity
  8
2
  6
PHANTOM
 62
     6
100
AcDbLine
 10
50.0000000000001
 20
209.0
 30
0.0
 11
50.0000000000001
 21
201.0
 31
0.0
  0
LINE
  5
289
330
1F
100
AcDbEntity
  8
2
  6
PHANTOM
 62
     6
100
AcDbLine
 10
60.5000000000001
 20
213.0
 30
0.0
 11
60.5000000000001
 21
209.0
 31
0.0
  0
LINE
  5
28A
330
1F
100
AcDbEntity
  8
2
  6
PHANTOM
 62
     6
100
AcDbLine
 10
60.0000000000001
 20
209.0
 30
0.0
 11
60.0000000000001
 21
201.0
 31
0.0
  0
LINE
  5
28B
330
1F
100
AcDbEntity
  8
2
  6
DOT_CENTER
 62
     1
100
AcDbLine
 10
479.474487304688
 20
59.4744873046875
 30
0.0
 11
458.44140625
 21
38.44140625
 31
0.0
  0
LINE
  5
28C
330
1F
100
AcDbEntity
  8
2
  6
DOT_CENTER
 62
     1
100
AcDbLine
 10
360.525512695313
 20
59.4744873046875
 30
0.0
 11
381.55859375
 21
38.44140625
 31
0.0
  0
LINE
  5
28D
330
1F
100
AcDbEntity
  8
2
  6
DOT_CENTER
 62
     1
100
AcDbLine
 10
360.525512695313
 20
-59.4744873046875
 30
0.0
 11
381.55859375
 21
-38.4413452148438
 31
0.0
  0
LINE
  5
28E
330
1F
100
AcDbEntity
  8
2
  6
DOT_CENTER
 62
     1
100
AcDbLine
 10
479.474487304688
 20
-59.4744873046875
 30
0.0
 11
458.44140625
 21
-38.4413452148438
 31
0.0
  0
LINE
  5
28F
330
1F
100
AcDbEntity
  8
2
  6
DOT_CENTER
 62
     1
100
AcDbLine
 10
320.5
 20
0.0
 30
0.0
 11
519.5
 21
0.0
 31
0.0
  0
LINE
  5
290
330
1F
100
AcDbEntity
  8
100
  6
Continuous
 62
     3
100
AcDbLine
 10
444.0
 20
-128.0
 30
0.0
 11
444.0
 21
-182.148
 31
0.0
  0
LINE
  5
291
330
1F
100
AcDbEntity
  8
100
  6
Continuous
 62
     3
100
AcDbLine
 10
444.0
 20
-169.0
 30
0.0
 11
396.0
 21
-169.0
 31
0.0
  0
LINE
  5
292
330
1F
100
AcDbEntity
  8
2
  6
Continuous
 62
     3
100
AcDbLine
 10
444.0
 20
-167.148702704782
 30
0.0
 11
442.931153008256
 21
-169.0
 31
0.0
  0
LINE
  5
293
330
1F
100
AcDbEntity
  8
100
  6
Continuous
 62
     3
100
AcDbLine
 10
443.504625
 20
-198.0
 30
0.0
 11
444.0
 21
-182.148
 31
0.0
  0
LINE
  5
294
330
1F
100
AcDbEntity
  8
100
  6
Continuous
 62
     3
100
AcDbLine
 10
443.504625
 20
-198.0
 30
0.0
 11
396.495375
 21
-198.0
 31
0.0
  0
LINE
  5
295
330
1F
100
AcDbEntity
  8
2
  6
Continuous
 62
     1
100
AcDbLine
 10
442.024903008256
 20
-198.0
 30
0.0
 11
442.931153008256
 21
-169.0
 31
0.0
  0
LINE
  5
296
330
1F
100
AcDbEntity
  8
100
  6
Continuous
 62
     3
100
AcDbLine
 10
396.0
 20
-128.0
 30
0.0
 11
396.0
 21
-182.148
 31
0.0
  0
LINE
  5
297
330
1F
100
AcDbEntity
  8
2
  6
Continuous
 62
     3
100
AcDbLine
 10
396.0
 20
-167.148702704782
 30
0.0
 11
397.068846991744
 21
-169.0
 31
0.0
  0
LINE
  5
298
330
1F
100
AcDbEntity
  8
100
  6
Continuous
 62
     3
100
AcDbLine
 10
396.495375
 20
-198.0
 30
0.0
 11
396.0
 21
-182.148
 31
0.0
  0
LINE
  5
299
330
1F
100
AcDbEntity
  8
2
  6
Continuous
 62
     1
100
AcDbLine
 10
397.975096991744
 20
-198.0
 30
0.0
 11
397.068846991744
 21
-169.0
 31
0.0
  0
LINE
  5
29A
330
1F
100
AcDbEntity
  8
100
  6
Continuous
 62
     3
100
AcDbLine
 10
373.45
 20
-73.4989625777126
 30
0.0
 11
373.45
 21
-90.0
 31
0.0
  0
LINE
  5
29B
330
1F
100
AcDbEntity
  8
100
  6
Continuous
 62
     3
100
AcDbLine
 10
373.45
 20
-90.0
 30
0.0
 11
466.55
 21
-90.0
 31
0.0
  0
LINE
  5
29C
330
1F
100
AcDbEntity
  8
100
  6
Continuous
 62
     3
100
AcDbLine
 10
456.260138709795
 20
-99.0
 30
0.0
 11
383.739861290205
 21
-99.0
 31
0.0
  0
LINE
  5
29D
330
1F
100
AcDbEntity
  8
100
  6
Continuous
 62
     3
100
AcDbLine
 10
390.35
 20
-99.0
 30
0.0
 11
390.35
 21
-90.0
 31
0.0
  0
LINE
  5
29E
330
1F
100
AcDbEntity
  8
100
  6
Continuous
 62
     3
100
AcDbLine
 10
453.5
 20
-128.0
 30
0.0
 11
386.5
 21
-128.0
 31
0.0
  0
LINE
  5
29F
330
1F
100
AcDbEntity
  8
100
  6
Continuous
 62
     3
100
AcDbLine
 10
386.5
 20
-128.0
 30
0.0
 11
386.5
 21
-123.0
 31
0.0
  0
LINE
  5
2A0
330
1F
100
AcDbEntity
  8
100
  6
Continuous
 62
     3
100
AcDbLine
 10
383.739861290205
 20
-123.0
 30
0.0
 11
456.260138709795
 21
-123.0
 31
0.0
  0
LINE
  5
2A1
330
1F
100
AcDbEntity
  8
100
  6
Continuous
 62
     3
100
AcDbLine
 10
383.739861290205
 20
-123.0
 30
0.0
 11
383.739861290205
 21
-99.0
 31
0.0
  0
LINE
  5
2A2
330
1F
100
AcDbEntity
  8
100
  6
Continuous
 62
     3
100
AcDbLine
 10
394.360210031539
 20
-123.0
 30
0.0
 11
394.360210031539
 21
-99.0
 31
0.0
  0
LINE
  5
2A3
330
1F
100
AcDbEntity
  8
100
  6
Continuous
 62
     3
100
AcDbLine
 10
387.089224816602
 20
-90.0
 30
0.0
 11
387.089224816602
 21
-80.5349667959691
 31
0.0
  0
LINE
  5
2A4
330
1F
100
AcDbEntity
  8
100
  6
Continuous
 62
     3
100
AcDbLine
 10
466.55
 20
-73.4989625777126
 30
0.0
 11
466.55
 21
-90.0
 31
0.0
  0
LINE
  5
2A5
330
1F
100
AcDbEntity
  8
100
  6
Continuous
 62
     3
100
AcDbLine
 10
449.65
 20
-99.0
 30
0.0
 11
449.65
 21
-90.0
 31
0.0
  0
LINE
  5
2A6
330
1F
100
AcDbEntity
  8
100
  6
Continuous
 62
     3
100
AcDbLine
 10
453.5
 20
-128.0
 30
0.0
 11
453.5
 21
-123.0
 31
0.0
  0
LINE
  5
2A7
330
1F
100
AcDbEntity
  8
100
  6
Continuous
 62
     3
100
AcDbLine
 10
456.260138709795
 20
-123.0
 30
0.0
 11
456.260138709795
 21
-99.0
 31
0.0
  0
LINE
  5
2A8
330
1F
100
AcDbEntity
  8
100
  6
Continuous
 62
     3
100
AcDbLine
 10
445.639789968461
 20
-123.0
 30
0.0
 11
445.639789968461
 21
-99.0
 31
0.0
  0
LINE
  5
2A9
330
1F
100
AcDbEntity
  8
100
  6
Continuous
 62
     3
100
AcDbLine
 10
452.910775183398
 20
-90.0
 30
0.0
 11
452.910775183398
 21
-80.5349667959692
 31
0.0
  0
LINE
  5
2AA
330
1F
100
AcDbEntity
  8
100
  6
Continuous
 62
     3
100
AcDbLine
 10
420.0
 20
-90.0
 30
0.0
 11
420.0
 21
-87.0
 31
0.0
  0
LINE
  5
2AB
330
1F
100
AcDbEntity
  8
100
  6
Continuous
 62
     3
100
AcDbLine
 10
420.0
 20
-123.0
 30
0.0
 11
420.0
 21
-99.0
 31
0.0
  0
LINE
  5
2AC
330
1F
100
AcDbEntity
  8
100
  6
Continuous
 62
     3
100
AcDbLine
 10
463.0
 20
77.0
 30
0.0
 11
463.0
 21
101.0
 31
0.0
  0
LINE
  5
2AD
330
1F
100
AcDbEntity
  8
100
  6
Continuous
 62
     3
100
AcDbLine
 10
377.0
 20
101.0
 30
0.0
 11
463.0
 21
101.0
 31
0.0
  0
LINE
  5
2AE
330
1F
100
AcDbEntity
  8
100
  6
Continuous
 62
     3
100
AcDbLine
 10
377.0
 20
77.0
 30
0.0
 11
377.0
 21
101.0
 31
0.0
  0
LINE
  5
2AF
330
1F
100
AcDbEntity
  8
100
  6
Continuous
 62
     3
100
AcDbLine
 10
376.0
 20
103.5
 30
0.0
 11
376.0
 21
103.808674427162
 31
0.0
  0
LINE
  5
2B0
330
1F
100
AcDbEntity
  8
100
  6
Continuous
 62
     3
100
AcDbLine
 10
399.0
 20
128.0
 30
0.0
 11
399.0
 21
159.0
 31
0.0
  0
LINE
  5
2B1
330
1F
100
AcDbEntity
  8
100
  6
Continuous
 62
     3
100
AcDbLine
 10
378.172433876471
 20
106.287121609314
 30
0.0
 11
395.0
 21
108.511151495126
 31
0.0
  0
LINE
  5
2B2
330
1F
100
AcDbEntity
  8
100
  6
Continuous
 62
     3
100
AcDbLine
 10
399.0
 20
159.0
 30
0.0
 11
441.0
 21
159.0
 31
0.0
  0
LINE
  5
2B3
330
1F
100
AcDbEntity
  8
100
  6
Continuous
 62
     3
100
AcDbLine
 10
461.827566123529
 20
106.287121609314
 30
0.0
 11
445.0
 21
108.511151495127
 31
0.0
  0
LINE
  5
2B4
330
1F
100
AcDbEntity
  8
100
  6
Continuous
 62
     3
100
AcDbLine
 10
441.0
 20
128.0
 30
0.0
 11
441.0
 21
159.0
 31
0.0
  0
LINE
  5
2B5
330
1F
100
AcDbEntity
  8
100
  6
Continuous
 62
     3
100
AcDbLine
 10
420.0
 20
128.0
 30
0.0
 11
420.0
 21
108.511151495126
 31
0.0
  0
LINE
  5
2B6
330
1F
100
AcDbEntity
  8
100
  6
Continuous
 62
     3
100
AcDbLine
 10
430.5
 20
195.5
 30
0.0
 11
429.5
 21
196.5
 31
0.0
  0
LINE
  5
2B7
330
1F
100
AcDbEntity
  8
100
  6
Continuous
 62
     3
100
AcDbLine
 10
425.5
 20
243.5
 30
0.0
 11
425.5
 21
239.5
 31
0.0
  0
LINE
  5
2B8
330
1F
100
AcDbEntity
  8
100
  6
Continuous
 62
     3
100
AcDbLine
 10
425.5
 20
239.5
 30
0.0
 11
414.5
 21
239.5
 31
0.0
  0
LINE
  5
2B9
330
1F
100
AcDbEntity
  8
100
  6
Continuous
 62
     3
100
AcDbLine
 10
415.0
 20
239.5
 30
0.0
 11
415.0
 21
231.5
 31
0.0
  0
LINE
  5
2BA
330
1F
100
AcDbEntity
  8
100
  6
Continuous
 62
     3
100
AcDbLine
 10
425.0
 20
239.5
 30
0.0
 11
425.0
 21
231.5
 31
0.0
  0
LINE
  5
2BB
330
1F
100
AcDbEntity
  8
100
  6
Continuous
 62
     3
100
AcDbLine
 10
414.5
 20
243.5
 30
0.0
 11
414.5
 21
239.5
 31
0.0
  0
LINE
  5
2BC
330
1F
100
AcDbEntity
  8
100
  6
Continuous
 62
     3
100
AcDbLine
 10
437.5
 20
199.753498853239
 30
0.0
 11
437.5
 21
196.5
 31
0.0
  0
LINE
  5
2BD
330
1F
100
AcDbEntity
  8
100
  6
Continuous
 62
     3
100
AcDbLine
 10
437.5
 20
196.5
 30
0.0
 11
402.5
 21
196.5
 31
0.0
  0
LINE
  5
2BE
330
1F
100
AcDbEntity
  8
100
  6
Continuous
 62
     3
100
AcDbLine
 10
450.400316330866
 20
214.5
 30
0.0
 11
439.543752300906
 21
203.878717831695
 31
0.0
  0
LINE
  5
2BF
330
1F
100
AcDbEntity
  8
100
  6
Continuous
 62
     3
100
AcDbLine
 10
358.5
 20
214.5
 30
0.0
 11
481.5
 21
214.5
 31
0.0
  0
LINE
  5
2C0
330
1F
100
AcDbEntity
  8
100
  6
Continuous
 62
     3
100
AcDbLine
 10
358.5
 20
231.5
 30
0.0
 11
481.5
 21
231.5
 31
0.0
  0
LINE
  5
2C1
330
1F
100
AcDbEntity
  8
100
  6
Continuous
 62
     3
100
AcDbLine
 10
430.5
 20
195.5
 30
0.0
 11
430.5
 21
159.0
 31
0.0
  0
LINE
  5
2C2
330
1F
100
AcDbEntity
  8
100
  6
Continuous
 62
     3
100
AcDbLine
 10
409.5
 20
195.5
 30
0.0
 11
410.5
 21
196.5
 31
0.0
  0
LINE
  5
2C3
330
1F
100
AcDbEntity
  8
100
  6
Continuous
 62
     3
100
AcDbLine
 10
389.599683669134
 20
214.5
 30
0.0
 11
400.456247699095
 21
203.878717831694
 31
0.0
  0
LINE
  5
2C4
330
1F
100
AcDbEntity
  8
100
  6
Continuous
 62
     3
100
AcDbLine
 10
409.5
 20
195.5
 30
0.0
 11
409.5
 21
159.0
 31
0.0
  0
LINE
  5
2C5
330
1F
100
AcDbEntity
  8
2
  6
DOT_CENTER
 62
     1
100
AcDbLine
 10
-117.0
 20
408.0
 30
0.0
 11
117.0
 21
408.0
 31
0.0
  0
LINE
  5
2C6
330
1F
100
AcDbEntity
  8
2
  6
DOT_CENTER
 62
     1
100
AcDbLine
 10
0.0
 20
326.0
 30
0.0
 11
0.0
 21
490.0
 31
0.0
  0
LINE
  5
2C7
330
1F
100
AcDbEntity
  8
100
  6
Continuous
 62
     3
100
AcDbLine
 10
45.3859747225396
 20
418.194898623853
 30
0.0
 11
20.3820652087084
 21
418.926386020882
 31
0.0
  0
LINE
  5
2C8
330
1F
100
AcDbEntity
  8
100
  6
Continuous
 62
     3
100
AcDbLine
 10
20.3820652087083
 20
397.073613979118
 30
0.0
 11
45.3859747225396
 21
397.805101376147
 31
0.0
  0
LINE
  5
2C9
330
1F
100
AcDbEntity
  8
100
  6
Continuous
 62
     3
100
AcDbLine
 10
-13.8639461640062
 20
363.597143602836
 30
0.0
 11
-0.72850473871506
 21
384.885420737226
 31
0.0
  0
LINE
  5
2CA
330
1F
100
AcDbEntity
  8
100
  6
Continuous
 62
     3
100
AcDbLine
 10
-19.6535604699932
 20
395.811806758109
 30
0.0
 11
-31.5220285585334
 21
373.792042226689
 31
0.0
  0
LINE
  5
2CB
330
1F
100
AcDbEntity
  8
100
  6
Continuous
 62
     3
100
AcDbLine
 10
-31.5220285585334
 20
442.207957773311
 30
0.0
 11
-19.6535604699933
 21
420.188193241891
 31
0.0
  0
LINE
  5
2CC
330
1F
100
AcDbEntity
  8
100
  6
Continuous
 62
     3
100
AcDbLine
 10
-0.72850473871512
 20
431.114579262773
 30
0.0
 11
-13.8639461640063
 21
452.402856397164
 31
0.0
  0
LINE
  5
2CD
330
1F
100
AcDbEntity
  8
2
  6
DOT_CENTER
 62
     1
100
AcDbLine
 10
55.0000000000001
 20
395.0
 30
0.0
 11
55.0000000000001
 21
421.0
 31
0.0
  0
LINE
  5
2CE
330
1F
100
AcDbEntity
  8
100
  6
Continuous
 62
     3
100
AcDbLine
 10
105.0
 20
495.0
 30
0.0
 11
105.0
 21
321.0
 31
0.0
  0
LINE
  5
2CF
330
1F
100
AcDbEntity
  8
100
  6
Continuous
 62
     3
100
AcDbLine
 10
87.0
 20
495.0
 30
0.0
 11
105.0
 21
495.0
 31
0.0
  0
LINE
  5
2D0
330
1F
100
AcDbEntity
  8
100
  6
Continuous
 62
     3
100
AcDbLine
 10
87.0
 20
495.0
 30
0.0
 11
87.0
 21
321.0
 31
0.0
  0
LINE
  5
2D1
330
1F
100
AcDbEntity
  8
100
  6
Continuous
 62
     3
100
AcDbLine
 10
87.0
 20
450.0
 30
0.0
 11
59.7055095543115
 21
444.541101910862
 31
0.0
  0
LINE
  5
2D2
330
1F
100
AcDbEntity
  8
100
  6
Continuous
 62
     3
100
AcDbLine
 10
87.0
 20
321.0
 30
0.0
 11
105.0
 21
321.0
 31
0.0
  0
LINE
  5
2D3
330
1F
100
AcDbEntity
  8
100
  6
Continuous
 62
     3
100
AcDbLine
 10
87.0
 20
366.0
 30
0.0
 11
59.7055095543115
 21
371.458898089138
 31
0.0
  0
LINE
  5
2D4
330
1F
100
AcDbEntity
  8
100
  6
Continuous
 62
     3
100
AcDbLine
 10
-105.0
 20
495.0
 30
0.0
 11
-105.0
 21
321.0
 31
0.0
  0
LINE
  5
2D5
330
1F
100
AcDbEntity
  8
100
  6
Continuous
 62
     3
100
AcDbLine
 10
-87.0
 20
495.0
 30
0.0
 11
-87.0
 21
321.0
 31
0.0
  0
LINE
  5
2D6
330
1F
100
AcDbEntity
  8
100
  6
Continuous
 62
     3
100
AcDbLine
 10
-87.0
 20
366.0
 30
0.0
 11
-59.7055095543115
 21
371.458898089138
 31
0.0
  0
LINE
  5
2D7
330
1F
100
AcDbEntity
  8
100
  6
Continuous
 62
     3
100
AcDbLine
 10
-87.0
 20
321.0
 30
0.0
 11
-105.0
 21
321.0
 31
0.0
  0
LINE
  5
2D8
330
1F
100
AcDbEntity
  8
100
  6
Continuous
 62
     3
100
AcDbLine
 10
-87.0
 20
450.0
 30
0.0
 11
-59.7055095543115
 21
444.541101910862
 31
0.0
  0
LINE
  5
2D9
330
1F
100
AcDbEntity
  8
100
  6
Continuous
 62
     3
100
AcDbLine
 10
-87.0
 20
495.0
 30
0.0
 11
-105.0
 21
495.0
 31
0.0
  0
LINE
  5
2DA
330
1F
100
AcDbEntity
  8
100
  6
Continuous
 62
     3
100
AcDbLine
 10
22.5965651990789
 20
418.861600998653
 30
0.0
 11
14.4337567297406
 21
433.0
 31
0.0
  0
LINE
  5
2DB
330
1F
100
AcDbEntity
  8
100
  6
Continuous
 62
     3
100
AcDbLine
 10
14.4337567297406
 20
433.0
 30
0.0
 11
-1.89186020893589
 21
433.0
 31
0.0
  0
LINE
  5
2DC
330
1F
100
AcDbEntity
  8
100
  6
Continuous
 62
     3
100
AcDbLine
 10
-20.7047049901431
 20
422.138399001347
 30
0.0
 11
-28.8675134594813
 21
408.0
 31
0.0
  0
LINE
  5
2DD
330
1F
100
AcDbEntity
  8
100
  6
Continuous
 62
     3
100
AcDbLine
 10
-28.8675134594813
 20
408.0
 30
0.0
 11
-20.704704990143
 21
393.861600998653
 31
0.0
  0
LINE
  5
2DE
330
1F
100
AcDbEntity
  8
100
  6
Continuous
 62
     3
100
AcDbLine
 10
-1.89186020893576
 20
383.0
 30
0.0
 11
14.4337567297406
 21
383.0
 31
0.0
  0
LINE
  5
2DF
330
1F
100
AcDbEntity
  8
100
  6
Continuous
 62
     3
100
AcDbLine
 10
14.4337567297406
 20
383.0
 30
0.0
 11
22.5965651990788
 21
397.138399001347
 31
0.0
  0
LINE
  5
2E0
330
1F
100
AcDbEntity
  8
2
  6
DOT_CENTER
 62
     1
100
AcDbLine
 10
-117.0
 20
0.0
 30
0.0
 11
-36.0
 21
0.0
 31
0.0
  0
LINE
  5
2E1
330
1F
100
AcDbEntity
  8
2
  6
DOT_CENTER
 62
     1
100
AcDbLine
 10
36.0
 20
0.0
 30
0.0
 11
117.0
 21
0.0
 31
0.0
  0
LINE
  5
2E2
330
1F
100
AcDbEntity
  8
2
  6
DOT_CENTER
 62
     1
100
AcDbLine
 10
0.0
 20
-210.0
 30
0.0
 11
0.0
 21
-14.1020372384233
 31
0.0
  0
LINE
  5
2E3
330
1F
100
AcDbEntity
  8
2
  6
DOT_CENTER
 62
     1
100
AcDbLine
 10
0.0
 20
29.4006426248903
 30
0.0
 11
0.0
 21
250.5
 31
0.0
  0
LINE
  5
2E4
330
1F
100
AcDbEntity
  8
2
  6
PHANTOM
 62
     6
100
AcDbLine
 10
60.0000000000001
 20
201.0
 30
0.0
 11
61.5
 21
201.0
 31
0.0
  0
LINE
  5
2E5
330
1F
100
AcDbEntity
  8
2
  6
PHANTOM
 62
     6
100
AcDbLine
 10
-61.5
 20
184.0
 30
0.0
 11
-30.4003163308657
 21
184.0
 31
0.0
  0
LINE
  5
2E6
330
1F
100
AcDbEntity
  8
2
  6
PHANTOM
 62
     6
100
AcDbLine
 10
30.4003163308657
 20
184.0
 30
0.0
 11
61.5
 21
184.0
 31
0.0
  0
LINE
  5
2E7
330
1F
100
AcDbEntity
  8
2
  6
PHANTOM
 62
     6
100
AcDbLine
 10
60.5000000000001
 20
209.0
 30
0.0
 11
60.0000000000001
 21
209.0
 31
0.0
  0
LINE
  5
2E8
330
1F
100
AcDbEntity
  8
2
  6
PHANTOM
 62
     6
100
AcDbLine
 10
50.0000000000001
 20
209.0
 30
0.0
 11
49.5000000000001
 21
209.0
 31
0.0
  0
LINE
  5
2E9
330
1F
100
AcDbEntity
  8
100
  6
Continuous
 62
     3
100
AcDbLine
 10
-28.8675000000001
 20
128.0
 30
0.0
 11
28.8675000000001
 21
128.0
 31
0.0
  0
LINE
  5
2EA
330
1F
100
AcDbEntity
  8
100
  6
Continuous
 62
     3
100
AcDbLine
 10
-39.3541611522847
 20
443.5
 30
0.0
 11
-32.5215660691025
 21
443.5
 31
0.0
  0
LINE
  5
2EB
330
1F
100
AcDbEntity
  8
100
  6
Continuous
 62
     3
100
AcDbLine
 10
25.9951918631119
 20
443.5
 30
0.0
 11
39.3541611522847
 21
443.5
 31
0.0
  0
LINE
  5
2EC
330
1F
100
AcDbEntity
  8
100
  6
Continuous
 62
     3
100
AcDbLine
 10
-39.3541611522847
 20
372.5
 30
0.0
 11
-32.5215660691025
 21
372.5
 31
0.0
  0
LINE
  5
2ED
330
1F
100
AcDbEntity
  8
100
  6
Continuous
 62
     3
100
AcDbLine
 10
25.9951918631119
 20
372.5
 30
0.0
 11
39.3541611522847
 21
372.5
 31
0.0
  0
LINE
  5
2EE
330
1F
100
AcDbEntity
  8
2
  6
PHANTOM
 62
     6
100
AcDbLine
 10
-61.5
 20
201.0
 30
0.0
 11
-7.48331477354795
 21
201.0
 31
0.0
  0
LINE
  5
2EF
330
1F
100
AcDbEntity
  8
2
  6
PHANTOM
 62
     6
100
AcDbLine
 10
7.48331477354789
 20
201.0
 30
0.0
 11
50.0000000000001
 21
201.0
 31
0.0
  0
LINE
  5
2F0
330
1F
100
AcDbEntity
  8
100
  6
Continuous
 62
     3
100
AcDbLine
 10
-28.8675000000001
 20
108.0
 30
0.0
 11
28.8675000000001
 21
108.0
 31
0.0
  0
LINE
  5
2F1
330
1F
100
AcDbEntity
  8
100
  6
Continuous
 62
     3
100
AcDbLine
 10
-17.5
 20
199.753498853239
 30
0.0
 11
-17.5
 21
196.5
 31
0.0
  0
LINE
  5
2F2
330
1F
100
AcDbEntity
  8
100
  6
Continuous
 62
     3
100
AcDbLine
 10
-17.5
 20
199.753498853239
 30
0.0
 11
17.5
 21
199.753498853239
 31
0.0
  0
LINE
  5
2F3
330
1F
100
AcDbEntity
  8
2
  6
PHANTOM
 62
     6
100
AcDbLine
 10
-17.5
 20
169.253498853239
 30
0.0
 11
-17.5
 21
166.0
 31
0.0
  0
LINE
  5
2F4
330
1F
100
AcDbEntity
  8
2
  6
PHANTOM
 62
     6
100
AcDbLine
 10
-30.4003163308657
 20
184.0
 30
0.0
 11
-19.5437523009056
 21
173.378717831694
 31
0.0
  0
LINE
  5
2F5
330
1F
100
AcDbEntity
  8
100
  6
Continuous
 62
     3
100
AcDbLine
 10
395.0
 20
108.511151495126
 30
0.0
 11
445.0
 21
108.511151495127
 31
0.0
  0
LINE
  5
2F6
330
1F
100
AcDbEntity
  8
100
  6
Continuous
 62
     3
100
AcDbLine
 10
395.0
 20
128.0
 30
0.0
 11
445.0
 21
128.0
 31
0.0
  0
LINE
  5
2F7
330
1F
100
AcDbEntity
  8
100
  6
Continuous
 62
     3
100
AcDbLine
 10
402.5
 20
199.753498853239
 30
0.0
 11
402.5
 21
196.5
 31
0.0
  0
LINE
  5
2F8
330
1F
100
AcDbEntity
  8
100
  6
Continuous
 62
     3
100
AcDbLine
 10
402.5
 20
199.753498853239
 30
0.0
 11
437.5
 21
199.753498853239
 31
0.0
  0
ARC
  5
309
330
1F
100
AcDbEntity
  8
100
  6
Continuous
 62
     3
100
AcDbCircle
 10
-41.5
 20
103.5
 30
0.0
 40
2.5
100
AcDbArc
 50
180.0
 51
270.0
  0
ARC
  5
30A
330
1F
100
AcDbEntity
  8
100
  6
Continuous
 62
     3
100
AcDbCircle
 10
-41.5
 20
103.808674427162
 30
0.0
 40
2.50000000000021
100
AcDbArc
 50
97.52891091592812
 51
180.0
  0
ARC
  5
30B
330
1F
100
AcDbEntity
  8
100
  6
Continuous
 62
     3
100
AcDbCircle
 10
41.5
 20
103.5
 30
0.0
 40
2.5
100
AcDbArc
 50
270.0
 51
0.0
  0
ARC
  5
30C
330
1F
100
AcDbEntity
  8
100
  6
Continuous
 62
     3
100
AcDbCircle
 10
41.5
 20
103.808674427162
 30
0.0
 40
2.5
100
AcDbArc
 50
0.0
 51
82.47108908407415
  0
ARC
  5
30D
330
1F
100
AcDbEntity
  8
2
  6
PHANTOM
 62
     6
100
AcDbCircle
 10
61.5
 20
192.5
 30
0.0
 40
8.5
100
AcDbArc
 50
270.0
 51
90.0
  0
ARC
  5
30E
330
1F
100
AcDbEntity
  8
2
  6
PHANTOM
 62
     6
100
AcDbCircle
 10
-61.5
 20
192.5
 30
0.0
 40
8.5
100
AcDbArc
 50
90.0
 51
270.0
  0
ARC
  5
30F
330
1F
100
AcDbEntity
  8
2
  6
PHANTOM
 62
     6
100
AcDbCircle
 10
2.0030714164734
 20
179.5
 30
0.0
 40
18.57809412381955
100
AcDbArc
 50
326.5274974315814
 51
340.7622224414835
  0
ARC
  5
310
330
1F
100
AcDbEntity
  8
100
  6
Continuous
 62
     3
100
AcDbCircle
 10
0.0
 20
-80.0
 30
0.0
 40
125.5
100
AcDbArc
 50
106.6997488802626
 51
111.9970615725638
  0
ARC
  5
311
330
1F
100
AcDbEntity
  8
100
  6
Continuous
 62
     3
100
AcDbCircle
 10
0.0
 20
80.0
 30
0.0
 40
125.5000000000001
100
AcDbArc
 50
286.6997488802626
 51
291.9970615725639
  0
ARC
  5
312
330
1F
100
AcDbEntity
  8
100
  6
Continuous
 62
     3
100
AcDbCircle
 10
-37.5
 20
44.995999935998
 30
0.0
 40
5.000000000000026
100
AcDbArc
 50
286.6997488802625
 51
0.0
  0
ARC
  5
313
330
1F
100
AcDbEntity
  8
100
  6
Continuous
 62
     3
100
AcDbCircle
 10
37.5
 20
-44.995999935998
 30
0.0
 40
4.999999999999931
100
AcDbArc
 50
106.6997488802628
 51
180.0
  0
ARC
  5
314
330
1F
100
AcDbEntity
  8
100
  6
Continuous
 62
     3
100
AcDbCircle
 10
48.8799549917962
 20
-41.0
 30
0.0
 40
5.0
100
AcDbArc
 50
90.0
 51
111.9970615725634
  0
ARC
  5
315
330
1F
100
AcDbEntity
  8
100
  6
Continuous
 62
     3
100
AcDbCircle
 10
-48.879954991796
 20
41.0
 30
0.0
 40
5.0
100
AcDbArc
 50
270.0
 51
291.9970615725644
  0
ARC
  5
316
330
1F
100
AcDbEntity
  8
100
  6
Continuous
 62
     3
100
AcDbCircle
 10
0.0
 20
-80.0
 30
0.0
 40
125.5
100
AcDbArc
 50
68.00293842743606
 51
73.30025111973742
  0
ARC
  5
317
330
1F
100
AcDbEntity
  8
100
  6
Continuous
 62
     3
100
AcDbCircle
 10
0.0
 20
80.0
 30
0.0
 40
125.5
100
AcDbArc
 50
248.0029384274362
 51
253.3002511197373
  0
ARC
  5
318
330
1F
100
AcDbEntity
  8
100
  6
Continuous
 62
     3
100
AcDbCircle
 10
48.8799549917962
 20
41.0
 30
0.0
 40
5.000000000000078
100
AcDbArc
 50
248.002938427437
 51
270.0
  0
ARC
  5
319
330
1F
100
AcDbEntity
  8
100
  6
Continuous
 62
     3
100
AcDbCircle
 10
37.5
 20
44.995999935998
 30
0.0
 40
5.0
100
AcDbArc
 50
180.0
 51
253.3002511197375
  0
ARC
  5
31A
330
1F
100
AcDbEntity
  8
100
  6
Continuous
 62
     3
100
AcDbCircle
 10
-37.5
 20
-44.9959999359978
 30
0.0
 40
5.0
100
AcDbArc
 50
0.0
 51
73.30025111973973
  0
ARC
  5
31B
330
1F
100
AcDbEntity
  8
100
  6
Continuous
 62
     3
100
AcDbCircle
 10
-48.879954991796
 20
-41.0
 30
0.0
 40
4.999999999999986
100
AcDbArc
 50
68.00293842743662
 51
90.0
  0
ARC
  5
31C
330
1F
100
AcDbEntity
  8
100
  6
Continuous
 62
     3
100
AcDbCircle
 10
-17.7463687912523
 20
-7.0
 30
0.0
 40
34.9999999999999
100
AcDbArc
 50
208.1284271114358
 51
270.0
  0
ARC
  5
31D
330
1F
100
AcDbEntity
  8
100
  6
Continuous
 62
     3
100
AcDbCircle
 10
-4.6521739130435
 20
0.0
 30
0.0
 40
49.84782608695654
100
AcDbArc
 50
191.5726648229832
 51
208.1284271114356
  0
ARC
  5
31E
330
1F
100
AcDbEntity
  8
100
  6
Continuous
 62
     3
100
AcDbCircle
 10
-17.7463687912523
 20
7.0
 30
0.0
 40
35.0
100
AcDbArc
 50
90.0
 51
151.8715728885643
  0
ARC
  5
31F
330
1F
100
AcDbEntity
  8
100
  6
Continuous
 62
     3
100
AcDbCircle
 10
-4.6521739130435
 20
0.0
 30
0.0
 40
49.84782608695662
100
AcDbArc
 50
151.8715728885644
 51
168.4273351770168
  0
ARC
  5
320
330
1F
100
AcDbEntity
  8
100
  6
Continuous
 62
     3
100
AcDbCircle
 10
4.6521739130435
 20
0.0
 30
0.0
 40
49.84782608695654
100
AcDbArc
 50
11.57266482298325
 51
28.12842711143581
  0
ARC
  5
321
330
1F
100
AcDbEntity
  8
100
  6
Continuous
 62
     3
100
AcDbCircle
 10
17.7463687912521
 20
7.0
 30
0.0
 40
35.00000000000004
100
AcDbArc
 50
28.12842711143582
 51
90.0
  0
ARC
  5
322
330
1F
100
AcDbEntity
  8
100
  6
Continuous
 62
     3
100
AcDbCircle
 10
4.6521739130435
 20
0.0
 30
0.0
 40
49.84782608695649
100
AcDbArc
 50
331.8715728885642
 51
348.4273351770165
  0
ARC
  5
323
330
1F
100
AcDbEntity
  8
100
  6
Continuous
 62
     3
100
AcDbCircle
 10
17.7463687912521
 20
-7.0
 30
0.0
 40
35.0
100
AcDbArc
 50
270.0
 51
331.8715728885642
  0
ARC
  5
324
330
1F
100
AcDbEntity
  8
100
  6
Continuous
 62
     3
100
AcDbCircle
 10
75.0000000000001
 20
267.158630371094
 30
0.0
 40
28.00000000000029
100
AcDbArc
 50
143.6471236698193
 51
205.6031254811122
  0
ARC
  5
325
330
1F
100
AcDbEntity
  8
100
  6
Continuous
 62
     3
100
AcDbCircle
 10
35.0000000000001
 20
267.158630371094
 30
0.0
 40
28.00000000000027
100
AcDbArc
 50
335.0428593618519
 51
37.45269125030456
  0
ARC
  5
326
330
1F
100
AcDbEntity
  8
100
  6
Continuous
 62
     3
100
AcDbCircle
 10
30.5084381103517
 20
249.60107421875
 30
0.0
 40
19.99999999999992
100
AcDbArc
 50
342.2386046866798
 51
15.8362450542276
  0
ARC
  5
327
330
1F
100
AcDbEntity
  8
100
  6
Continuous
 62
     3
100
AcDbCircle
 10
79.5431060791017
 20
249.60107421875
 30
0.0
 40
19.99999999999988
100
AcDbArc
 50
163.3119024184111
 51
197.7613953133202
  0
ARC
  5
328
330
1F
100
AcDbEntity
  8
100
  6
Continuous
 62
     3
100
AcDbCircle
 10
61.5
 20
223.0
 30
0.0
 40
8.5
100
AcDbArc
 50
270.0
 51
90.0
  0
ARC
  5
329
330
1F
100
AcDbEntity
  8
100
  6
Continuous
 62
     3
100
AcDbCircle
 10
2.0030714164734
 20
210.0
 30
0.0
 40
18.57809412381955
100
AcDbArc
 50
326.5274974315814
 51
14.01764831640098
  0
ARC
  5
32A
330
1F
100
AcDbEntity
  8
100
  6
Continuous
 62
     3
100
AcDbCircle
 10
55.0000000000001
 20
282.176574707031
 30
0.0
 40
3.000000000000233
100
AcDbArc
 50
42.0420632926643
 51
148.2364957121687
  0
ARC
  5
32B
330
1F
100
AcDbEntity
  8
100
  6
Continuous
 62
     3
100
AcDbCircle
 10
0.0
 20
231.0
 30
0.0
 40
7.5
100
AcDbArc
 50
90.0
 51
160.5287793655093
  0
ARC
  5
32C
330
1F
100
AcDbEntity
  8
100
  6
Continuous
 62
     3
100
AcDbCircle
 10
-61.5
 20
223.0
 30
0.0
 40
8.5
100
AcDbArc
 50
90.0
 51
270.0
  0
ARC
  5
32D
330
1F
100
AcDbEntity
  8
2
  6
PHANTOM
 62
     6
100
AcDbCircle
 10
75.0000000000001
 20
236.658630371094
 30
0.0
 40
28.00000000000001
100
AcDbArc
 50
142.5473087496873
 51
205.6031254811123
  0
ARC
  5
32E
330
1F
100
AcDbEntity
  8
2
  6
PHANTOM
 62
     6
100
AcDbCircle
 10
30.5084381103517
 20
219.10107421875
 30
0.0
 40
19.99999999999992
100
AcDbArc
 50
342.2386046866798
 51
15.8362450542276
  0
ARC
  5
32F
330
1F
100
AcDbEntity
  8
2
  6
PHANTOM
 62
     6
100
AcDbCircle
 10
35.0000000000001
 20
236.658630371094
 30
0.0
 40
28.0000000000001
100
AcDbArc
 50
335.0428593618516
 51
37.45269125031251
  0
ARC
  5
330
330
1F
100
AcDbEntity
  8
2
  6
PHANTOM
 62
     6
100
AcDbCircle
 10
79.5431060791017
 20
219.10107421875
 30
0.0
 40
20.00000000000007
100
AcDbArc
 50
163.3119024184113
 51
197.76139531332
  0
ARC
  5
331
330
1F
100
AcDbEntity
  8
2
  6
PHANTOM
 62
     6
100
AcDbCircle
 10
55.0000000000001
 20
251.676574707031
 30
0.0
 40
3.00000000000009
100
AcDbArc
 50
31.76350428776574
 51
148.2364957122343
  0
ARC
  5
332
330
1F
100
AcDbEntity
  8
100
  6
Continuous
 62
     3
100
AcDbCircle
 10
458.0
 20
77.0
 30
0.0
 40
5.000000000000052
100
AcDbArc
 50
345.2204500293147
 51
0.0
  0
ARC
  5
333
330
1F
100
AcDbEntity
  8
100
  6
Continuous
 62
     3
100
AcDbCircle
 10
382.0
 20
77.0
 30
0.0
 40
5.0
100
AcDbArc
 50
180.0
 51
194.7795499706853
  0
ARC
  5
334
330
1F
100
AcDbEntity
  8
100
  6
Continuous
 62
     3
100
AcDbCircle
 10
378.5
 20
103.5
 30
0.0
 40
2.5
100
AcDbArc
 50
180.0
 51
270.0
  0
ARC
  5
335
330
1F
100
AcDbEntity
  8
100
  6
Continuous
 62
     3
100
AcDbCircle
 10
378.5
 20
103.808674427162
 30
0.0
 40
2.500000000000195
100
AcDbArc
 50
97.52891091592537
 51
180.0
  0
ARC
  5
336
330
1F
100
AcDbEntity
  8
100
  6
Continuous
 62
     3
100
AcDbCircle
 10
461.5
 20
103.5
 30
0.0
 40
2.5
100
AcDbArc
 50
270.0
 51
0.0
  0
ARC
  5
337
330
1F
100
AcDbEntity
  8
100
  6
Continuous
 62
     3
100
AcDbCircle
 10
461.5
 20
103.808674427162
 30
0.0
 40
2.5
100
AcDbArc
 50
0.0
 51
82.47108908407463
  0
ARC
  5
338
330
1F
100
AcDbEntity
  8
100
  6
Continuous
 62
     3
100
AcDbCircle
 10
440.0
 20
267.158630371094
 30
0.0
 40
27.99999999999972
100
AcDbArc
 50
143.6471236698185
 51
205.6031254811128
  0
ARC
  5
339
330
1F
100
AcDbEntity
  8
100
  6
Continuous
 62
     3
100
AcDbCircle
 10
400.0
 20
267.158630371094
 30
0.0
 40
28.00000000000037
100
AcDbArc
 50
335.042859361852
 51
36.3528763301786
  0
ARC
  5
33A
330
1F
100
AcDbEntity
  8
100
  6
Continuous
 62
     3
100
AcDbCircle
 10
395.508438110352
 20
249.60107421875
 30
0.0
 40
19.99999999999999
100
AcDbArc
 50
342.2386046866798
 51
15.83624505422745
  0
ARC
  5
33B
330
1F
100
AcDbEntity
  8
100
  6
Continuous
 62
     3
100
AcDbCircle
 10
444.543106079102
 20
249.60107421875
 30
0.0
 40
20.00000000000017
100
AcDbArc
 50
163.3119024184114
 51
197.7613953133201
  0
ARC
  5
33C
330
1F
100
AcDbEntity
  8
100
  6
Continuous
 62
     3
100
AcDbCircle
 10
481.5
 20
223.0
 30
0.0
 40
8.5
100
AcDbArc
 50
270.0
 51
90.0
  0
ARC
  5
33D
330
1F
100
AcDbEntity
  8
100
  6
Continuous
 62
     3
100
AcDbCircle
 10
422.003071416473
 20
210.0
 30
0.0
 40
18.57809412381987
100
AcDbArc
 50
326.527497431582
 51
14.01764831640053
  0
ARC
  5
33E
330
1F
100
AcDbEntity
  8
100
  6
Continuous
 62
     3
100
AcDbCircle
 10
420.0
 20
282.176574707031
 30
0.0
 40
2.999999999999944
100
AcDbArc
 50
31.76350428781152
 51
148.2364957121616
  0
ARC
  5
33F
330
1F
100
AcDbEntity
  8
100
  6
Continuous
 62
     3
100
AcDbCircle
 10
420.0
 20
231.0
 30
0.0
 40
7.499999999999649
100
AcDbArc
 50
131.810314895781
 51
160.5287793655082
  0
ARC
  5
340
330
1F
100
AcDbEntity
  8
100
  6
Continuous
 62
     3
100
AcDbCircle
 10
358.5
 20
223.0
 30
0.0
 40
8.5
100
AcDbArc
 50
90.0
 51
270.0
  0
ARC
  5
341
330
1F
100
AcDbEntity
  8
100
  6
Continuous
 62
     3
100
AcDbCircle
 10
-9.60877695223791
 20
455.028410620413
 30
0.0
 40
4.999999999999401
100
AcDbArc
 50
101.5476519890327
 51
211.6757055601352
  0
ARC
  5
342
330
1F
100
AcDbEntity
  8
100
  6
Continuous
 62
     3
100
AcDbCircle
 10
-35.9234098207644
 20
439.835650250143
 30
0.0
 40
4.999999999999785
100
AcDbArc
 50
28.32429443986403
 51
138.4523480109726
  0
ARC
  5
343
330
1F
100
AcDbEntity
  8
100
  6
Continuous
 62
     3
100
AcDbCircle
 10
-35.9234098207643
 20
376.164349749857
 30
0.0
 40
4.99999999999987
100
AcDbArc
 50
221.5476519890267
 51
331.6757055601354
  0
ARC
  5
344
330
1F
100
AcDbEntity
  8
100
  6
Continuous
 62
     3
100
AcDbCircle
 10
-9.60877695223785
 20
360.971589379587
 30
0.0
 40
5.000000000000207
100
AcDbArc
 50
148.3242944398645
 51
258.4523480109689
  0
ARC
  5
345
330
1F
100
AcDbEntity
  8
100
  6
Continuous
 62
     3
100
AcDbCircle
 10
-24.0549417322242
 20
417.815885718723
 30
0.0
 40
5.000000000000017
100
AcDbArc
 50
337.8015398933118
 51
28.324294439864
  0
ARC
  5
346
330
1F
100
AcDbEntity
  8
100
  6
Continuous
 62
     3
100
AcDbCircle
 10
3.52666447305327
 20
433.740133486022
 30
0.0
 40
5.000000000000211
100
AcDbArc
 50
211.6757055601347
 51
262.1984601066852
  0
ARC
  5
347
330
1F
100
AcDbEntity
  8
100
  6
Continuous
 62
     3
100
AcDbCircle
 10
-24.0549417322242
 20
398.184114281277
 30
0.0
 40
4.999999999999761
100
AcDbArc
 50
331.6757055601366
 51
22.19846010668953
  0
ARC
  5
348
330
1F
100
AcDbEntity
  8
100
  6
Continuous
 62
     3
100
AcDbCircle
 10
3.5266644730533
 20
382.259866513978
 30
0.0
 40
4.99999999999992
100
AcDbArc
 50
97.80153989331228
 51
148.3242944398745
  0
ARC
  5
349
330
1F
100
AcDbEntity
  8
100
  6
Continuous
 62
     3
100
AcDbCircle
 10
20.5282772591709
 20
423.924247767299
 30
0.0
 40
4.999999999999901
100
AcDbArc
 50
217.8015398933122
 51
268.3242944398701
  0
ARC
  5
34A
330
1F
100
AcDbEntity
  8
100
  6
Continuous
 62
     3
100
AcDbCircle
 10
20.528277259171
 20
392.075752232701
 30
0.0
 40
4.999999999999905
100
AcDbArc
 50
91.67570556013212
 51
142.1984601066878
  0
ARC
  5
34B
330
1F
100
AcDbEntity
  8
100
  6
Continuous
 62
     3
100
AcDbCircle
 10
45.5321867730022
 20
392.80723962973
 30
0.0
 40
5.000000000000685
100
AcDbArc
 50
341.547651989036
 51
91.67570556013104
  0
ARC
  5
34C
330
1F
100
AcDbEntity
  8
100
  6
Continuous
 62
     3
100
AcDbCircle
 10
45.5321867730022
 20
423.19276037027
 30
0.0
 40
4.999999999999845
100
AcDbArc
 50
268.324294439869
 51
18.45234801096731
  0
ARC
  5
34D
330
1F
100
AcDbEntity
  8
100
  6
Continuous
 62
     3
100
AcDbCircle
 10
61.5
 20
408.0
 30
0.0
 40
14.99999999999961
100
AcDbArc
 50
113.7307424792842
 51
246.269257520716
  0
ARC
  5
34E
330
1F
100
AcDbEntity
  8
100
  6
Continuous
 62
     3
100
AcDbCircle
 10
53.4512195121951
 20
426.308935869109
 30
0.0
 40
5.000000000000773
100
AcDbArc
 50
293.7307424792791
 51
18.90814830920455
  0
ARC
  5
34F
330
1F
100
AcDbEntity
  8
100
  6
Continuous
 62
     3
100
AcDbCircle
 10
53.4512195121951
 20
389.691064130891
 30
0.0
 40
4.999999999999903
100
AcDbArc
 50
341.0918516907921
 51
66.2692575207203
  0
ARC
  5
350
330
1F
100
AcDbEntity
  8
100
  6
Continuous
 62
     3
100
AcDbCircle
 10
0.0
 20
408.0
 30
0.0
 40
61.49999999999988
100
AcDbArc
 50
4.59568006057451
 51
90.0
  0
ARC
  5
351
330
1F
100
AcDbEntity
  8
100
  6
Continuous
 62
     3
100
AcDbCircle
 10
0.0
 20
408.0
 30
0.0
 40
61.5
100
AcDbArc
 50
90.0
 51
355.4043199394255
  0
ARC
  5
352
330
1F
100
AcDbEntity
  8
100
  6
Continuous
 62
     3
100
AcDbCircle
 10
0.0
 20
408.0
 30
0.0
 40
44.00000000000004
100
AcDbArc
 50
13.49921116247128
 51
106.5007888375288
  0
ARC
  5
353
330
1F
100
AcDbEntity
  8
100
  6
Continuous
 62
     3
100
AcDbCircle
 10
0.0
 20
408.0
 30
0.0
 40
44.00000000000007
100
AcDbArc
 50
133.4992111624713
 51
226.5007888375288
  0
ARC
  5
354
330
1F
100
AcDbEntity
  8
100
  6
Continuous
 62
     3
100
AcDbCircle
 10
0.0
 20
408.0
 30
0.0
 40
43.99999999999996
100
AcDbArc
 50
253.4992111624713
 51
346.5007888375287
  0
ARC
  5
355
330
1F
100
AcDbEntity
  8
2
  6
PHANTOM
 62
     6
100
AcDbCircle
 10
0.0
 20
200.5
 30
0.0
 40
7.5
100
AcDbArc
 50
90.0
 51
160.5287793655093
  0
ARC
  5
356
330
1F
100
AcDbEntity
  8
100
  6
Continuous
 62
     3
100
AcDbCircle
 10
0.0
 20
408.0
 30
0.0
 40
52.99999999999986
100
AcDbArc
 50
18.45234801097155
 51
90.0
  0
ARC
  5
357
330
1F
100
AcDbEntity
  8
100
  6
Continuous
 62
     3
100
AcDbCircle
 10
0.0
 20
408.0
 30
0.0
 40
53.00000000000075
100
AcDbArc
 50
258.4523480109717
 51
341.5476519890288
  0
ARC
  5
358
330
1F
100
AcDbEntity
  8
100
  6
Continuous
 62
     3
100
AcDbCircle
 10
0.0
 20
408.0
 30
0.0
 40
53.00000000000001
100
AcDbArc
 50
138.4523480109719
 51
221.5476519890281
  0
ARC
  5
359
330
1F
100
AcDbEntity
  8
100
  6
Continuous
 62
     3
100
AcDbCircle
 10
0.0
 20
408.0
 30
0.0
 40
53.0
100
AcDbArc
 50
90.0
 51
101.5476519890285
  0
ARC
  5
35A
330
1F
100
AcDbEntity
  8
100
  6
Continuous
 62
     3
100
AcDbCircle
 10
-2.0030714164734
 20
210.0
 30
0.0
 40
18.57809412381954
100
AcDbArc
 50
165.982351683599
 51
213.4725025684187
  0
ARC
  5
35B
330
1F
100
AcDbEntity
  8
2
  6
PHANTOM
 62
     6
100
AcDbCircle
 10
-2.0030714164734
 20
179.5
 30
0.0
 40
18.57809412381976
100
AcDbArc
 50
199.2377775585165
 51
213.4725025684187
  0
ARC
  5
35C
330
1F
100
AcDbEntity
  8
100
  6
Continuous
 62
     3
100
AcDbCircle
 10
417.996928583527
 20
210.0
 30
0.0
 40
18.57809412382012
100
AcDbArc
 50
165.9823516835995
 51
213.472502568418
  0
CIRCLE
  5
35D
330
1F
100
AcDbEntity
  8
2
  6
DOT_CENTER
 62
     1
100
AcDbCircle
 10
420.0
 20
0.0
 30
0.0
 40
70.0
  0
CIRCLE
  5
35E
330
1F
100
AcDbEntity
  8
100
  6
Continuous
 62
     3
100
AcDbCircle
 10
420.0
 20
0.0
 30
0.0
 40
30.0
  0
CIRCLE
  5
35F
330
1F
100
AcDbEntity
  8
100
  6
Continuous
 62
     3
100
AcDbCircle
 10
370.502563476563
 20
49.4974365234375
 30
0.0
 40
9.5
  0
CIRCLE
  5
360
330
1F
100
AcDbEntity
  8
100
  6
Continuous
 62
     3
100
AcDbCircle
 10
469.497436523438
 20
49.4974365234375
 30
0.0
 40
9.5
  0
CIRCLE
  5
361
330
1F
100
AcDbEntity
  8
100
  6
Continuous
 62
     3
100
AcDbCircle
 10
469.497436523438
 20
-49.4974975585938
 30
0.0
 40
9.5
  0
CIRCLE
  5
362
330
1F
100
AcDbEntity
  8
100
  6
Continuous
 62
     3
100
AcDbCircle
 10
370.502563476563
 20
-49.4974975585938
 30
0.0
 40
9.5
  0
CIRCLE
  5
363
330
1F
100
AcDbEntity
  8
100
  6
Continuous
 62
     3
100
AcDbCircle
 10
420.000033371905
 20
0.00001782721841
 30
0.0
 40
48.5
  0
CIRCLE
  5
364
330
1F
100
AcDbEntity
  8
100
  6
Continuous
 62
     3
100
AcDbCircle
 10
0.0
 20
408.0
 30
0.0
 40
70.0
  0
CIRCLE
  5
365
330
1F
100
AcDbEntity
  8
100
  6
Continuous
 62
     3
100
AcDbCircle
 10
0.0
 20
408.0
 30
0.0
 40
20.9806049618505
  0
CIRCLE
  5
366
330
1F
100
AcDbEntity
  8
100
  6
Continuous
 62
     3
100
AcDbCircle
 10
55.0000000000001
 20
408.0
 30
0.0
 40
8.0
  0
CIRCLE
  5
367
330
1F
100
AcDbEntity
  8
100
  6
Continuous
 62
     3
100
AcDbCircle
 10
0.0
 20
408.0
 30
0.0
 40
13.5
  0
CIRCLE
  5
368
330
1F
100
AcDbEntity
  8
100
  6
Continuous
 62
     3
100
AcDbCircle
 10
0.0
 20
408.0
 30
0.0
 40
7.5
  0
CIRCLE
  5
369
330
1F
100
AcDbEntity
  8
100
  6
Continuous
 62
     3
100
AcDbCircle
 10
420.0
 20
0.0
 30
0.0
 40
87.0
  0
LWPOLYLINE
  5
36A
330
1F
100
AcDbEntity
  8
100
  6
Continuous
 62
     3
100
AcDbPolyline
 90
       10
 70
     0
 43
0.0
 10
11.2499923706055
 20
22.375
 10
3.12499237060547
 20
22.375
 10
1.87499237060547
 20
13.625
 10
4.99999237060547
 20
14.875
 10
8.74999237060547
 20
14.875
 10
11.8749923706055
 20
12.375
 10
11.8749923706055
 20
6.125
 10
8.74999237060547
 20
2.99999976158142
 10
4.99999237060547
 20
2.99999976158142
 10
1.87499237060547
 20
6.125
  0
LWPOLYLINE
  5
36B
330
1F
100
AcDbEntity
  8
100
  6
Continuous
 62
     3
100
AcDbPolyline
 90
       12
 70
     0
 43
0.0
 10
-11.8750076293945
 20
11.75
 10
-8.75000762939453
 20
14.875
 10
-5.00000762939453
 20
14.875
 10
-1.87500762939453
 20
11.75
 10
-1.87500762939453
 20
6.125
 10
-5.00000762939453
 20
2.99999976158142
 10
-8.75000762939453
 20
2.99999976158142
 10
-11.8750076293945
 20
6.125
 10
-11.8750076293945
 20
19.875
 10
-8.75000762939453
 20
23.0
 10
-5.00000762939453
 20
23.0
 10
-1.87500762939453
 20
19.875
  0
LWPOLYLINE
  5
36C
330
1F
100
AcDbEntity
  8
100
  6
Continuous
 62
     3
100
AcDbPolyline
 90
       17
 70
     1
 43
0.0
 10
-26.1884413665168
 20
0.0
 10
-26.1884413665168
 20
0.0
 10
26.1884413665166
 20
0.0
 42
-0.74205596918085
 10
26.5212614842519
 20
-1.09923017660276
 10
14.4161237256096
 20
-9.16932201569737
 42
-0.79323030492319
 10
13.9188697656064
 20
-8.70310441267929
 10
16.6919433912124
 20
-3.90000000000009
 42
0.57735026918953
 10
16.1723281489419
 20
-2.99999999999998
 10
-7.44203120500288
 20
-3.0
 42
0.26794919243099
 10
-7.96164644727355
 20
-3.29999999999995
 10
-11.6566881700874
 20
-9.70000000000005
 42
-0.26794919243058
 10
-12.176303412358
 20
-10.0
 10
-29.7906627663028
 20
-9.99999999999996
 42
-0.57735026918973
 10
-30.3102780085735
 20
-9.09999999999991
 10
-26.7884413665167
 20
-3.0
 10
-26.7884413665167
 20
-0.59999999999991
 42
-0.41421356237309
 10
-26.1884413665168
 20
0.0
  0
LWPOLYLINE
  5
36D
330
1F
100
AcDbEntity
  8
100
  6
Continuous
 62
     3
100
AcDbPolyline
 90
        2
 70
     0
 43
0.0
 10
-7.07106781186548
 20
233.5
 42
0.0683865001321
 10
-7.48331477354802
 20
231.5
  0
LWPOLYLINE
  5
36E
330
1F
100
AcDbEntity
  8
100
  6
Continuous
 62
     3
100
AcDbPolyline
 90
        3
 70
     0
 43
0.0
 10
7.48331477354782
 20
231.5
 42
0.06838650013199
 10
7.0710678118654
 20
233.5
 42
0.31783724519578
 10
0.0
 20
238.4999999999999
  0
LWPOLYLINE
  5
36F
330
1F
100
AcDbEntity
  8
2
  6
DOT_CENTER
 62
     1
100
AcDbPolyline
 90
        2
 70
     0
 43
0.0
 10
420.0
 20
-210.0
 10
420.0
 20
297.176574707031
  0
LWPOLYLINE
  5
370
330
1F
100
AcDbEntity
  8
100
  6
Continuous
 62
     3
100
AcDbPolyline
 90
        2
 70
     0
 43
0.0
 10
445.0
 20
108.511151495127
 10
445.0
 20
128.0
  0
LWPOLYLINE
  5
371
330
1F
100
AcDbEntity
  8
100
  6
Continuous
 62
     3
100
AcDbPolyline
 90
        2
 70
     0
 43
0.0
 10
395.0
 20
108.511151495126
 10
395.0
 20
128.0
  0
LWPOLYLINE
  5
372
330
1F
100
AcDbEntity
  8
100
  6
Continuous
 62
     3
100
AcDbPolyline
 90
        2
 70
     0
 43
0.0
 10
412.928932188135
 20
233.5
 42
0.06838650013208
 10
412.5166852264525
 20
231.5
  0
LWPOLYLINE
  5
373
330
1F
100
AcDbEntity
  8
100
  6
Continuous
 62
     3
100
AcDbPolyline
 90
        3
 70
     0
 43
0.0
 10
427.483314773548
 20
231.5
 42
0.06838650013207
 10
427.0710678118656
 20
233.4999999999999
 42
0.12596795110235
 10
425.0000000000006
 20
236.5901699437496
  0
LWPOLYLINE
  5
374
330
1F
100
AcDbEntity
  8
100
  6
Continuous
 62
     3
100
AcDbPolyline
 90
        8
 70
     1
 43
0.0
 10
4.90747728811182
 20
416.5
 10
4.90747728811182
 20
416.5
 10
9.81495457622364
 20
408.0
 10
4.90747728811182
 20
399.5
 10
-4.90747728811182
 20
399.5
 10
-9.81495457622364
 20
408.0
 10
-4.90747728811182
 20
416.5
 10
4.90747728811182
 20
416.5
  0
LWPOLYLINE
  5
375
330
1F
100
AcDbEntity
  8
100
  6
Continuous
 62
     3
100
AcDbPolyline
 90
        2
 70
     0
 43
0.0
 10
44.0
 20
103.5
 10
44.0
 20
103.808674427162
  0
LWPOLYLINE
  5
376
330
1F
100
AcDbEntity
  8
2
  6
PHANTOM
 62
     6
100
AcDbPolyline
 90
        3
 70
     0
 43
0.0
 10
7.48331477354789
 20
201.0
 42
0.06838650013199
 10
7.07106781186547
 20
203.0
 42
0.31783724519578
 10
0.0
 20
208.0
  0
LWPOLYLINE
  5
377
330
1F
100
AcDbEntity
  8
2
  6
PHANTOM
 62
     6
100
AcDbPolyline
 90
        2
 70
     0
 43
0.0
 10
-7.07106781186548
 20
203.0
 42
0.0683865001321
 10
-7.48331477354802
 20
201.0
  0
LEADER
  5
378
330
1F
100
AcDbEntity
  8
1
  6
Continuous
 62
     4
100
AcDbLeader
  3
Standard
 71
     0
 76
     3
 10
24.0
 20
-182.148
 30
0.0
 10
46.6178258844552
 20
-207.443658974124
 30
0.0
 10
82.847430966255
 20
-207.443658974124
 30
0.0
  0
LEADER
  5
379
330
1F
100
AcDbEntity
  8
1
  6
Continuous
 62
     4
100
AcDbLeader
  3
Standard
 71
     0
 76
     3
 10
105.0
 20
0.0
 30
0.0
 10
144.987485431944
 20
-50.988995642788
 30
0.0
 10
215.149036540998
 20
-50.988995642788
 30
0.0
  0
ENDSEC
  0
SECTION
  2
OBJECTS
  0
DICTIONARY
  5
C
330
0
100
AcDbDictionary
281
     1
  3
ACAD_GROUP
350
D
  3
ACAD_LAYOUT
350
1A
  3
ACAD_MATERIAL
350
3B
  3
ACAD_MLEADERSTYLE
350
37C
  3
ACAD_MLINESTYLE
350
17
  3
ACAD_PLOTSETTINGS
350
19
  3
ACAD_PLOTSTYLENAME
350
E
  3
ACAD_VISUALSTYLE
350
2A
  3
AcDbVariableDictionary
350
37A
  0
DICTIONARY
  5
D
102
{ACAD_REACTORS
330
C
102
}
330
C
100
AcDbDictionary
281
     1
  0
DICTIONARY
  5
1A
102
{ACAD_REACTORS
330
C
102
}
330
C
100
AcDbDictionary
281
     1
  3
Layout1
350
1E
  3
Layout2
350
26
  3
Model
350
22
  0
DICTIONARY
  5
3B
102
{ACAD_REACTORS
330
C
102
}
330
C
100
AcDbDictionary
281
     1
  3
ByBlock
350
3D
  3
ByLayer
350
3C
  3
Global
350
3E
  0
DICTIONARY
  5
37C
102
{ACAD_REACTORS
330
C
102
}
330
C
100
AcDbDictionary
281
     1
  0
DICTIONARY
  5
17
102
{ACAD_REACTORS
330
C
102
}
330
C
100
AcDbDictionary
281
     1
  3
Standard
350
18
  0
DICTIONARY
  5
19
102
{ACAD_REACTORS
330
C
102
}
330
C
100
AcDbDictionary
281
     1
  0
ACDBDICTIONARYWDFLT
  5
E
102
{ACAD_REACTORS
330
C
102
}
330
C
100
AcDbDictionary
281
     1
  3
Normal
350
F
100
AcDbDictionaryWithDefault
340
F
  0
DICTIONARY
  5
2A
102
{ACAD_REACTORS
330
C
102
}
330
C
100
AcDbDictionary
281
     1
  3
2dWireframe
350
2F
  3
3D Hidden
350
31
  3
3dWireframe
350
30
  3
Basic
350
32
  3
Brighten
350
36
  3
ColorChange
350
3A
  3
Conceptual
350
34
  3
Dim
350
35
  3
Facepattern
350
39
  3
Flat
350
2B
  3
FlatWithEdges
350
2C
  3
Gouraud
350
2D
  3
GouraudWithEdges
350
2E
  3
Linepattern
350
38
  3
Realistic
350
33
  3
Thicken
350
37
  0
DICTIONARY
  5
37A
102
{ACAD_REACTORS
330
C
102
}
330
C
100
AcDbDictionary
281
     1
  3
DIMASSOC
350
37D
  3
HIDETEXT
350
37E
  0
LAYOUT
  5
1E
102
{ACAD_REACTORS
330
1A
102
}
330
1A
100
AcDbPlotSettings
  1

  2
none_device
  4

  6

 40
0.0
 41
0.0
 42
0.0
 43
0.0
 44
0.0
 45
0.0
 46
0.0
 47
0.0
 48
0.0
 49
0.0
140
0.0
141
0.0
142
1.0
143
1.0
 70
   688
 72
     0
 73
     0
 74
     5
  7

 75
    16
147
1.0
148
0.0
149
0.0
100
AcDbLayout
  1
Layout1
 70
     1
 71
     1
 10
0.0
 20
0.0
 11
12.0
 21
9.0
 12
0.0
 22
0.0
 32
0.0
 14
1.00000000000000E+20
 24
1.00000000000000E+20
 34
1.00000000000000E+20
 15
-1.00000000000000E+20
 25
-1.00000000000000E+20
 35
-1.00000000000000E+20
146
0.0
 13
0.0
 23
0.0
 33
0.0
 16
1.0
 26
0.0
 36
0.0
 17
0.0
 27
1.0
 37
0.0
 76
     0
330
1B
  0
LAYOUT
  5
26
102
{ACAD_REACTORS
330
1A
102
}
330
1A
100
AcDbPlotSettings
  1

  2
none_device
  4

  6

 40
0.0
 41
0.0
 42
0.0
 43
0.0
 44
0.0
 45
0.0
 46
0.0
 47
0.0
 48
0.0
 49
0.0
140
0.0
141
0.0
142
1.0
143
1.0
 70
   688
 72
     0
 73
     0
 74
     5
  7

 75
    16
147
1.0
148
0.0
149
0.0
100
AcDbLayout
  1
Layout2
 70
     1
 71
     2
 10
0.0
 20
0.0
 11
0.0
 21
0.0
 12
0.0
 22
0.0
 32
0.0
 14
0.0
 24
0.0
 34
0.0
 15
0.0
 25
0.0
 35
0.0
146
0.0
 13
0.0
 23
0.0
 33
0.0
 16
1.0
 26
0.0
 36
0.0
 17
0.0
 27
1.0
 37
0.0
 76
     0
330
23
  0
LAYOUT
  5
22
102
{ACAD_REACTORS
330
1A
102
}
330
1A
100
AcDbPlotSettings
  1

  2
none_device
  4

  6

 40
0.0
 41
0.0
 42
0.0
 43
0.0
 44
0.0
 45
0.0
 46
0.0
 47
0.0
 48
0.0
 49
0.0
140
0.0
141
0.0
142
1.0
143
1.0
 70
  1712
 72
     0
 73
     0
 74
     0
  7

 75
     0
147
1.0
148
0.0
149
0.0
100
AcDbLayout
  1
Model
 70
     1
 71
     0
 10
0.0
 20
0.0
 11
12.0
 21
9.0
 12
0.0
 22
0.0
 32
0.0
 14
-117.0
 24
-217.312883564523
 34
0.0
 15
519.5
 25
495.0
 35
0.0
146
0.0
 13
0.0
 23
0.0
 33
0.0
 16
1.0
 26
0.0
 36
0.0
 17
0.0
 27
1.0
 37
0.0
 76
     0
330
1F
331
29
  0
MATERIAL
  5
3D
102
{ACAD_REACTORS
330
3B
102
}
102
{ACAD_XDICTIONARY
360
3A1
102
}
330
3B
100
AcDbMaterial
  1
ByBlock
  0
MATERIAL
  5
3C
102
{ACAD_REACTORS
330
3B
102
}
102
{ACAD_XDICTIONARY
360
39F
102
}
330
3B
100
AcDbMaterial
  1
ByLayer
  0
MATERIAL
  5
3E
102
{ACAD_REACTORS
330
3B
102
}
102
{ACAD_XDICTIONARY
360
3A3
102
}
330
3B
100
AcDbMaterial
  1
Global
  0
MLINESTYLE
  5
18
102
{ACAD_REACTORS
330
17
102
}
330
17
100
AcDbMlineStyle
  2
Standard
 70
     0
  3

 62
   256
 51
90.0
 52
90.0
 71
     2
 49
0.5
 62
   256
  6
BYLAYER
 49
-0.5
 62
   256
  6
BYLAYER
  0
ACDBPLACEHOLDER
  5
F
102
{ACAD_REACTORS
330
E
102
}
330
E
  0
VISUALSTYLE
  5
2F
102
{ACAD_REACTORS
330
2A
102
}
102
{ACAD_XDICTIONARY
360
387
102
}
330
2A
100
AcDbVisualStyle
  2
2dWireframe
 70
     4
 71
     0
 72
     2
 73
     0
 90
        0
 40
-0.6
 41
-30.0
 62
     5
 63
     7
 74
     1
 91
        4
 64
     7
 65
   257
 75
     1
175
     1
 42
1.0
 92
        0
 66
   257
 43
1.0
 76
     1
 77
     6
 78
     2
 67
     7
 79
     5
170
     0
171
     0
290
     0
174
     0
 93
        1
 44
0.0
173
     0
291
     0
 45
0.0
1001
ACAD
1000
AcDbSavedByObjectVersion
1070
     0
  0
VISUALSTYLE
  5
31
102
{ACAD_REACTORS
330
2A
102
}
102
{ACAD_XDICTIONARY
360
38B
102
}
330
2A
100
AcDbVisualStyle
  2
3D Hidden
 70
     6
 71
     1
 72
     2
 73
     2
 90
        0
 40
-0.6
 41
-30.0
 62
     5
 63
     7
 74
     2
 91
        2
 64
     7
 65
   257
 75
     2
175
     1
 42
40.0
 92
        0
 66
   257
 43
1.0
 76
     1
 77
     6
 78
     2
 67
     7
 79
     3
170
     0
171
     0
290
     0
174
     0
 93
        1
 44
0.0
173
     0
291
     0
 45
0.0
1001
ACAD
1000
AcDbSavedByObjectVersion
1070
     0
  0
VISUALSTYLE
  5
30
102
{ACAD_REACTORS
330
2A
102
}
102
{ACAD_XDICTIONARY
360
389
102
}
330
2A
100
AcDbVisualStyle
  2
3dWireframe
 70
     5
 71
     0
 72
     2
 73
     0
 90
        0
 40
-0.6
 41
-30.0
 62
     5
 63
     7
 74
     1
 91
        4
 64
     7
 65
   257
 75
     1
175
     1
 42
1.0
 92
        0
 66
   257
 43
1.0
 76
     1
 77
     6
 78
     2
 67
     7
 79
     5
170
     0
171
     0
290
     0
174
     0
 93
        1
 44
0.0
173
     0
291
     0
 45
0.0
1001
ACAD
1000
AcDbSavedByObjectVersion
1070
     0
  0
VISUALSTYLE
  5
32
102
{ACAD_REACTORS
330
2A
102
}
102
{ACAD_XDICTIONARY
360
38D
102
}
330
2A
100
AcDbVisualStyle
  2
Basic
 70
     7
 71
     1
 72
     0
 73
     1
 90
        0
 40
-0.6
 41
-30.0
 62
     5
 63
     7
 74
     0
 91
        4
 64
     7
 65
   257
 75
     1
175
     1
 42
1.0
 92
        8
 66
     7
 43
1.0
 76
     1
 77
     6
 78
     2
 67
     7
 79
     5
170
     0
171
     0
290
     0
174
     0
 93
        1
 44
0.0
173
     0
291
     1
 45
0.0
1001
ACAD
1000
AcDbSavedByObjectVersion
1070
     0
  0
VISUALSTYLE
  5
36
102
{ACAD_REACTORS
330
2A
102
}
102
{ACAD_XDICTIONARY
360
395
102
}
330
2A
100
AcDbVisualStyle
  2
Brighten
 70
    12
 71
     2
 72
     2
 73
     0
 90
        0
 40
-0.6
 41
-30.0
 62
     5
 63
     7
 74
     1
 91
        4
 64
     7
 65
   257
 75
     1
175
     1
 42
1.0
 92
        8
 66
     7
 43
1.0
 76
     1
 77
     6
 78
     2
 67
     7
 79
     5
170
     0
171
     0
290
     0
174
     0
 93
        1
 44
50.0
173
     0
291
     1
 45
0.0
1001
ACAD
1000
AcDbSavedByObjectVersion
1070
     0
  0
VISUALSTYLE
  5
3A
102
{ACAD_REACTORS
330
2A
102
}
102
{ACAD_XDICTIONARY
360
39D
102
}
330
2A
100
AcDbVisualStyle
  2
ColorChange
 70
    16
 71
     2
 72
     2
 73
     3
 90
        0
 40
-0.6
 41
-30.0
 62
     5
 63
     8
 74
     1
 91
        4
 64
     7
 65
   257
 75
     1
175
     1
 42
1.0
 92
        8
 66
     8
 43
1.0
 76
     1
 77
     6
 78
     2
 67
     7
 79
     5
170
     0
171
     0
290
     0
174
     0
 93
        1
 44
0.0
173
     0
291
     1
 45
0.0
1001
ACAD
1000
AcDbSavedByObjectVersion
1070
     0
  0
VISUALSTYLE
  5
34
102
{ACAD_REACTORS
330
2A
102
}
102
{ACAD_XDICTIONARY
360
391
102
}
330
2A
100
AcDbVisualStyle
  2
Conceptual
 70
     9
 71
     3
 72
     2
 73
     0
 90
        0
 40
-0.6
 41
-30.0
 62
     5
 63
     7
 74
     2
 91
        2
 64
     7
 65
   257
 75
     1
175
     1
 42
40.0
 92
        8
 66
     7
 43
1.0
 76
     1
 77
     6
 78
     2
 67
     7
 79
     3
170
     0
171
     0
290
     0
174
     0
 93
        1
 44
0.0
173
     0
291
     0
 45
0.0
1001
ACAD
1000
AcDbSavedByObjectVersion
1070
     0
  0
VISUALSTYLE
  5
35
102
{ACAD_REACTORS
330
2A
102
}
102
{ACAD_XDICTIONARY
360
393
102
}
330
2A
100
AcDbVisualStyle
  2
Dim
 70
    11
 71
     2
 72
     2
 73
     0
 90
        0
 40
-0.6
 41
-30.0
 62
     5
 63
     7
 74
     1
 91
        4
 64
     7
 65
   257
 75
     1
175
     1
 42
1.0
 92
        8
 66
     7
 43
1.0
 76
     1
 77
     6
 78
     2
 67
     7
 79
     5
170
     0
171
     0
290
     0
174
     0
 93
        1
 44
-50.0
173
     0
291
     1
 45
0.0
1001
ACAD
1000
AcDbSavedByObjectVersion
1070
     0
  0
VISUALSTYLE
  5
39
102
{ACAD_REACTORS
330
2A
102
}
102
{ACAD_XDICTIONARY
360
39B
102
}
330
2A
100
AcDbVisualStyle
  2
Facepattern
 70
    15
 71
     2
 72
     2
 73
     0
 90
        0
 40
-0.6
 41
-30.0
 62
     5
 63
     7
 74
     1
 91
        4
 64
     7
 65
   257
 75
     1
175
     1
 42
1.0
 92
        8
 66
     7
 43
1.0
 76
     1
 77
     6
 78
     2
 67
     7
 79
     5
170
     0
171
     0
290
     0
174
     0
 93
        1
 44
0.0
173
     0
291
     1
 45
0.0
1001
ACAD
1000
AcDbSavedByObjectVersion
1070
     0
  0
VISUALSTYLE
  5
2B
102
{ACAD_REACTORS
330
2A
102
}
102
{ACAD_XDICTIONARY
360
37F
102
}
330
2A
100
AcDbVisualStyle
  2
Flat
 70
     0
 71
     2
 72
     1
 73
     1
 90
        2
 40
-0.6
 41
30.0
 62
     5
 63
     7
 74
     0
 91
        4
 64
     7
 65
   257
 75
     1
175
     1
 42
1.0
 92
        8
 66
     7
 43
1.0
 76
     1
 77
     6
 78
     2
 67
     7
 79
     5
170
     0
171
     0
290
     0
174
     0
 93
       13
 44
0.0
173
     0
291
     1
 45
0.0
1001
ACAD
1000
AcDbSavedByObjectVersion
1070
     0
  0
VISUALSTYLE
  5
2C
102
{ACAD_REACTORS
330
2A
102
}
102
{ACAD_XDICTIONARY
360
381
102
}
330
2A
100
AcDbVisualStyle
  2
FlatWithEdges
 70
     1
 71
     2
 72
     1
 73
     1
 90
        2
 40
-0.6
 41
30.0
 62
     5
 63
     7
 74
     1
 91
        4
 64
     7
 65
   257
 75
     1
175
     1
 42
1.0
 92
        0
 66
   257
 43
1.0
 76
     1
 77
     6
 78
     2
 67
     7
 79
     5
170
     0
171
     0
290
     0
174
     0
 93
       13
 44
0.0
173
     0
291
     1
 45
0.0
1001
ACAD
1000
AcDbSavedByObjectVersion
1070
     0
  0
VISUALSTYLE
  5
2D
102
{ACAD_REACTORS
330
2A
102
}
102
{ACAD_XDICTIONARY
360
383
102
}
330
2A
100
AcDbVisualStyle
  2
Gouraud
 70
     2
 71
     2
 72
     2
 73
     1
 90
        2
 40
-0.6
 41
30.0
 62
     5
 63
     7
 74
     0
 91
        4
 64
     7
 65
   257
 75
     1
175
     1
 42
1.0
 92
        0
 66
     7
 43
1.0
 76
     1
 77
     6
 78
     2
 67
     7
 79
     5
170
     0
171
     0
290
     0
174
     0
 93
       13
 44
0.0
173
     0
291
     1
 45
0.0
1001
ACAD
1000
AcDbSavedByObjectVersion
1070
     0
  0
VISUALSTYLE
  5
2E
102
{ACAD_REACTORS
330
2A
102
}
102
{ACAD_XDICTIONARY
360
385
102
}
330
2A
100
AcDbVisualStyle
  2
GouraudWithEdges
 70
     3
 71
     2
 72
     2
 73
     1
 90
        2
 40
-0.6
 41
30.0
 62
     5
 63
     7
 74
     1
 91
        4
 64
     7
 65
   257
 75
     1
175
     1
 42
1.0
 92
        0
 66
   257
 43
1.0
 76
     1
 77
     6
 78
     2
 67
     7
 79
     5
170
     0
171
     0
290
     0
174
     0
 93
       13
 44
0.0
173
     0
291
     1
 45
0.0
1001
ACAD
1000
AcDbSavedByObjectVersion
1070
     0
  0
VISUALSTYLE
  5
38
102
{ACAD_REACTORS
330
2A
102
}
102
{ACAD_XDICTIONARY
360
399
102
}
330
2A
100
AcDbVisualStyle
  2
Linepattern
 70
    14
 71
     2
 72
     2
 73
     0
 90
        0
 40
-0.6
 41
-30.0
 62
     5
 63
     7
 74
     1
 91
        4
 64
     7
 65
   257
 75
     7
175
     7
 42
1.0
 92
        8
 66
     7
 43
1.0
 76
     1
 77
     6
 78
     2
 67
     7
 79
     5
170
     0
171
     0
290
     0
174
     0
 93
        1
 44
0.0
173
     0
291
     1
 45
0.0
1001
ACAD
1000
AcDbSavedByObjectVersion
1070
     0
  0
VISUALSTYLE
  5
33
102
{ACAD_REACTORS
330
2A
102
}
102
{ACAD_XDICTIONARY
360
38F
102
}
330
2A
100
AcDbVisualStyle
  2
Realistic
 70
     8
 71
     2
 72
     2
 73
     0
 90
        0
 40
-0.6
 41
-30.0
 62
     5
 63
     7
 74
     1
 91
        0
 64
     7
 65
   257
 75
     1
175
     1
 42
1.0
 92
        8
 66
     8
 43
1.0
 76
     1
 77
     6
 78
     2
 67
     7
 79
     5
170
     0
171
     0
290
     0
174
     0
 93
       13
 44
0.0
173
     0
291
     0
 45
0.0
1001
ACAD
1000
AcDbSavedByObjectVersion
1070
     0
  0
VISUALSTYLE
  5
37
102
{ACAD_REACTORS
330
2A
102
}
102
{ACAD_XDICTIONARY
360
397
102
}
330
2A
100
AcDbVisualStyle
  2
Thicken
 70
    13
 71
     2
 72
     2
 73
     0
 90
        0
 40
-0.6
 41
-30.0
 62
     5
 63
     7
 74
     1
 91
        4
 64
     7
 65
   257
 75
     1
175
     1
 42
1.0
 92
       12
 66
     7
 43
1.0
 76
     1
 77
     6
 78
     2
 67
     7
 79
     5
170
     0
171
     0
290
     0
174
     0
 93
        1
 44
0.0
173
     0
291
     1
 45
0.0
1001
ACAD
1000
AcDbSavedByObjectVersion
1070
     0
  0
DICTIONARYVAR
  5
37D
102
{ACAD_REACTORS
330
37A
102
}
330
37A
100
DictionaryVariables
280
     0
  1
2
  0
DICTIONARYVAR
  5
37E
102
{ACAD_REACTORS
330
37A
102
}
330
37A
100
DictionaryVariables
280
     0
  1
1
  0
DICTIONARY
  5
3A1
330
3D
100
AcDbDictionary
280
     1
281
     1
  3
ACAD_XREC_ROUNDTRIP
360
3A2
  0
DICTIONARY
  5
39F
330
3C
100
AcDbDictionary
280
     1
281
     1
  3
ACAD_XREC_ROUNDTRIP
360
3A0
  0
DICTIONARY
  5
3A3
330
3E
100
AcDbDictionary
280
     1
281
     1
  3
ACAD_XREC_ROUNDTRIP
360
3A4
  0
DICTIONARY
  5
387
330
2F
100
AcDbDictionary
280
     1
281
     1
  3
ACAD_XREC_ROUNDTRIP
360
388
  0
DICTIONARY
  5
38B
330
31
100
AcDbDictionary
280
     1
281
     1
  3
ACAD_XREC_ROUNDTRIP
360
38C
  0
DICTIONARY
  5
389
330
30
100
AcDbDictionary
280
     1
281
     1
  3
ACAD_XREC_ROUNDTRIP
360
38A
  0
DICTIONARY
  5
38D
330
32
100
AcDbDictionary
280
     1
281
     1
  3
ACAD_XREC_ROUNDTRIP
360
38E
  0
DICTIONARY
  5
395
330
36
100
AcDbDictionary
280
     1
281
     1
  3
ACAD_XREC_ROUNDTRIP
360
396
  0
DICTIONARY
  5
39D
330
3A
100
AcDbDictionary
280
     1
281
     1
  3
ACAD_XREC_ROUNDTRIP
360
39E
  0
DICTIONARY
  5
391
330
34
100
AcDbDictionary
280
     1
281
     1
  3
ACAD_XREC_ROUNDTRIP
360
392
  0
DICTIONARY
  5
393
330
35
100
AcDbDictionary
280
     1
281
     1
  3
ACAD_XREC_ROUNDTRIP
360
394
  0
DICTIONARY
  5
39B
330
39
100
AcDbDictionary
280
     1
281
     1
  3
ACAD_XREC_ROUNDTRIP
360
39C
  0
DICTIONARY
  5
37F
330
2B
100
AcDbDictionary
280
     1
281
     1
  3
ACAD_XREC_ROUNDTRIP
360
380
  0
DICTIONARY
  5
381
330
2C
100
AcDbDictionary
280
     1
281
     1
  3
ACAD_XREC_ROUNDTRIP
360
382
  0
DICTIONARY
  5
383
330
2D
100
AcDbDictionary
280
     1
281
     1
  3
ACAD_XREC_ROUNDTRIP
360
384
  0
DICTIONARY
  5
385
330
2E
100
AcDbDictionary
280
     1
281
     1
  3
ACAD_XREC_ROUNDTRIP
360
386
  0
DICTIONARY
  5
399
330
38
100
AcDbDictionary
280
     1
281
     1
  3
ACAD_XREC_ROUNDTRIP
360
39A
  0
DICTIONARY
  5
38F
330
33
100
AcDbDictionary
280
     1
281
     1
  3
ACAD_XREC_ROUNDTRIP
360
390
  0
DICTIONARY
  5
397
330
37
100
AcDbDictionary
280
     1
281
     1
  3
ACAD_XREC_ROUNDTRIP
360
398
  0
XRECORD
  5
3A2
102
{ACAD_REACTORS
330
3A1
102
}
330
3A1
100
AcDbXrecord
280
     1
102
MATERIAL
148
0.0
149
0.0
149
0.0
 93
        0
 94
      127
282
     0
 72
     1
 77
     1
171
     1
175
     1
179
     1
273
     0
  0
XRECORD
  5
3A0
102
{ACAD_REACTORS
330
39F
102
}
330
39F
100
AcDbXrecord
280
     1
102
MATERIAL
148
0.0
149
0.0
149
0.0
 93
        0
 94
      127
282
     0
 72
     1
 77
     1
171
     1
175
     1
179
     1
273
     0
  0
XRECORD
  5
3A4
102
{ACAD_REACTORS
330
3A3
102
}
330
3A3
100
AcDbXrecord
280
     1
102
MATERIAL
148
0.0
149
0.0
149
0.0
 93
        0
 94
      127
282
     0
 72
     1
 77
     1
171
     1
175
     1
179
     1
273
     0
  0
XRECORD
  5
388
102
{ACAD_REACTORS
330
387
102
}
330
387
100
AcDbXrecord
280
     1
102
RTVSPropertyOp0
 70
     1
102
RTVSPropertyOp1
 70
     1
102
RTVSPropertyOp2
 70
     1
102
RTVSPropertyOp3
 70
     1
102
RTVSPropertyOp4
 70
     1
102
RTVSPropertyOp5
 70
     1
102
RTVSPropertyOp6
 70
     1
102
RTVSPropertyOp7
 70
     1
102
RTVSPropertyOp8
 70
     1
102
RTVSPropertyOp9
 70
     1
102
RTVSPropertyOp10
 70
     1
102
RTVSPropertyOp11
 70
     1
102
RTVSPropertyOp12
 70
     1
102
RTVSPropertyOp13
 70
     1
102
RTVSPropertyOp14
 70
     1
102
RTVSPropertyOp15
 70
     1
102
RTVSPropertyOp16
 70
     1
102
RTVSPropertyOp17
 70
     1
102
RTVSPropertyOp18
 70
     1
102
RTVSPropertyOp19
 70
     1
102
RTVSPropertyOp20
 70
     1
102
RTVSPropertyOp21
 70
     1
102
RTVSPropertyOp22
 70
     1
102
RTVSPropertyOp23
 70
     1
102
RTVSPropertyOp24
 70
     1
102
RTVSPropertyOp25
 70
     1
102
RTVSPropertyOp26
 70
     1
102
RTVSPropertyOp27
 70
     1
  0
XRECORD
  5
38C
102
{ACAD_REACTORS
330
38B
102
}
330
38B
100
AcDbXrecord
280
     1
102
RTVSPropertyOp0
 70
     1
102
RTVSPropertyOp1
 70
     1
102
RTVSPropertyOp2
 70
     1
102
RTVSPropertyOp3
 70
     1
102
RTVSPropertyOp4
 70
     1
102
RTVSPropertyOp5
 70
     1
102
RTVSPropertyOp6
 70
     1
102
RTVSPropertyOp7
 70
     1
102
RTVSPropertyOp8
 70
     1
102
RTVSPropertyOp9
 70
     1
102
RTVSPropertyOp10
 70
     1
102
RTVSPropertyOp11
 70
     1
102
RTVSPropertyOp12
 70
     1
102
RTVSPropertyOp13
 70
     1
102
RTVSPropertyOp14
 70
     1
102
RTVSPropertyOp15
 70
     1
102
RTVSPropertyOp16
 70
     1
102
RTVSPropertyOp17
 70
     1
102
RTVSPropertyOp18
 70
     1
102
RTVSPropertyOp19
 70
     1
102
RTVSPropertyOp20
 70
     1
102
RTVSPropertyOp21
 70
     1
102
RTVSPropertyOp22
 70
     1
102
RTVSPropertyOp23
 70
     1
102
RTVSPropertyOp24
 70
     1
102
RTVSPropertyOp25
 70
     1
102
RTVSPropertyOp26
 70
     1
102
RTVSPropertyOp27
 70
     1
  0
XRECORD
  5
38A
102
{ACAD_REACTORS
330
389
102
}
330
389
100
AcDbXrecord
280
     1
102
RTVSPropertyOp0
 70
     1
102
RTVSPropertyOp1
 70
     1
102
RTVSPropertyOp2
 70
     1
102
RTVSPropertyOp3
 70
     1
102
RTVSPropertyOp4
 70
     1
102
RTVSPropertyOp5
 70
     1
102
RTVSPropertyOp6
 70
     1
102
RTVSPropertyOp7
 70
     1
102
RTVSPropertyOp8
 70
     1
102
RTVSPropertyOp9
 70
     1
102
RTVSPropertyOp10
 70
     1
102
RTVSPropertyOp11
 70
     1
102
RTVSPropertyOp12
 70
     1
102
RTVSPropertyOp13
 70
     1
102
RTVSPropertyOp14
 70
     1
102
RTVSPropertyOp15
 70
     1
102
RTVSPropertyOp16
 70
     1
102
RTVSPropertyOp17
 70
     1
102
RTVSPropertyOp18
 70
     1
102
RTVSPropertyOp19
 70
     1
102
RTVSPropertyOp20
 70
     1
102
RTVSPropertyOp21
 70
     1
102
RTVSPropertyOp22
 70
     1
102
RTVSPropertyOp23
 70
     1
102
RTVSPropertyOp24
 70
     1
102
RTVSPropertyOp25
 70
     1
102
RTVSPropertyOp26
 70
     1
102
RTVSPropertyOp27
 70
     1
  0
XRECORD
  5
38E
102
{ACAD_REACTORS
330
38D
102
}
330
38D
100
AcDbXrecord
280
     1
102
RTVSPropertyOp0
 70
     1
102
RTVSPropertyOp1
 70
     1
102
RTVSPropertyOp2
 70
     1
102
RTVSPropertyOp3
 70
     1
102
RTVSPropertyOp4
 70
     1
102
RTVSPropertyOp5
 70
     1
102
RTVSPropertyOp6
 70
     1
102
RTVSPropertyOp7
 70
     1
102
RTVSPropertyOp8
 70
     1
102
RTVSPropertyOp9
 70
     1
102
RTVSPropertyOp10
 70
     1
102
RTVSPropertyOp11
 70
     1
102
RTVSPropertyOp12
 70
     1
102
RTVSPropertyOp13
 70
     1
102
RTVSPropertyOp14
 70
     1
102
RTVSPropertyOp15
 70
     1
102
RTVSPropertyOp16
 70
     1
102
RTVSPropertyOp17
 70
     1
102
RTVSPropertyOp18
 70
     1
102
RTVSPropertyOp19
 70
     1
102
RTVSPropertyOp20
 70
     1
102
RTVSPropertyOp21
 70
     1
102
RTVSPropertyOp22
 70
     1
102
RTVSPropertyOp23
 70
     1
102
RTVSPropertyOp24
 70
     1
102
RTVSPropertyOp25
 70
     1
102
RTVSPropertyOp26
 70
     1
102
RTVSPropertyOp27
 70
     1
  0
XRECORD
  5
396
102
{ACAD_REACTORS
330
395
102
}
330
395
100
AcDbXrecord
280
     1
102
RTVSPropertyOp0
 70
     1
102
RTVSPropertyOp1
 70
     1
102
RTVSPropertyOp2
 70
     1
102
RTVSPropertyOp3
 70
     1
102
RTVSPropertyOp4
 70
     1
102
RTVSPropertyOp5
 70
     1
102
RTVSPropertyOp6
 70
     1
102
RTVSPropertyOp7
 70
     1
102
RTVSPropertyOp8
 70
     1
102
RTVSPropertyOp9
 70
     1
102
RTVSPropertyOp10
 70
     1
102
RTVSPropertyOp11
 70
     1
102
RTVSPropertyOp12
 70
     1
102
RTVSPropertyOp13
 70
     1
102
RTVSPropertyOp14
 70
     1
102
RTVSPropertyOp15
 70
     1
102
RTVSPropertyOp16
 70
     1
102
RTVSPropertyOp17
 70
     1
102
RTVSPropertyOp18
 70
     1
102
RTVSPropertyOp19
 70
     1
102
RTVSPropertyOp20
 70
     1
102
RTVSPropertyOp21
 70
     1
102
RTVSPropertyOp22
 70
     1
102
RTVSPropertyOp23
 70
     1
102
RTVSPropertyOp24
 70
     1
102
RTVSPropertyOp25
 70
     1
102
RTVSPropertyOp26
 70
     1
102
RTVSPropertyOp27
 70
     1
  0
XRECORD
  5
39E
102
{ACAD_REACTORS
330
39D
102
}
330
39D
100
AcDbXrecord
280
     1
102
RTVSPropertyOp0
 70
     1
102
RTVSPropertyOp1
 70
     1
102
RTVSPropertyOp2
 70
     1
102
RTVSPropertyOp3
 70
     1
102
RTVSPropertyOp4
 70
     1
102
RTVSPropertyOp5
 70
     1
102
RTVSPropertyOp6
 70
     1
102
RTVSPropertyOp7
 70
     1
102
RTVSPropertyOp8
 70
     1
102
RTVSPropertyOp9
 70
     1
102
RTVSPropertyOp10
 70
     1
102
RTVSPropertyOp11
 70
     1
102
RTVSPropertyOp12
 70
     1
102
RTVSPropertyOp13
 70
     1
102
RTVSPropertyOp14
 70
     1
102
RTVSPropertyOp15
 70
     1
102
RTVSPropertyOp16
 70
     1
102
RTVSPropertyOp17
 70
     1
102
RTVSPropertyOp18
 70
     1
102
RTVSPropertyOp19
 70
     1
102
RTVSPropertyOp20
 70
     1
102
RTVSPropertyOp21
 70
     1
102
RTVSPropertyOp22
 70
     1
102
RTVSPropertyOp23
 70
     1
102
RTVSPropertyOp24
 70
     1
102
RTVSPropertyOp25
 70
     1
102
RTVSPropertyOp26
 70
     1
102
RTVSPropertyOp27
 70
     1
  0
XRECORD
  5
392
102
{ACAD_REACTORS
330
391
102
}
330
391
100
AcDbXrecord
280
     1
102
RTVSPropertyOp0
 70
     1
102
RTVSPropertyOp1
 70
     1
102
RTVSPropertyOp2
 70
     1
102
RTVSPropertyOp3
 70
     1
102
RTVSPropertyOp4
 70
     1
102
RTVSPropertyOp5
 70
     1
102
RTVSPropertyOp6
 70
     1
102
RTVSPropertyOp7
 70
     1
102
RTVSPropertyOp8
 70
     1
102
RTVSPropertyOp9
 70
     1
102
RTVSPropertyOp10
 70
     1
102
RTVSPropertyOp11
 70
     1
102
RTVSPropertyOp12
 70
     1
102
RTVSPropertyOp13
 70
     1
102
RTVSPropertyOp14
 70
     1
102
RTVSPropertyOp15
 70
     1
102
RTVSPropertyOp16
 70
     1
102
RTVSPropertyOp17
 70
     1
102
RTVSPropertyOp18
 70
     1
102
RTVSPropertyOp19
 70
     1
102
RTVSPropertyOp20
 70
     1
102
RTVSPropertyOp21
 70
     1
102
RTVSPropertyOp22
 70
     1
102
RTVSPropertyOp23
 70
     1
102
RTVSPropertyOp24
 70
     1
102
RTVSPropertyOp25
 70
     1
102
RTVSPropertyOp26
 70
     1
102
RTVSPropertyOp27
 70
     1
  0
XRECORD
  5
394
102
{ACAD_REACTORS
330
393
102
}
330
393
100
AcDbXrecord
280
     1
102
RTVSPropertyOp0
 70
     1
102
RTVSPropertyOp1
 70
     1
102
RTVSPropertyOp2
 70
     1
102
RTVSPropertyOp3
 70
     1
102
RTVSPropertyOp4
 70
     1
102
RTVSPropertyOp5
 70
     1
102
RTVSPropertyOp6
 70
     1
102
RTVSPropertyOp7
 70
     1
102
RTVSPropertyOp8
 70
     1
102
RTVSPropertyOp9
 70
     1
102
RTVSPropertyOp10
 70
     1
102
RTVSPropertyOp11
 70
     1
102
RTVSPropertyOp12
 70
     1
102
RTVSPropertyOp13
 70
     1
102
RTVSPropertyOp14
 70
     1
102
RTVSPropertyOp15
 70
     1
102
RTVSPropertyOp16
 70
     1
102
RTVSPropertyOp17
 70
     1
102
RTVSPropertyOp18
 70
     1
102
RTVSPropertyOp19
 70
     1
102
RTVSPropertyOp20
 70
     1
102
RTVSPropertyOp21
 70
     1
102
RTVSPropertyOp22
 70
     1
102
RTVSPropertyOp23
 70
     1
102
RTVSPropertyOp24
 70
     1
102
RTVSPropertyOp25
 70
     1
102
RTVSPropertyOp26
 70
     1
102
RTVSPropertyOp27
 70
     1
  0
XRECORD
  5
39C
102
{ACAD_REACTORS
330
39B
102
}
330
39B
100
AcDbXrecord
280
     1
102
RTVSPropertyOp0
 70
     1
102
RTVSPropertyOp1
 70
     1
102
RTVSPropertyOp2
 70
     1
102
RTVSPropertyOp3
 70
     1
102
RTVSPropertyOp4
 70
     1
102
RTVSPropertyOp5
 70
     1
102
RTVSPropertyOp6
 70
     1
102
RTVSPropertyOp7
 70
     1
102
RTVSPropertyOp8
 70
     1
102
RTVSPropertyOp9
 70
     1
102
RTVSPropertyOp10
 70
     1
102
RTVSPropertyOp11
 70
     1
102
RTVSPropertyOp12
 70
     1
102
RTVSPropertyOp13
 70
     1
102
RTVSPropertyOp14
 70
     1
102
RTVSPropertyOp15
 70
     1
102
RTVSPropertyOp16
 70
     1
102
RTVSPropertyOp17
 70
     1
102
RTVSPropertyOp18
 70
     1
102
RTVSPropertyOp19
 70
     1
102
RTVSPropertyOp20
 70
     1
102
RTVSPropertyOp21
 70
     1
102
RTVSPropertyOp22
 70
     1
102
RTVSPropertyOp23
 70
     1
102
RTVSPropertyOp24
 70
     1
102
RTVSPropertyOp25
 70
     1
102
RTVSPropertyOp26
 70
     1
102
RTVSPropertyOp27
 70
     1
  0
XRECORD
  5
380
102
{ACAD_REACTORS
330
37F
102
}
330
37F
100
AcDbXrecord
280
     1
102
RTVSPropertyOp0
 70
     1
102
RTVSPropertyOp1
 70
     1
102
RTVSPropertyOp2
 70
     1
102
RTVSPropertyOp3
 70
     1
102
RTVSPropertyOp4
 70
     1
102
RTVSPropertyOp5
 70
     1
102
RTVSPropertyOp6
 70
     1
102
RTVSPropertyOp7
 70
     1
102
RTVSPropertyOp8
 70
     1
102
RTVSPropertyOp9
 70
     1
102
RTVSPropertyOp10
 70
     1
102
RTVSPropertyOp11
 70
     1
102
RTVSPropertyOp12
 70
     1
102
RTVSPropertyOp13
 70
     1
102
RTVSPropertyOp14
 70
     1
102
RTVSPropertyOp15
 70
     1
102
RTVSPropertyOp16
 70
     1
102
RTVSPropertyOp17
 70
     1
102
RTVSPropertyOp18
 70
     1
102
RTVSPropertyOp19
 70
     1
102
RTVSPropertyOp20
 70
     1
102
RTVSPropertyOp21
 70
     1
102
RTVSPropertyOp22
 70
     1
102
RTVSPropertyOp23
 70
     1
102
RTVSPropertyOp24
 70
     1
102
RTVSPropertyOp25
 70
     1
102
RTVSPropertyOp26
 70
     1
102
RTVSPropertyOp27
 70
     1
  0
XRECORD
  5
382
102
{ACAD_REACTORS
330
381
102
}
330
381
100
AcDbXrecord
280
     1
102
RTVSPropertyOp0
 70
     1
102
RTVSPropertyOp1
 70
     1
102
RTVSPropertyOp2
 70
     1
102
RTVSPropertyOp3
 70
     1
102
RTVSPropertyOp4
 70
     1
102
RTVSPropertyOp5
 70
     1
102
RTVSPropertyOp6
 70
     1
102
RTVSPropertyOp7
 70
     1
102
RTVSPropertyOp8
 70
     1
102
RTVSPropertyOp9
 70
     1
102
RTVSPropertyOp10
 70
     1
102
RTVSPropertyOp11
 70
     1
102
RTVSPropertyOp12
 70
     1
102
RTVSPropertyOp13
 70
     1
102
RTVSPropertyOp14
 70
     1
102
RTVSPropertyOp15
 70
     1
102
RTVSPropertyOp16
 70
     1
102
RTVSPropertyOp17
 70
     1
102
RTVSPropertyOp18
 70
     1
102
RTVSPropertyOp19
 70
     1
102
RTVSPropertyOp20
 70
     1
102
RTVSPropertyOp21
 70
     1
102
RTVSPropertyOp22
 70
     1
102
RTVSPropertyOp23
 70
     1
102
RTVSPropertyOp24
 70
     1
102
RTVSPropertyOp25
 70
     1
102
RTVSPropertyOp26
 70
     1
102
RTVSPropertyOp27
 70
     1
  0
XRECORD
  5
384
102
{ACAD_REACTORS
330
383
102
}
330
383
100
AcDbXrecord
280
     1
102
RTVSPropertyOp0
 70
     1
102
RTVSPropertyOp1
 70
     1
102
RTVSPropertyOp2
 70
     1
102
RTVSPropertyOp3
 70
     1
102
RTVSPropertyOp4
 70
     1
102
RTVSPropertyOp5
 70
     1
102
RTVSPropertyOp6
 70
     1
102
RTVSPropertyOp7
 70
     1
102
RTVSPropertyOp8
 70
     1
102
RTVSPropertyOp9
 70
     1
102
RTVSPropertyOp10
 70
     1
102
RTVSPropertyOp11
 70
     1
102
RTVSPropertyOp12
 70
     1
102
RTVSPropertyOp13
 70
     1
102
RTVSPropertyOp14
 70
     1
102
RTVSPropertyOp15
 70
     1
102
RTVSPropertyOp16
 70
     1
102
RTVSPropertyOp17
 70
     1
102
RTVSPropertyOp18
 70
     1
102
RTVSPropertyOp19
 70
     1
102
RTVSPropertyOp20
 70
     1
102
RTVSPropertyOp21
 70
     1
102
RTVSPropertyOp22
 70
     1
102
RTVSPropertyOp23
 70
     1
102
RTVSPropertyOp24
 70
     1
102
RTVSPropertyOp25
 70
     1
102
RTVSPropertyOp26
 70
     1
102
RTVSPropertyOp27
 70
     1
  0
XRECORD
  5
386
102
{ACAD_REACTORS
330
385
102
}
330
385
100
AcDbXrecord
280
     1
102
RTVSPropertyOp0
 70
     1
102
RTVSPropertyOp1
 70
     1
102
RTVSPropertyOp2
 70
     1
102
RTVSPropertyOp3
 70
     1
102
RTVSPropertyOp4
 70
     1
102
RTVSPropertyOp5
 70
     1
102
RTVSPropertyOp6
 70
     1
102
RTVSPropertyOp7
 70
     1
102
RTVSPropertyOp8
 70
     1
102
RTVSPropertyOp9
 70
     1
102
RTVSPropertyOp10
 70
     1
102
RTVSPropertyOp11
 70
     1
102
RTVSPropertyOp12
 70
     1
102
RTVSPropertyOp13
 70
     1
102
RTVSPropertyOp14
 70
     1
102
RTVSPropertyOp15
 70
     1
102
RTVSPropertyOp16
 70
     1
102
RTVSPropertyOp17
 70
     1
102
RTVSPropertyOp18
 70
     1
102
RTVSPropertyOp19
 70
     1
102
RTVSPropertyOp20
 70
     1
102
RTVSPropertyOp21
 70
     1
102
RTVSPropertyOp22
 70
     1
102
RTVSPropertyOp23
 70
     1
102
RTVSPropertyOp24
 70
     1
102
RTVSPropertyOp25
 70
     1
102
RTVSPropertyOp26
 70
     1
102
RTVSPropertyOp27
 70
     1
  0
XRECORD
  5
39A
102
{ACAD_REACTORS
330
399
102
}
330
399
100
AcDbXrecord
280
     1
102
RTVSPropertyOp0
 70
     1
102
RTVSPropertyOp1
 70
     1
102
RTVSPropertyOp2
 70
     1
102
RTVSPropertyOp3
 70
     1
102
RTVSPropertyOp4
 70
     1
102
RTVSPropertyOp5
 70
     1
102
RTVSPropertyOp6
 70
     1
102
RTVSPropertyOp7
 70
     1
102
RTVSPropertyOp8
 70
     1
102
RTVSPropertyOp9
 70
     1
102
RTVSPropertyOp10
 70
     1
102
RTVSPropertyOp11
 70
     1
102
RTVSPropertyOp12
 70
     1
102
RTVSPropertyOp13
 70
     1
102
RTVSPropertyOp14
 70
     1
102
RTVSPropertyOp15
 70
     1
102
RTVSPropertyOp16
 70
     1
102
RTVSPropertyOp17
 70
     1
102
RTVSPropertyOp18
 70
     1
102
RTVSPropertyOp19
 70
     1
102
RTVSPropertyOp20
 70
     1
102
RTVSPropertyOp21
 70
     1
102
RTVSPropertyOp22
 70
     1
102
RTVSPropertyOp23
 70
     1
102
RTVSPropertyOp24
 70
     1
102
RTVSPropertyOp25
 70
     1
102
RTVSPropertyOp26
 70
     1
102
RTVSPropertyOp27
 70
     1
  0
XRECORD
  5
390
102
{ACAD_REACTORS
330
38F
102
}
330
38F
100
AcDbXrecord
280
     1
102
RTVSPropertyOp0
 70
     1
102
RTVSPropertyOp1
 70
     1
102
RTVSPropertyOp2
 70
     1
102
RTVSPropertyOp3
 70
     1
102
RTVSPropertyOp4
 70
     1
102
RTVSPropertyOp5
 70
     1
102
RTVSPropertyOp6
 70
     1
102
RTVSPropertyOp7
 70
     1
102
RTVSPropertyOp8
 70
     1
102
RTVSPropertyOp9
 70
     1
102
RTVSPropertyOp10
 70
     1
102
RTVSPropertyOp11
 70
     1
102
RTVSPropertyOp12
 70
     1
102
RTVSPropertyOp13
 70
     1
102
RTVSPropertyOp14
 70
     1
102
RTVSPropertyOp15
 70
     1
102
RTVSPropertyOp16
 70
     1
102
RTVSPropertyOp17
 70
     1
102
RTVSPropertyOp18
 70
     1
102
RTVSPropertyOp19
 70
     1
102
RTVSPropertyOp20
 70
     1
102
RTVSPropertyOp21
 70
     1
102
RTVSPropertyOp22
 70
     1
102
RTVSPropertyOp23
 70
     1
102
RTVSPropertyOp24
 70
     1
102
RTVSPropertyOp25
 70
     1
102
RTVSPropertyOp26
 70
     1
102
RTVSPropertyOp27
 70
     1
  0
XRECORD
  5
398
102
{ACAD_REACTORS
330
397
102
}
330
397
100
AcDbXrecord
280
     1
102
RTVSPropertyOp0
 70
     1
102
RTVSPropertyOp1
 70
     1
102
RTVSPropertyOp2
 70
     1
102
RTVSPropertyOp3
 70
     1
102
RTVSPropertyOp4
 70
     1
102
RTVSPropertyOp5
 70
     1
102
RTVSPropertyOp6
 70
     1
102
RTVSPropertyOp7
 70
     1
102
RTVSPropertyOp8
 70
     1
102
RTVSPropertyOp9
 70
     1
102
RTVSPropertyOp10
 70
     1
102
RTVSPropertyOp11
 70
     1
102
RTVSPropertyOp12
 70
     1
102
RTVSPropertyOp13
 70
     1
102
RTVSPropertyOp14
 70
     1
102
RTVSPropertyOp15
 70
     1
102
RTVSPropertyOp16
 70
     1
102
RTVSPropertyOp17
 70
     1
102
RTVSPropertyOp18
 70
     1
102
RTVSPropertyOp19
 70
     1
102
RTVSPropertyOp20
 70
     1
102
RTVSPropertyOp21
 70
     1
102
RTVSPropertyOp22
 70
     1
102
RTVSPropertyOp23
 70
     1
102
RTVSPropertyOp24
 70
     1
102
RTVSPropertyOp25
 70
     1
102
RTVSPropertyOp26
 70
     1
102
RTVSPropertyOp27
 70
     1
  0
ENDSEC
  0
EOF
